ISO-10303-21;
HEADER;
FILE_DESCRIPTION (( 'STEP AP203' ),
    '1' );
FILE_NAME ('372727.step',
    '2023-03-31T07:08:54',
    ( '' ),
    ( '' ),
    'SwSTEP 2.0',
    'SolidWorks 2022',
    '' );
FILE_SCHEMA (( 'CONFIG_CONTROL_DESIGN' ));
ENDSEC;

DATA;
#1 = CYLINDRICAL_SURFACE ( 'NONE', #153, 1.499999999999998668 ) ;
#2 = EDGE_CURVE ( 'NONE', #270, #151, #313, .T. ) ;
#3 = DIRECTION ( 'NONE',  ( 3.491481338843133355E-15, -1.276467311168695266E-16, 1.000000000000000000 ) ) ;
#4 = LOCAL_TIME ( 9, 8, 54.00000000000000000, #74 ) ;
#5 = EDGE_CURVE ( 'NONE', #47, #270, #26, .T. ) ;
#6 = ORIENTED_EDGE ( 'NONE', *, *, #97, .T. ) ;
#7 = CC_DESIGN_APPROVAL ( #354, ( #163 ) ) ;
#8 = CARTESIAN_POINT ( 'NONE',  ( 2.094888803305880013E-14, -7.658803867012171593E-16, 6.000000000000000000 ) ) ;
#9 = ORIENTED_EDGE ( 'NONE', *, *, #241, .T. ) ;
#10 = CARTESIAN_POINT ( 'NONE',  ( 1.836970198721021799E-16, -1.499999999999998668, -1.836970198721034618E-16 ) ) ;
#11 = ORIENTED_EDGE ( 'NONE', *, *, #302, .T. ) ;
#12 = AXIS2_PLACEMENT_3D ( 'NONE', #129, #324, #157 ) ;
#13 = EDGE_CURVE ( 'NONE', #312, #67, #244, .T. ) ;
#14 = DATE_TIME_ROLE ( 'creation_date' ) ;
#15 = DIRECTION ( 'NONE',  ( -4.456761796588773165E-31, -1.000000000000000000, -1.276467311168694772E-16 ) ) ;
#16 = EDGE_LOOP ( 'NONE', ( #72, #343 ) ) ;
#17 = CYLINDRICAL_SURFACE ( 'NONE', #12, 1.249999999999999334 ) ;
#18 = CIRCLE ( 'NONE', #205, 1.499999999999998668 ) ;
#19 = CARTESIAN_POINT ( 'NONE',  ( 1.323178959930974653E-13, -1.200000000000005507, 38.00000000000000000 ) ) ;
#20 = DIRECTION ( 'NONE',  ( 3.491481338843133355E-15, -1.276467311168695266E-16, 1.000000000000000000 ) ) ;
#21 = CC_DESIGN_PERSON_AND_ORGANIZATION_ASSIGNMENT ( #155, #100, ( #113 ) ) ;
#22 = CARTESIAN_POINT ( 'NONE',  ( 2.420648447061907480E-14, -8.849764081882762009E-16, 6.933012701892213414 ) ) ;
#23 = DIRECTION ( 'NONE',  ( -4.275831445896958607E-31, -1.000000000000000000, -1.224646799147353207E-16 ) ) ;
#24 = CARTESIAN_POINT ( 'NONE',  ( 8.610081678426452062E-14, -6.250000000000003553, 24.66025403784433578 ) ) ;
#25 = DIRECTION ( 'NONE',  ( 3.491481338843133355E-15, -1.276467311168695266E-16, 1.000000000000000000 ) ) ;
#26 = CIRCLE ( 'NONE', #246, 1.500000000000000888 ) ;
#27 = DIRECTION ( 'NONE',  ( -3.491481338843133355E-15, 1.224646799147353207E-16, -1.000000000000000000 ) ) ;
#28 = APPROVAL_STATUS ( 'not_yet_approved' ) ;
#29 = ORIENTED_EDGE ( 'NONE', *, *, #13, .F. ) ;
#30 = VERTEX_POINT ( 'NONE', #306 ) ;
#31 = FACE_OUTER_BOUND ( 'NONE', #212, .T. ) ;
#32 = ADVANCED_FACE ( 'NONE', ( #201 ), #143, .F. ) ;
#33 = ORIENTED_EDGE ( 'NONE', *, *, #195, .F. ) ;
#34 = DIRECTION ( 'NONE',  ( 0.000000000000000000, -1.000000000000000000, 0.000000000000000000 ) ) ;
#35 = CLOSED_SHELL ( 'NONE', ( #75, #208, #348, #68 ) ) ;
#36 = EDGE_LOOP ( 'NONE', ( #96, #273 ) ) ;
#37 = CYLINDRICAL_SURFACE ( 'NONE', #330, 1.249999999999999334 ) ;
#38 = ORIENTED_EDGE ( 'NONE', *, *, #257, .T. ) ;
#39 = ORIENTED_EDGE ( 'NONE', *, *, #5, .F. ) ;
#40 = EDGE_CURVE ( 'NONE', #296, #262, #85, .T. ) ;
#41 = CONICAL_SURFACE ( 'NONE', #132, 6.250000000000000000, 0.2617993877991501850 ) ;
#42 = AXIS2_PLACEMENT_3D ( 'NONE', #248, #25, #221 ) ;
#43 = DIRECTION ( 'NONE',  ( 0.000000000000000000, 0.000000000000000000, 1.000000000000000000 ) ) ;
#44 = DESIGN_CONTEXT ( 'detailed design', #243, 'design' ) ;
#45 = CARTESIAN_POINT ( 'NONE',  ( 0.000000000000000000, 0.000000000000000000, 0.000000000000000000 ) ) ;
#46 = CARTESIAN_POINT ( 'NONE',  ( 1.326762908760390423E-13, -4.653657836759941941E-15, 38.00000000000000000 ) ) ;
#47 = VERTEX_POINT ( 'NONE', #344 ) ;
#48 = CIRCLE ( 'NONE', #253, 1.249999999999999556 ) ;
#49 = CALENDAR_DATE ( 2023, 31, 3 ) ;
#50 = LOCAL_TIME ( 9, 8, 54.00000000000000000, #194 ) ;
#51 = COORDINATED_UNIVERSAL_TIME_OFFSET ( 1, 0, .AHEAD. ) ;
#52 = DIRECTION ( 'NONE',  ( -4.275831445896958607E-31, -1.000000000000000000, -1.224646799147353207E-16 ) ) ;
#53 = ADVANCED_FACE ( 'NONE', ( #64 ), #109, .T. ) ;
#54 = CARTESIAN_POINT ( 'NONE',  ( 2.094888803305880013E-14, 1.124819836996389511E-32, 6.000000000000000000 ) ) ;
#55 = DIRECTION ( 'NONE',  ( 4.275831445896958607E-31, 1.000000000000000000, 1.224646799147353207E-16 ) ) ;
#56 = CARTESIAN_POINT ( 'NONE',  ( -1.198479195589419821E-30, -1.249999999999999334, -3.432580842567308968E-16 ) ) ;
#57 = DIRECTION ( 'NONE',  ( 0.000000000000000000, 1.000000000000000000, 0.000000000000000000 ) ) ;
#58 = APPROVAL_ROLE ( '' ) ;
#59 = CARTESIAN_POINT ( 'NONE',  ( 1.326762908760390423E-13, 1.199999999999996403, 38.00000000000000000 ) ) ;
#60 = CALENDAR_DATE ( 2023, 31, 3 ) ;
#61 = EDGE_CURVE ( 'NONE', #270, #47, #103, .T. ) ;
#62 = DIRECTION ( 'NONE',  ( -4.275831445896958607E-31, -1.000000000000000000, -1.224646799147353207E-16 ) ) ;
#63 = ORIENTED_EDGE ( 'NONE', *, *, #61, .T. ) ;
#64 = FACE_OUTER_BOUND ( 'NONE', #174, .T. ) ;
#65 = VECTOR ( 'NONE', #326, 1000.000000000000000 ) ;
#66 = ORIENTED_EDGE ( 'NONE', *, *, #70, .F. ) ;
#67 = VERTEX_POINT ( 'NONE', #121 ) ;
#68 = ADVANCED_FACE ( 'NONE', ( #339 ), #309, .F. ) ;
#69 = VECTOR ( 'NONE', #76, 1000.000000000000000 ) ;
#70 = EDGE_CURVE ( 'NONE', #314, #149, #127, .T. ) ;
#71 = CARTESIAN_POINT ( 'NONE',  ( 2.094888803305880013E-14, -7.658803867012171593E-16, 6.000000000000000000 ) ) ;
#72 = ORIENTED_EDGE ( 'NONE', *, *, #241, .F. ) ;
#73 = APPROVAL_STATUS ( 'not_yet_approved' ) ;
#74 = COORDINATED_UNIVERSAL_TIME_OFFSET ( 1, 0, .AHEAD. ) ;
#75 = ADVANCED_FACE ( 'NONE', ( #141 ), #37, .T. ) ;
#76 = DIRECTION ( 'NONE',  ( 3.491481338843133355E-15, -1.276467311168695266E-16, 1.000000000000000000 ) ) ;
#77 = LINE ( 'NONE', #139, #360 ) ;
#78 = AXIS2_PLACEMENT_3D ( 'NONE', #261, #232, #258 ) ;
#79 = APPROVAL_PERSON_ORGANIZATION ( #267, #354, #298 ) ;
#80 = CARTESIAN_POINT ( 'NONE',  ( 7.810136249237470071E-14, -1.499999999999999556, 6.933012701892213414 ) ) ;
#81 = CALENDAR_DATE ( 2023, 31, 3 ) ;
#82 = DIRECTION ( 'NONE',  ( 0.000000000000000000, -1.000000000000000000, 0.000000000000000000 ) ) ;
#83 = PERSON_AND_ORGANIZATION_ROLE ( 'classification_officer' ) ;
#84 = PRODUCT_RELATED_PRODUCT_CATEGORY ( 'detail', '', ( #113 ) ) ;
#85 = LINE ( 'NONE', #311, #239 ) ;
#86 = AXIS2_PLACEMENT_3D ( 'NONE', #190, #162, #55 ) ;
#87 = DIRECTION ( 'NONE',  ( -3.491481338843133355E-15, 1.224646799147353207E-16, -1.000000000000000000 ) ) ;
#88 = PERSON_AND_ORGANIZATION ( #207, #321 ) ;
#89 = ADVANCED_BREP_SHAPE_REPRESENTATION ( '372727', ( #197, #319, #128 ), #277 ) ;
#90 = ORIENTED_EDGE ( 'NONE', *, *, #318, .T. ) ;
#91 = CARTESIAN_POINT ( 'NONE',  ( 1.316288464743861212E-13, -4.616918432785521081E-15, 37.69999999999999574 ) ) ;
#92 = ORIENTED_EDGE ( 'NONE', *, *, #61, .F. ) ;
#93 = DIRECTION ( 'NONE',  ( -4.456761796588771413E-31, -1.000000000000000000, -1.276467311168695512E-16 ) ) ;
#94 = VECTOR ( 'NONE', #275, 1000.000000000000000 ) ;
#95 = CC_DESIGN_APPROVAL ( #327, ( #346 ) ) ;
#96 = ORIENTED_EDGE ( 'NONE', *, *, #257, .F. ) ;
#97 = EDGE_CURVE ( 'NONE', #149, #47, #173, .T. ) ;
#98 = UNCERTAINTY_MEASURE_WITH_UNIT (LENGTH_MEASURE( 1.000000000000000082E-05 ), #347, 'distance_accuracy_value', 'NONE');
#99 = DIRECTION ( 'NONE',  ( -3.491481338843133355E-15, 1.224646799147353207E-16, -1.000000000000000000 ) ) ;
#100 = PERSON_AND_ORGANIZATION_ROLE ( 'design_owner' ) ;
#101 = ORIENTED_EDGE ( 'NONE', *, *, #2, .T. ) ;
#102 = DIRECTION ( 'NONE',  ( 3.491481338843133355E-15, -1.276467311168695266E-16, 1.000000000000000000 ) ) ;
#103 = CIRCLE ( 'NONE', #216, 1.500000000000000888 ) ;
#104 = APPLICATION_PROTOCOL_DEFINITION ( 'international standard', 'config_control_design', 1994, #213 ) ;
#105 = ADVANCED_FACE ( 'NONE', ( #31 ), #1, .T. ) ;
#106 = DIRECTION ( 'NONE',  ( 3.491481338843133355E-15, -1.276467311168695266E-16, 1.000000000000000000 ) ) ;
#107 = CARTESIAN_POINT ( 'NONE',  ( -3.229489878259194067E-30, 9.461979795468093666E-32, -9.249626633631821142E-16 ) ) ;
#108 = LINE ( 'NONE', #305, #94 ) ;
#109 = CONICAL_SURFACE ( 'NONE', #281, 6.250000000000000000, 0.2617993877991501850 ) ;
#110 = AXIS2_PLACEMENT_3D ( 'NONE', #320, #99, #352 ) ;
#111 = ORIENTED_EDGE ( 'NONE', *, *, #195, .T. ) ;
#112 = FACE_OUTER_BOUND ( 'NONE', #230, .T. ) ;
#113 = PRODUCT ( '372727', '372727', '', ( #218 ) ) ;
#114 = DATE_TIME_ROLE ( 'classification_date' ) ;
#115 = CARTESIAN_POINT ( 'NONE',  ( 0.000000000000000000, 0.000000000000000000, 0.000000000000000000 ) ) ;
#116 = CARTESIAN_POINT ( 'NONE',  ( 2.420648447061907480E-14, -8.849764081882762009E-16, 6.933012701892213414 ) ) ;
#117 = EDGE_CURVE ( 'NONE', #149, #314, #176, .T. ) ;
#118 = EDGE_LOOP ( 'NONE', ( #38, #111, #29, #179 ) ) ;
#119 = DIRECTION ( 'NONE',  ( 3.491481338843133355E-15, -1.276467311168695266E-16, 1.000000000000000000 ) ) ;
#120 = EDGE_LOOP ( 'NONE', ( #287, #285, #39, #245 ) ) ;
#121 = CARTESIAN_POINT ( 'NONE',  ( 1.062752486642281585E-14, 1.249999999999998668, 6.000000000000000000 ) ) ;
#122 = ORIENTED_EDGE ( 'NONE', *, *, #199, .T. ) ;
#123 = CC_DESIGN_SECURITY_CLASSIFICATION ( #346, ( #140 ) ) ;
#124 = CC_DESIGN_PERSON_AND_ORGANIZATION_ASSIGNMENT ( #192, #83, ( #346 ) ) ;
#125 = DIRECTION ( 'NONE',  ( -3.491481338843133355E-15, 1.224646799147353207E-16, -1.000000000000000000 ) ) ;
#126 = ORIENTED_EDGE ( 'NONE', *, *, #199, .F. ) ;
#127 = CIRCLE ( 'NONE', #159, 1.200000000000001066 ) ;
#128 = AXIS2_PLACEMENT_3D ( 'NONE', #45, #43, #353 ) ;
#129 = CARTESIAN_POINT ( 'NONE',  ( -6.413839710158237013E-31, 0.000000000000000000, -1.836996703606440502E-16 ) ) ;
#130 = FACE_OUTER_BOUND ( 'NONE', #200, .T. ) ;
#131 = EDGE_CURVE ( 'NONE', #151, #262, #233, .T. ) ;
#132 = AXIS2_PLACEMENT_3D ( 'NONE', #279, #191, #301 ) ;
#133 = LINE ( 'NONE', #24, #337 ) ;
#134 = CIRCLE ( 'NONE', #154, 1.249999999999999556 ) ;
#135 = CC_DESIGN_DATE_AND_TIME_ASSIGNMENT ( #188, #14, ( #163 ) ) ;
#136 = CYLINDRICAL_SURFACE ( 'NONE', #86, 1.499999999999998668 ) ;
#137 = CARTESIAN_POINT ( 'NONE',  ( 2.094888803305880013E-14, -1.250000000000000444, 6.000000000000000000 ) ) ;
#138 = APPROVAL_DATE_TIME ( #227, #266 ) ;
#139 = CARTESIAN_POINT ( 'NONE',  ( 1.328232484919367446E-13, -1.200000000000005507, 38.00000000000000000 ) ) ;
#140 = PRODUCT_DEFINITION_FORMATION_WITH_SPECIFIED_SOURCE ( 'ANY', '', #113, .NOT_KNOWN. ) ;
#141 = FACE_OUTER_BOUND ( 'NONE', #118, .T. ) ;
#142 = PERSON_AND_ORGANIZATION ( #207, #321 ) ;
#143 = PLANE ( 'NONE',  #78 ) ;
#144 = EDGE_CURVE ( 'NONE', #296, #202, #48, .T. ) ;
#145 = PERSON_AND_ORGANIZATION ( #207, #321 ) ;
#146 = ORIENTED_EDGE ( 'NONE', *, *, #70, .T. ) ;
#147 = CARTESIAN_POINT ( 'NONE',  ( -6.413839710158237013E-31, 0.000000000000000000, -1.836996703606440502E-16 ) ) ;
#148 = AXIS2_PLACEMENT_3D ( 'NONE', #46, #125, #209 ) ;
#149 = VERTEX_POINT ( 'NONE', #304 ) ;
#150 = CARTESIAN_POINT ( 'NONE',  ( 8.610081678426452062E-14, -3.147800816442411895E-15, 24.66025403784433578 ) ) ;
#151 = VERTEX_POINT ( 'NONE', #80 ) ;
#152 = CC_DESIGN_PERSON_AND_ORGANIZATION_ASSIGNMENT ( #145, #333, ( #140 ) ) ;
#153 = AXIS2_PLACEMENT_3D ( 'NONE', #115, #235, #228 ) ;
#154 = AXIS2_PLACEMENT_3D ( 'NONE', #71, #20, #294 ) ;
#155 = PERSON_AND_ORGANIZATION ( #207, #321 ) ;
#156 = EDGE_LOOP ( 'NONE', ( #345, #146, #6, #92 ) ) ;
#157 = DIRECTION ( 'NONE',  ( -4.456761796588771413E-31, -1.000000000000000000, -1.276467311168695512E-16 ) ) ;
#158 = ORIENTED_EDGE ( 'NONE', *, *, #249, .T. ) ;
#159 = AXIS2_PLACEMENT_3D ( 'NONE', #263, #27, #237 ) ;
#160 = PERSON_AND_ORGANIZATION ( #207, #321 ) ;
#161 = PERSON_AND_ORGANIZATION_ROLE ( 'creator' ) ;
#162 = DIRECTION ( 'NONE',  ( -3.491481338843133355E-15, 1.224646799147353207E-16, -1.000000000000000000 ) ) ;
#163 = PRODUCT_DEFINITION ( 'UNKNOWN', '', #140, #44 ) ;
#164 = CARTESIAN_POINT ( 'NONE',  ( -3.786585102832789749E-30, -1.249999999999999112, -1.084521077259268961E-15 ) ) ;
#165 = FACE_OUTER_BOUND ( 'NONE', #289, .T. ) ;
#166 = COORDINATED_UNIVERSAL_TIME_OFFSET ( 1, 0, .AHEAD. ) ;
#167 = CARTESIAN_POINT ( 'NONE',  ( 2.094888803305880013E-14, -7.658803867012171593E-16, 6.000000000000000000 ) ) ;
#168 = DIRECTION ( 'NONE',  ( 3.491481338843133355E-15, -1.224646799147353207E-16, 1.000000000000000000 ) ) ;
#169 = SECURITY_CLASSIFICATION_LEVEL ( 'unclassified' ) ;
#170 = CONICAL_SURFACE ( 'NONE', #110, 1.200000000000001066, 0.7853981633974453924 ) ;
#171 = ADVANCED_FACE ( 'NONE', ( #112 ), #136, .T. ) ;
#172 = DIRECTION ( 'NONE',  ( 3.404208188709233130E-15, 0.2588190451025213501, 0.9659258262890680902 ) ) ;
#173 = LINE ( 'NONE', #59, #308 ) ;
#174 = EDGE_LOOP ( 'NONE', ( #9, #260, #158, #126 ) ) ;
#175 = DIRECTION ( 'NONE',  ( -3.491481338843133355E-15, 1.224646799147353207E-16, -1.000000000000000000 ) ) ;
#176 = CIRCLE ( 'NONE', #359, 1.200000000000001066 ) ;
#177 = LOCAL_TIME ( 9, 8, 54.00000000000000000, #229 ) ;
#178 = ORIENTED_EDGE ( 'NONE', *, *, #117, .F. ) ;
#179 = ORIENTED_EDGE ( 'NONE', *, *, #231, .F. ) ;
#180 = AXIS2_PLACEMENT_3D ( 'NONE', #226, #331, #52 ) ;
#181 = AXIS2_PLACEMENT_3D ( 'NONE', #167, #106, #278 ) ;
#182 = ADVANCED_FACE ( 'NONE', ( #165 ), #41, .T. ) ;
#183 = FACE_OUTER_BOUND ( 'NONE', #156, .T. ) ;
#184 = VERTEX_POINT ( 'NONE', #164 ) ;
#185 = APPLICATION_PROTOCOL_DEFINITION ( 'international standard', 'config_control_design', 1994, #243 ) ;
#186 = APPROVAL_PERSON_ORGANIZATION ( #88, #327, #58 ) ;
#187 = CC_DESIGN_PERSON_AND_ORGANIZATION_ASSIGNMENT ( #142, #340, ( #140 ) ) ;
#188 = DATE_AND_TIME ( #272, #4 ) ;
#189 = DIRECTION ( 'NONE',  ( -3.552713678800500929E-14, -1.000000000000000000, 0.000000000000000000 ) ) ;
#190 = CARTESIAN_POINT ( 'NONE',  ( 0.000000000000000000, 0.000000000000000000, 0.000000000000000000 ) ) ;
#191 = DIRECTION ( 'NONE',  ( 3.491481338843133355E-15, -1.276467311168695266E-16, 1.000000000000000000 ) ) ;
#192 = PERSON_AND_ORGANIZATION ( #207, #321 ) ;
#193 = DIRECTION ( 'NONE',  ( 0.000000000000000000, -1.000000000000000000, 0.000000000000000000 ) ) ;
#194 = COORDINATED_UNIVERSAL_TIME_OFFSET ( 1, 0, .AHEAD. ) ;
#195 = EDGE_CURVE ( 'NONE', #30, #67, #108, .T. ) ;
#196 = DIRECTION ( 'NONE',  ( -3.491481338843133355E-15, 1.224646799147353207E-16, -1.000000000000000000 ) ) ;
#197 = MANIFOLD_SOLID_BREP ( 'Corps-Déplacer/Copier1[1]', #349 ) ;
#198 = DIRECTION ( 'NONE',  ( 0.000000000000000000, 1.000000000000000000, 0.000000000000000000 ) ) ;
#199 = EDGE_CURVE ( 'NONE', #202, #151, #133, .T. ) ;
#200 = EDGE_LOOP ( 'NONE', ( #33, #323, #268, #219 ) ) ;
#201 = FACE_OUTER_BOUND ( 'NONE', #351, .T. ) ;
#202 = VERTEX_POINT ( 'NONE', #137 ) ;
#203 = CARTESIAN_POINT ( 'NONE',  ( 1.316288464743861212E-13, -4.616918432785521081E-15, 37.69999999999999574 ) ) ;
#204 = AXIS2_PLACEMENT_3D ( 'NONE', #116, #288, #34 ) ;
#205 = AXIS2_PLACEMENT_3D ( 'NONE', #22, #280, #189 ) ;
#206 = ORIENTED_EDGE ( 'NONE', *, *, #131, .T. ) ;
#207 = PERSON ( 'UNSPECIFIED', 'UNSPECIFIED', 'UNSPECIFIED', ('UNSPECIFIED'), ('UNSPECIFIED'), ('UNSPECIFIED') ) ;
#208 = ADVANCED_FACE ( 'NONE', ( #357 ), #300, .T. ) ;
#209 = DIRECTION ( 'NONE',  ( 0.000000000000000000, 1.000000000000000000, 0.000000000000000000 ) ) ;
#210 = CC_DESIGN_APPROVAL ( #266, ( #140 ) ) ;
#211 = APPROVAL_DATE_TIME ( #297, #354 ) ;
#212 = EDGE_LOOP ( 'NONE', ( #361, #63, #11, #291 ) ) ;
#213 = APPLICATION_CONTEXT ( 'configuration controlled 3d designs of mechanical parts and assemblies' ) ;
#214 = FACE_OUTER_BOUND ( 'NONE', #120, .T. ) ;
#215 =( NAMED_UNIT ( * ) PLANE_ANGLE_UNIT ( ) SI_UNIT ( $, .RADIAN. ) );
#216 = AXIS2_PLACEMENT_3D ( 'NONE', #203, #175, #57 ) ;
#217 = CC_DESIGN_PERSON_AND_ORGANIZATION_ASSIGNMENT ( #160, #161, ( #163 ) ) ;
#218 = MECHANICAL_CONTEXT ( 'NONE', #213, 'mechanical' ) ;
#219 = ORIENTED_EDGE ( 'NONE', *, *, #318, .F. ) ;
#220 = DIRECTION ( 'NONE',  ( -2.382254525458723780E-15, -0.7071067811865453523, -0.7071067811865496822 ) ) ;
#221 = DIRECTION ( 'NONE',  ( -4.456761796588773165E-31, -1.000000000000000000, -1.276467311168694772E-16 ) ) ;
#222 = VECTOR ( 'NONE', #87, 1000.000000000000000 ) ;
#223 = CIRCLE ( 'NONE', #42, 1.249999999999999112 ) ;
#224 = DIRECTION ( 'NONE',  ( 3.372511997194914833E-15, -0.2588190451025215166, 0.9659258262890679791 ) ) ;
#225 = PRODUCT_DEFINITION_SHAPE ( 'NONE', 'NONE',  #163 ) ;
#226 = CARTESIAN_POINT ( 'NONE',  ( 2.094888803305880013E-14, 1.124819836996389511E-32, 6.000000000000000000 ) ) ;
#227 = DATE_AND_TIME ( #81, #247 ) ;
#228 = DIRECTION ( 'NONE',  ( 4.275831445896958607E-31, 1.000000000000000000, 1.224646799147353207E-16 ) ) ;
#229 = COORDINATED_UNIVERSAL_TIME_OFFSET ( 1, 0, .AHEAD. ) ;
#230 = EDGE_LOOP ( 'NONE', ( #238, #101, #341, #292 ) ) ;
#231 = EDGE_CURVE ( 'NONE', #184, #312, #328, .T. ) ;
#232 = DIRECTION ( 'NONE',  ( -3.491481338843133355E-15, 1.224646799147353207E-16, -1.000000000000000000 ) ) ;
#233 = CIRCLE ( 'NONE', #204, 1.499999999999998668 ) ;
#234 = ORIENTED_EDGE ( 'NONE', *, *, #13, .T. ) ;
#235 = DIRECTION ( 'NONE',  ( -3.491481338843133355E-15, 1.224646799147353207E-16, -1.000000000000000000 ) ) ;
#236 = ORIENTED_EDGE ( 'NONE', *, *, #144, .T. ) ;
#237 = DIRECTION ( 'NONE',  ( 0.000000000000000000, 1.000000000000000000, 0.000000000000000000 ) ) ;
#238 = ORIENTED_EDGE ( 'NONE', *, *, #5, .T. ) ;
#239 = VECTOR ( 'NONE', #172, 1000.000000000000000 ) ;
#240 = AXIS2_PLACEMENT_3D ( 'NONE', #107, #102, #15 ) ;
#241 = EDGE_CURVE ( 'NONE', #202, #296, #276, .T. ) ;
#242 = PERSON_AND_ORGANIZATION ( #207, #321 ) ;
#243 = APPLICATION_CONTEXT ( 'configuration controlled 3d designs of mechanical parts and assemblies' ) ;
#244 = CIRCLE ( 'NONE', #269, 1.249999999999999556 ) ;
#245 = ORIENTED_EDGE ( 'NONE', *, *, #97, .F. ) ;
#246 = AXIS2_PLACEMENT_3D ( 'NONE', #91, #332, #198 ) ;
#247 = LOCAL_TIME ( 9, 8, 54.00000000000000000, #166 ) ;
#248 = CARTESIAN_POINT ( 'NONE',  ( -3.229489878259194067E-30, 9.461979795468093666E-32, -9.249626633631821142E-16 ) ) ;
#249 = EDGE_CURVE ( 'NONE', #262, #151, #18, .T. ) ;
#250 = CARTESIAN_POINT ( 'NONE',  ( 2.274607518672170145E-14, 1.249999999999998668, 6.000000000000000000 ) ) ;
#251 = DIRECTION ( 'NONE',  ( 0.000000000000000000, -1.000000000000000000, 0.000000000000000000 ) ) ;
#252 = DATE_AND_TIME ( #259, #177 ) ;
#253 = AXIS2_PLACEMENT_3D ( 'NONE', #8, #290, #251 ) ;
#254 = AXIS2_PLACEMENT_3D ( 'NONE', #54, #329, #23 ) ;
#255 = CARTESIAN_POINT ( 'NONE',  ( 7.810136249237454925E-14, -1.500000000000005329, 37.69999999999999574 ) ) ;
#256 = DIRECTION ( 'NONE',  ( -2.468850131082271655E-15, 0.7071067811865455743, -0.7071067811865493491 ) ) ;
#257 = EDGE_CURVE ( 'NONE', #184, #30, #223, .T. ) ;
#258 = DIRECTION ( 'NONE',  ( 4.275831445896958607E-31, 1.000000000000000000, 1.224646799147353207E-16 ) ) ;
#259 = CALENDAR_DATE ( 2023, 31, 3 ) ;
#260 = ORIENTED_EDGE ( 'NONE', *, *, #40, .T. ) ;
#261 = CARTESIAN_POINT ( 'NONE',  ( 1.326762908760390423E-13, 8.998558695971084067E-33, 38.00000000000000000 ) ) ;
#262 = VERTEX_POINT ( 'NONE', #355 ) ;
#263 = CARTESIAN_POINT ( 'NONE',  ( 1.326762908760390423E-13, -4.653657836759941941E-15, 38.00000000000000000 ) ) ;
#264 = ORIENTED_EDGE ( 'NONE', *, *, #40, .F. ) ;
#265 = EDGE_CURVE ( 'NONE', #314, #270, #77, .T. ) ;
#266 = APPROVAL ( #28, 'UNSPECIFIED' ) ;
#267 = PERSON_AND_ORGANIZATION ( #207, #321 ) ;
#268 = ORIENTED_EDGE ( 'NONE', *, *, #231, .T. ) ;
#269 = AXIS2_PLACEMENT_3D ( 'NONE', #316, #342, #82 ) ;
#270 = VERTEX_POINT ( 'NONE', #255 ) ;
#271 = CARTESIAN_POINT ( 'NONE',  ( 6.413747168845432655E-31, 1.499999999999998668, 1.836970198721028208E-16 ) ) ;
#272 = CALENDAR_DATE ( 2023, 31, 3 ) ;
#273 = ORIENTED_EDGE ( 'NONE', *, *, #299, .F. ) ;
#274 = ADVANCED_FACE ( 'NONE', ( #356 ), #362, .F. ) ;
#275 = DIRECTION ( 'NONE',  ( 3.491481338843133355E-15, -1.276467311168695266E-16, 1.000000000000000000 ) ) ;
#276 = CIRCLE ( 'NONE', #181, 1.249999999999999556 ) ;
#277 =( GEOMETRIC_REPRESENTATION_CONTEXT ( 3 ) GLOBAL_UNCERTAINTY_ASSIGNED_CONTEXT ( ( #98 ) ) GLOBAL_UNIT_ASSIGNED_CONTEXT ( ( #347, #215, #350 ) ) REPRESENTATION_CONTEXT ( 'NONE', 'WORKASPACE' ) );
#278 = DIRECTION ( 'NONE',  ( 0.000000000000000000, -1.000000000000000000, 0.000000000000000000 ) ) ;
#279 = CARTESIAN_POINT ( 'NONE',  ( 8.610081678426452062E-14, -3.147800816442411895E-15, 24.66025403784433578 ) ) ;
#280 = DIRECTION ( 'NONE',  ( -3.491481338843133355E-15, 1.276467311168695266E-16, -1.000000000000000000 ) ) ;
#281 = AXIS2_PLACEMENT_3D ( 'NONE', #150, #3, #193 ) ;
#282 = APPROVAL_PERSON_ORGANIZATION ( #242, #266, #335 ) ;
#283 = CARTESIAN_POINT ( 'NONE',  ( -6.413811575962160563E-31, 2.249662264968272623E-32, -1.836988645652424251E-16 ) ) ;
#284 = SHAPE_DEFINITION_REPRESENTATION ( #225, #89 ) ;
#285 = ORIENTED_EDGE ( 'NONE', *, *, #265, .T. ) ;
#286 = DIRECTION ( 'NONE',  ( 0.000000000000000000, 1.000000000000000000, 0.000000000000000000 ) ) ;
#287 = ORIENTED_EDGE ( 'NONE', *, *, #117, .T. ) ;
#288 = DIRECTION ( 'NONE',  ( -3.491481338843133355E-15, 1.276467311168695266E-16, -1.000000000000000000 ) ) ;
#289 = EDGE_LOOP ( 'NONE', ( #264, #236, #122, #206 ) ) ;
#290 = DIRECTION ( 'NONE',  ( 3.491481338843133355E-15, -1.276467311168695266E-16, 1.000000000000000000 ) ) ;
#291 = ORIENTED_EDGE ( 'NONE', *, *, #131, .F. ) ;
#292 = ORIENTED_EDGE ( 'NONE', *, *, #302, .F. ) ;
#293 = CC_DESIGN_DATE_AND_TIME_ASSIGNMENT ( #307, #114, ( #346 ) ) ;
#294 = DIRECTION ( 'NONE',  ( 0.000000000000000000, -1.000000000000000000, 0.000000000000000000 ) ) ;
#295 = CARTESIAN_POINT ( 'NONE',  ( 2.094888803305880013E-14, -1.250000000000000444, 6.000000000000000000 ) ) ;
#296 = VERTEX_POINT ( 'NONE', #250 ) ;
#297 = DATE_AND_TIME ( #49, #303 ) ;
#298 = APPROVAL_ROLE ( '' ) ;
#299 = EDGE_CURVE ( 'NONE', #30, #184, #325, .T. ) ;
#300 = PLANE ( 'NONE',  #180 ) ;
#301 = DIRECTION ( 'NONE',  ( 0.000000000000000000, -1.000000000000000000, 0.000000000000000000 ) ) ;
#302 = EDGE_CURVE ( 'NONE', #47, #262, #322, .T. ) ;
#303 = LOCAL_TIME ( 9, 8, 54.00000000000000000, #51 ) ;
#304 = CARTESIAN_POINT ( 'NONE',  ( 1.326762908760390423E-13, 1.199999999999996403, 38.00000000000000000 ) ) ;
#305 = CARTESIAN_POINT ( 'NONE',  ( 1.530808498934189845E-16, 1.249999999999999334, -2.414125646455773986E-17 ) ) ;
#306 = CARTESIAN_POINT ( 'NONE',  ( 1.062752486642282058E-14, 1.249999999999999112, -7.654042494671324427E-16 ) ) ;
#307 = DATE_AND_TIME ( #60, #50 ) ;
#308 = VECTOR ( 'NONE', #256, 1000.000000000000114 ) ;
#309 = PLANE ( 'NONE',  #315 ) ;
#310 = ADVANCED_FACE ( 'NONE', ( #183 ), #170, .T. ) ;
#311 = CARTESIAN_POINT ( 'NONE',  ( 8.686622103373162160E-14, 6.249999999999996447, 24.66025403784433578 ) ) ;
#312 = VERTEX_POINT ( 'NONE', #295 ) ;
#313 = LINE ( 'NONE', #10, #222 ) ;
#314 = VERTEX_POINT ( 'NONE', #19 ) ;
#315 = AXIS2_PLACEMENT_3D ( 'NONE', #283, #168, #62 ) ;
#316 = CARTESIAN_POINT ( 'NONE',  ( 2.094888803305880013E-14, -7.658803867012171593E-16, 6.000000000000000000 ) ) ;
#317 = EDGE_LOOP ( 'NONE', ( #234, #90 ) ) ;
#318 = EDGE_CURVE ( 'NONE', #67, #312, #134, .T. ) ;
#319 = MANIFOLD_SOLID_BREP ( 'Corps-Déplacer/Copier1[2]', #35 ) ;
#320 = CARTESIAN_POINT ( 'NONE',  ( 1.326762908760390423E-13, -4.653657836759941941E-15, 38.00000000000000000 ) ) ;
#321 = ORGANIZATION ( 'UNSPECIFIED', 'UNSPECIFIED', '' ) ;
#322 = LINE ( 'NONE', #271, #65 ) ;
#323 = ORIENTED_EDGE ( 'NONE', *, *, #299, .T. ) ;
#324 = DIRECTION ( 'NONE',  ( 3.491481338843133355E-15, -1.276467311168695266E-16, 1.000000000000000000 ) ) ;
#325 = CIRCLE ( 'NONE', #240, 1.249999999999999112 ) ;
#326 = DIRECTION ( 'NONE',  ( -3.491481338843133355E-15, 1.224646799147353207E-16, -1.000000000000000000 ) ) ;
#327 = APPROVAL ( #363, 'UNSPECIFIED' ) ;
#328 = LINE ( 'NONE', #56, #69 ) ;
#329 = DIRECTION ( 'NONE',  ( 3.491481338843133355E-15, -1.224646799147353207E-16, 1.000000000000000000 ) ) ;
#330 = AXIS2_PLACEMENT_3D ( 'NONE', #147, #119, #93 ) ;
#331 = DIRECTION ( 'NONE',  ( 3.491481338843133355E-15, -1.224646799147353207E-16, 1.000000000000000000 ) ) ;
#332 = DIRECTION ( 'NONE',  ( -3.491481338843133355E-15, 1.224646799147353207E-16, -1.000000000000000000 ) ) ;
#333 = PERSON_AND_ORGANIZATION_ROLE ( 'design_supplier' ) ;
#334 = CARTESIAN_POINT ( 'NONE',  ( 1.326762908760390423E-13, -4.653657836759941941E-15, 38.00000000000000000 ) ) ;
#335 = APPROVAL_ROLE ( '' ) ;
#336 = ADVANCED_FACE ( 'NONE', ( #214 ), #338, .T. ) ;
#337 = VECTOR ( 'NONE', #224, 1000.000000000000114 ) ;
#338 = CONICAL_SURFACE ( 'NONE', #148, 1.200000000000001066, 0.7853981633974453924 ) ;
#339 = FACE_OUTER_BOUND ( 'NONE', #36, .T. ) ;
#340 = PERSON_AND_ORGANIZATION_ROLE ( 'creator' ) ;
#341 = ORIENTED_EDGE ( 'NONE', *, *, #249, .F. ) ;
#342 = DIRECTION ( 'NONE',  ( 3.491481338843133355E-15, -1.276467311168695266E-16, 1.000000000000000000 ) ) ;
#343 = ORIENTED_EDGE ( 'NONE', *, *, #144, .F. ) ;
#344 = CARTESIAN_POINT ( 'NONE',  ( 1.316288464743861212E-13, 1.499999999999996447, 37.69999999999999574 ) ) ;
#345 = ORIENTED_EDGE ( 'NONE', *, *, #265, .F. ) ;
#346 = SECURITY_CLASSIFICATION ( '', '', #169 ) ;
#347 =( LENGTH_UNIT ( ) NAMED_UNIT ( * ) SI_UNIT ( .MILLI., .METRE. ) );
#348 = ADVANCED_FACE ( 'NONE', ( #130 ), #17, .T. ) ;
#349 = CLOSED_SHELL ( 'NONE', ( #53, #336, #171, #105, #310, #32, #182, #274 ) ) ;
#350 =( NAMED_UNIT ( * ) SI_UNIT ( $, .STERADIAN. ) SOLID_ANGLE_UNIT ( ) );
#351 = EDGE_LOOP ( 'NONE', ( #178, #66 ) ) ;
#352 = DIRECTION ( 'NONE',  ( 0.000000000000000000, 1.000000000000000000, 0.000000000000000000 ) ) ;
#353 = DIRECTION ( 'NONE',  ( 1.000000000000000000, 0.000000000000000000, 0.000000000000000000 ) ) ;
#354 = APPROVAL ( #73, 'UNSPECIFIED' ) ;
#355 = CARTESIAN_POINT ( 'NONE',  ( 7.791766547250266110E-14, 1.499999999999997780, 6.933012701892213414 ) ) ;
#356 = FACE_OUTER_BOUND ( 'NONE', #16, .T. ) ;
#357 = FACE_OUTER_BOUND ( 'NONE', #317, .T. ) ;
#358 = APPROVAL_DATE_TIME ( #252, #327 ) ;
#359 = AXIS2_PLACEMENT_3D ( 'NONE', #334, #196, #286 ) ;
#360 = VECTOR ( 'NONE', #220, 1000.000000000000000 ) ;
#361 = ORIENTED_EDGE ( 'NONE', *, *, #2, .F. ) ;
#362 = PLANE ( 'NONE',  #254 ) ;
#363 = APPROVAL_STATUS ( 'not_yet_approved' ) ;
ENDSEC;
END-ISO-10303-21;
