ISO-10303-21;
HEADER;
FILE_DESCRIPTION (( 'STEP AP203' ),
    '1' );
FILE_NAME ('372726.step',
    '2023-03-31T07:08:54',
    ( '' ),
    ( '' ),
    'SwSTEP 2.0',
    'SolidWorks 2022',
    '' );
FILE_SCHEMA (( 'CONFIG_CONTROL_DESIGN' ));
ENDSEC;

DATA;
#1 = DIRECTION ( 'NONE',  ( -3.491481338843133355E-15, 1.224646799147353207E-16, -1.000000000000000000 ) ) ;
#2 = CARTESIAN_POINT ( 'NONE',  ( 2.094888803305880013E-14, -7.658803867012171593E-16, 6.000000000000000000 ) ) ;
#3 = APPLICATION_CONTEXT ( 'configuration controlled 3d designs of mechanical parts and assemblies' ) ;
#4 = APPROVAL ( #190, 'UNSPECIFIED' ) ;
#5 = DIRECTION ( 'NONE',  ( 0.000000000000000000, -1.000000000000000000, 0.000000000000000000 ) ) ;
#6 = DIRECTION ( 'NONE',  ( -4.456761796588771413E-31, -1.000000000000000000, -1.276467311168695512E-16 ) ) ;
#7 = CARTESIAN_POINT ( 'NONE',  ( 0.000000000000000000, 0.000000000000000000, 0.000000000000000000 ) ) ;
#8 = CARTESIAN_POINT ( 'NONE',  ( 0.000000000000000000, 0.000000000000000000, 0.000000000000000000 ) ) ;
#9 = ADVANCED_FACE ( 'NONE', ( #165 ), #162, .T. ) ;
#10 = DIRECTION ( 'NONE',  ( 3.491481338843133355E-15, -1.276467311168695266E-16, 1.000000000000000000 ) ) ;
#11 = ORIENTED_EDGE ( 'NONE', *, *, #267, .T. ) ;
#12 = LINE ( 'NONE', #102, #260 ) ;
#13 = AXIS2_PLACEMENT_3D ( 'NONE', #159, #16, #270 ) ;
#14 = VERTEX_POINT ( 'NONE', #273 ) ;
#15 = COORDINATED_UNIVERSAL_TIME_OFFSET ( 1, 0, .AHEAD. ) ;
#16 = DIRECTION ( 'NONE',  ( -3.491481338843133355E-15, 1.224646799147353207E-16, -1.000000000000000000 ) ) ;
#17 = DATE_TIME_ROLE ( 'creation_date' ) ;
#18 = ORIENTED_EDGE ( 'NONE', *, *, #133, .T. ) ;
#19 = CARTESIAN_POINT ( 'NONE',  ( 1.043860452823523985E-13, -1.200000000000003064, 30.00000000000000000 ) ) ;
#20 = PERSON_AND_ORGANIZATION ( #331, #321 ) ;
#21 = VECTOR ( 'NONE', #342, 999.9999999999998863 ) ;
#22 = ADVANCED_FACE ( 'NONE', ( #244 ), #122, .T. ) ;
#23 = PRODUCT_DEFINITION_SHAPE ( 'NONE', 'NONE',  #68 ) ;
#24 = AXIS2_PLACEMENT_3D ( 'NONE', #195, #312, #170 ) ;
#25 = CARTESIAN_POINT ( 'NONE',  ( 6.395174011713007719E-14, 1.499999999999996891, 6.933012701892209861 ) ) ;
#26 = ORIENTED_EDGE ( 'NONE', *, *, #139, .T. ) ;
#27 = DIRECTION ( 'NONE',  ( 0.000000000000000000, -1.000000000000000000, 0.000000000000000000 ) ) ;
#28 = EDGE_CURVE ( 'NONE', #363, #54, #194, .T. ) ;
#29 = CARTESIAN_POINT ( 'NONE',  ( 1.047444401652940007E-13, -3.673940397442059178E-15, 30.00000000000000000 ) ) ;
#30 = CIRCLE ( 'NONE', #223, 1.249999999999999556 ) ;
#31 = LOCAL_TIME ( 9, 8, 54.00000000000000000, #132 ) ;
#32 = PLANE ( 'NONE',  #168 ) ;
#33 = CARTESIAN_POINT ( 'NONE',  ( 1.047444401652940007E-13, 1.199999999999995737, 30.00000000000000000 ) ) ;
#34 = CALENDAR_DATE ( 2023, 31, 3 ) ;
#35 = EDGE_CURVE ( 'NONE', #54, #363, #108, .T. ) ;
#36 = LINE ( 'NONE', #319, #37 ) ;
#37 = VECTOR ( 'NONE', #178, 1000.000000000000000 ) ;
#38 = CARTESIAN_POINT ( 'NONE',  ( -3.786585102832789749E-30, -1.249999999999999112, -1.084521077259268961E-15 ) ) ;
#39 = ORIENTED_EDGE ( 'NONE', *, *, #206, .T. ) ;
#40 = CC_DESIGN_DATE_AND_TIME_ASSIGNMENT ( #354, #17, ( #68 ) ) ;
#41 = ORIENTED_EDGE ( 'NONE', *, *, #332, .F. ) ;
#42 = APPROVAL_ROLE ( '' ) ;
#43 = CARTESIAN_POINT ( 'NONE',  ( 1.062752486642282058E-14, 1.249999999999999112, -7.654042494671324427E-16 ) ) ;
#44 = PERSON_AND_ORGANIZATION ( #331, #321 ) ;
#45 = AXIS2_PLACEMENT_3D ( 'NONE', #200, #334, #91 ) ;
#46 = DIRECTION ( 'NONE',  ( -2.664535259100376013E-14, -1.000000000000000000, 0.000000000000000000 ) ) ;
#47 = APPLICATION_CONTEXT ( 'configuration controlled 3d designs of mechanical parts and assemblies' ) ;
#48 = CARTESIAN_POINT ( 'NONE',  ( 2.420648447061906217E-14, -8.849764081882758065E-16, 6.933012701892209861 ) ) ;
#49 = APPROVAL_DATE_TIME ( #245, #285 ) ;
#50 = ADVANCED_BREP_SHAPE_REPRESENTATION ( '372726', ( #345, #226, #169 ), #52 ) ;
#51 = ORIENTED_EDGE ( 'NONE', *, *, #234, .T. ) ;
#52 =( GEOMETRIC_REPRESENTATION_CONTEXT ( 3 ) GLOBAL_UNCERTAINTY_ASSIGNED_CONTEXT ( ( #183 ) ) GLOBAL_UNIT_ASSIGNED_CONTEXT ( ( #295, #207, #150 ) ) REPRESENTATION_CONTEXT ( 'NONE', 'WORKASPACE' ) );
#53 = DIRECTION ( 'NONE',  ( 3.491481338843133355E-15, -1.276467311168695266E-16, 1.000000000000000000 ) ) ;
#54 = VERTEX_POINT ( 'NONE', #43 ) ;
#55 = AXIS2_PLACEMENT_3D ( 'NONE', #353, #355, #246 ) ;
#56 = LOCAL_TIME ( 9, 8, 54.00000000000000000, #15 ) ;
#57 = CARTESIAN_POINT ( 'NONE',  ( 2.274607518672169514E-14, 1.249999999999998668, 6.000000000000000000 ) ) ;
#58 = ORIENTED_EDGE ( 'NONE', *, *, #64, .F. ) ;
#59 = CARTESIAN_POINT ( 'NONE',  ( 8.610081678426452062E-14, -6.250000000000003553, 24.66025403784433578 ) ) ;
#60 = VERTEX_POINT ( 'NONE', #110 ) ;
#61 = DIRECTION ( 'NONE',  ( 3.491481338843133355E-15, -1.276467311168695266E-16, 1.000000000000000000 ) ) ;
#62 = ORIENTED_EDGE ( 'NONE', *, *, #197, .F. ) ;
#63 = COORDINATED_UNIVERSAL_TIME_OFFSET ( 1, 0, .AHEAD. ) ;
#64 = EDGE_CURVE ( 'NONE', #79, #109, #73, .T. ) ;
#65 = LINE ( 'NONE', #261, #80 ) ;
#66 = PERSON_AND_ORGANIZATION ( #331, #321 ) ;
#67 = CIRCLE ( 'NONE', #93, 1.249999999999999556 ) ;
#68 = PRODUCT_DEFINITION ( 'UNKNOWN', '', #113, #127 ) ;
#69 = ORIENTED_EDGE ( 'NONE', *, *, #133, .F. ) ;
#70 = ORIENTED_EDGE ( 'NONE', *, *, #28, .F. ) ;
#71 = APPROVAL_ROLE ( '' ) ;
#72 = ORIENTED_EDGE ( 'NONE', *, *, #310, .F. ) ;
#73 = LINE ( 'NONE', #328, #359 ) ;
#74 = CARTESIAN_POINT ( 'NONE',  ( -3.229489878259194067E-30, 9.461979795468093666E-32, -9.249626633631821142E-16 ) ) ;
#75 = SHAPE_DEFINITION_REPRESENTATION ( #23, #50 ) ;
#76 = AXIS2_PLACEMENT_3D ( 'NONE', #316, #292, #153 ) ;
#77 = EDGE_CURVE ( 'NONE', #54, #272, #12, .T. ) ;
#78 = PLANE ( 'NONE',  #138 ) ;
#79 = VERTEX_POINT ( 'NONE', #107 ) ;
#80 = VECTOR ( 'NONE', #289, 1000.000000000000000 ) ;
#81 = CC_DESIGN_APPROVAL ( #4, ( #113 ) ) ;
#82 = LINE ( 'NONE', #317, #117 ) ;
#83 = ORIENTED_EDGE ( 'NONE', *, *, #238, .F. ) ;
#84 = CC_DESIGN_PERSON_AND_ORGANIZATION_ASSIGNMENT ( #323, #214, ( #113 ) ) ;
#85 = FACE_OUTER_BOUND ( 'NONE', #155, .T. ) ;
#86 = AXIS2_PLACEMENT_3D ( 'NONE', #181, #346, #343 ) ;
#87 = LINE ( 'NONE', #59, #176 ) ;
#88 = DIRECTION ( 'NONE',  ( 3.491481338843133355E-15, -1.276467311168695266E-16, 1.000000000000000000 ) ) ;
#89 = VERTEX_POINT ( 'NONE', #19 ) ;
#90 = CARTESIAN_POINT ( 'NONE',  ( -6.413839710158237013E-31, 0.000000000000000000, -1.836996703606440502E-16 ) ) ;
#91 = DIRECTION ( 'NONE',  ( 0.000000000000000000, 1.000000000000000000, 0.000000000000000000 ) ) ;
#92 = ADVANCED_FACE ( 'NONE', ( #129 ), #78, .F. ) ;
#93 = AXIS2_PLACEMENT_3D ( 'NONE', #256, #53, #27 ) ;
#94 = DIRECTION ( 'NONE',  ( 1.000000000000000000, 0.000000000000000000, 0.000000000000000000 ) ) ;
#95 = PLANE ( 'NONE',  #86 ) ;
#96 = ADVANCED_FACE ( 'NONE', ( #300 ), #360, .T. ) ;
#97 = ORIENTED_EDGE ( 'NONE', *, *, #164, .F. ) ;
#98 = CIRCLE ( 'NONE', #45, 1.499999999999999334 ) ;
#99 = APPROVAL_PERSON_ORGANIZATION ( #20, #285, #42 ) ;
#100 = PERSON_AND_ORGANIZATION_ROLE ( 'design_owner' ) ;
#101 = ORIENTED_EDGE ( 'NONE', *, *, #267, .F. ) ;
#102 = CARTESIAN_POINT ( 'NONE',  ( 1.530808498934189845E-16, 1.249999999999999334, -2.414125646455773986E-17 ) ) ;
#103 = PERSON_AND_ORGANIZATION_ROLE ( 'creator' ) ;
#104 = DIRECTION ( 'NONE',  ( 3.491481338843133355E-15, -1.276467311168695266E-16, 1.000000000000000000 ) ) ;
#105 = CALENDAR_DATE ( 2023, 31, 3 ) ;
#106 = EDGE_CURVE ( 'NONE', #221, #109, #315, .T. ) ;
#107 = CARTESIAN_POINT ( 'NONE',  ( 6.413543713700205369E-14, -1.500000000000003109, 29.69999999999999218 ) ) ;
#108 = CIRCLE ( 'NONE', #308, 1.249999999999999112 ) ;
#109 = VERTEX_POINT ( 'NONE', #136 ) ;
#110 = CARTESIAN_POINT ( 'NONE',  ( 2.094888803305880013E-14, -1.250000000000000444, 6.000000000000000000 ) ) ;
#111 = APPROVAL ( #179, 'UNSPECIFIED' ) ;
#112 = AXIS2_PLACEMENT_3D ( 'NONE', #48, #303, #46 ) ;
#113 = PRODUCT_DEFINITION_FORMATION_WITH_SPECIFIED_SOURCE ( 'ANY', '', #252, .NOT_KNOWN. ) ;
#114 = ORIENTED_EDGE ( 'NONE', *, *, #275, .F. ) ;
#115 = FACE_OUTER_BOUND ( 'NONE', #126, .T. ) ;
#116 = LINE ( 'NONE', #258, #21 ) ;
#117 = VECTOR ( 'NONE', #120, 1000.000000000000000 ) ;
#118 = DIRECTION ( 'NONE',  ( 0.000000000000000000, 1.000000000000000000, 0.000000000000000000 ) ) ;
#119 = APPLICATION_PROTOCOL_DEFINITION ( 'international standard', 'config_control_design', 1994, #47 ) ;
#120 = DIRECTION ( 'NONE',  ( 3.404208188709233130E-15, 0.2588190451025213501, 0.9659258262890680902 ) ) ;
#121 = DATE_AND_TIME ( #34, #280 ) ;
#122 = CONICAL_SURFACE ( 'NONE', #55, 1.199999999999999512, 0.7853981633974396193 ) ;
#123 = APPROVAL_PERSON_ORGANIZATION ( #203, #111, #71 ) ;
#124 = DIRECTION ( 'NONE',  ( 0.000000000000000000, 0.000000000000000000, 1.000000000000000000 ) ) ;
#125 = ORIENTED_EDGE ( 'NONE', *, *, #275, .T. ) ;
#126 = EDGE_LOOP ( 'NONE', ( #131, #251, #220, #41 ) ) ;
#127 = DESIGN_CONTEXT ( 'detailed design', #3, 'design' ) ;
#128 = CONICAL_SURFACE ( 'NONE', #24, 6.250000000000000000, 0.2617993877991501850 ) ;
#129 = FACE_OUTER_BOUND ( 'NONE', #219, .T. ) ;
#130 = PERSON_AND_ORGANIZATION_ROLE ( 'creator' ) ;
#131 = ORIENTED_EDGE ( 'NONE', *, *, #310, .T. ) ;
#132 = COORDINATED_UNIVERSAL_TIME_OFFSET ( 1, 0, .AHEAD. ) ;
#133 = EDGE_CURVE ( 'NONE', #109, #221, #311, .T. ) ;
#134 = ORIENTED_EDGE ( 'NONE', *, *, #164, .T. ) ;
#135 = CALENDAR_DATE ( 2023, 31, 3 ) ;
#136 = CARTESIAN_POINT ( 'NONE',  ( 6.413543713700214205E-14, -1.499999999999998668, 6.933012701892209861 ) ) ;
#137 = PERSON_AND_ORGANIZATION ( #331, #321 ) ;
#138 = AXIS2_PLACEMENT_3D ( 'NONE', #243, #213, #185 ) ;
#139 = EDGE_CURVE ( 'NONE', #242, #296, #116, .T. ) ;
#140 = EDGE_LOOP ( 'NONE', ( #293, #83 ) ) ;
#141 = DIRECTION ( 'NONE',  ( 3.491481338843133355E-15, -1.224646799147353207E-16, 1.000000000000000000 ) ) ;
#142 = ADVANCED_FACE ( 'NONE', ( #287 ), #283, .T. ) ;
#143 = DIRECTION ( 'NONE',  ( -2.382254525458738374E-15, -0.7071067811865412445, -0.7071067811865536790 ) ) ;
#144 = EDGE_LOOP ( 'NONE', ( #158, #154 ) ) ;
#145 = CARTESIAN_POINT ( 'NONE',  ( 2.094888803305880013E-14, 1.124819836996389237E-32, 6.000000000000000000 ) ) ;
#146 = CC_DESIGN_APPROVAL ( #285, ( #187 ) ) ;
#147 = FACE_OUTER_BOUND ( 'NONE', #140, .T. ) ;
#148 = DIRECTION ( 'NONE',  ( 0.000000000000000000, -1.000000000000000000, 0.000000000000000000 ) ) ;
#149 = CARTESIAN_POINT ( 'NONE',  ( 2.094888803305880013E-14, 1.124819836996389237E-32, 6.000000000000000000 ) ) ;
#150 =( NAMED_UNIT ( * ) SI_UNIT ( $, .STERADIAN. ) SOLID_ANGLE_UNIT ( ) );
#151 = PRODUCT_RELATED_PRODUCT_CATEGORY ( 'detail', '', ( #252 ) ) ;
#152 = VECTOR ( 'NONE', #143, 1000.000000000000114 ) ;
#153 = DIRECTION ( 'NONE',  ( 0.000000000000000000, -1.000000000000000000, 0.000000000000000000 ) ) ;
#154 = ORIENTED_EDGE ( 'NONE', *, *, #234, .F. ) ;
#155 = EDGE_LOOP ( 'NONE', ( #184, #134, #330, #114 ) ) ;
#156 = CARTESIAN_POINT ( 'NONE',  ( -3.229489878259194067E-30, 9.461979795468093666E-32, -9.249626633631821142E-16 ) ) ;
#157 = ADVANCED_FACE ( 'NONE', ( #341 ), #228, .T. ) ;
#158 = ORIENTED_EDGE ( 'NONE', *, *, #192, .F. ) ;
#159 = CARTESIAN_POINT ( 'NONE',  ( 0.000000000000000000, 0.000000000000000000, 0.000000000000000000 ) ) ;
#160 = SECURITY_CLASSIFICATION_LEVEL ( 'unclassified' ) ;
#161 = ORIENTED_EDGE ( 'NONE', *, *, #324, .F. ) ;
#162 = CYLINDRICAL_SURFACE ( 'NONE', #222, 1.249999999999999334 ) ;
#163 = APPROVAL_DATE_TIME ( #298, #4 ) ;
#164 = EDGE_CURVE ( 'NONE', #174, #221, #82, .T. ) ;
#165 = FACE_OUTER_BOUND ( 'NONE', #265, .T. ) ;
#166 = ADVANCED_FACE ( 'NONE', ( #115 ), #198, .T. ) ;
#167 = DIRECTION ( 'NONE',  ( -3.491481338843133355E-15, 1.224646799147353207E-16, -1.000000000000000000 ) ) ;
#168 = AXIS2_PLACEMENT_3D ( 'NONE', #149, #208, #257 ) ;
#169 = AXIS2_PLACEMENT_3D ( 'NONE', #8, #124, #94 ) ;
#170 = DIRECTION ( 'NONE',  ( 0.000000000000000000, -1.000000000000000000, 0.000000000000000000 ) ) ;
#171 = ORIENTED_EDGE ( 'NONE', *, *, #324, .T. ) ;
#172 = CARTESIAN_POINT ( 'NONE',  ( 8.610081678426452062E-14, -3.147800816442411895E-15, 24.66025403784433578 ) ) ;
#173 = CC_DESIGN_PERSON_AND_ORGANIZATION_ASSIGNMENT ( #304, #278, ( #187 ) ) ;
#174 = VERTEX_POINT ( 'NONE', #57 ) ;
#175 = DIRECTION ( 'NONE',  ( -4.275831445896958607E-31, -1.000000000000000000, -1.224646799147353207E-16 ) ) ;
#176 = VECTOR ( 'NONE', #237, 1000.000000000000114 ) ;
#177 = DIRECTION ( 'NONE',  ( 0.000000000000000000, 1.000000000000000000, 0.000000000000000000 ) ) ;
#178 = DIRECTION ( 'NONE',  ( -3.491481338843133355E-15, 1.224646799147353207E-16, -1.000000000000000000 ) ) ;
#179 = APPROVAL_STATUS ( 'not_yet_approved' ) ;
#180 = AXIS2_PLACEMENT_3D ( 'NONE', #357, #277, #5 ) ;
#181 = CARTESIAN_POINT ( 'NONE',  ( 1.047444401652940007E-13, 8.998558695971085435E-33, 30.00000000000000000 ) ) ;
#182 = ORIENTED_EDGE ( 'NONE', *, *, #332, .T. ) ;
#183 = UNCERTAINTY_MEASURE_WITH_UNIT (LENGTH_MEASURE( 1.000000000000000082E-05 ), #295, 'distance_accuracy_value', 'NONE');
#184 = ORIENTED_EDGE ( 'NONE', *, *, #302, .T. ) ;
#185 = DIRECTION ( 'NONE',  ( -4.275831445896958607E-31, -1.000000000000000000, -1.224646799147353207E-16 ) ) ;
#186 = CIRCLE ( 'NONE', #279, 1.199999999999999512 ) ;
#187 = SECURITY_CLASSIFICATION ( '', '', #160 ) ;
#188 = EDGE_LOOP ( 'NONE', ( #101, #51, #26, #335 ) ) ;
#189 = DIRECTION ( 'NONE',  ( 3.491481338843133355E-15, -1.276467311168695266E-16, 1.000000000000000000 ) ) ;
#190 = APPROVAL_STATUS ( 'not_yet_approved' ) ;
#191 = EDGE_LOOP ( 'NONE', ( #322, #239, #62, #161 ) ) ;
#192 = EDGE_CURVE ( 'NONE', #242, #89, #249, .T. ) ;
#193 = DIRECTION ( 'NONE',  ( 0.000000000000000000, -1.000000000000000000, 0.000000000000000000 ) ) ;
#194 = CIRCLE ( 'NONE', #320, 1.249999999999999112 ) ;
#195 = CARTESIAN_POINT ( 'NONE',  ( 8.610081678426452062E-14, -3.147800816442411895E-15, 24.66025403784433578 ) ) ;
#196 = AXIS2_PLACEMENT_3D ( 'NONE', #205, #348, #177 ) ;
#197 = EDGE_CURVE ( 'NONE', #60, #272, #338, .T. ) ;
#198 = CYLINDRICAL_SURFACE ( 'NONE', #209, 1.499999999999997780 ) ;
#199 = EDGE_LOOP ( 'NONE', ( #97, #212, #125, #18 ) ) ;
#200 = CARTESIAN_POINT ( 'NONE',  ( 1.036969957636410291E-13, -3.637200993467638318E-15, 29.69999999999999218 ) ) ;
#201 = ORIENTED_EDGE ( 'NONE', *, *, #202, .T. ) ;
#202 = EDGE_CURVE ( 'NONE', #79, #296, #98, .T. ) ;
#203 = PERSON_AND_ORGANIZATION ( #331, #321 ) ;
#204 = FACE_OUTER_BOUND ( 'NONE', #210, .T. ) ;
#205 = CARTESIAN_POINT ( 'NONE',  ( 1.036969957636410291E-13, -3.637200993467638318E-15, 29.69999999999999218 ) ) ;
#206 = EDGE_CURVE ( 'NONE', #272, #60, #67, .T. ) ;
#207 =( NAMED_UNIT ( * ) PLANE_ANGLE_UNIT ( ) SI_UNIT ( $, .RADIAN. ) );
#208 = DIRECTION ( 'NONE',  ( 3.491481338843133355E-15, -1.224646799147353207E-16, 1.000000000000000000 ) ) ;
#209 = AXIS2_PLACEMENT_3D ( 'NONE', #7, #167, #309 ) ;
#210 = EDGE_LOOP ( 'NONE', ( #248, #39 ) ) ;
#211 = APPLICATION_PROTOCOL_DEFINITION ( 'international standard', 'config_control_design', 1994, #3 ) ;
#212 = ORIENTED_EDGE ( 'NONE', *, *, #238, .T. ) ;
#213 = DIRECTION ( 'NONE',  ( 3.491481338843133355E-15, -1.224646799147353207E-16, 1.000000000000000000 ) ) ;
#214 = PERSON_AND_ORGANIZATION_ROLE ( 'design_supplier' ) ;
#215 = DIRECTION ( 'NONE',  ( -3.491481338843133355E-15, 1.224646799147353207E-16, -1.000000000000000000 ) ) ;
#216 = DATE_TIME_ROLE ( 'classification_date' ) ;
#217 = CC_DESIGN_PERSON_AND_ORGANIZATION_ASSIGNMENT ( #66, #100, ( #252 ) ) ;
#218 = CC_DESIGN_APPROVAL ( #111, ( #68 ) ) ;
#219 = EDGE_LOOP ( 'NONE', ( #70, #230 ) ) ;
#220 = ORIENTED_EDGE ( 'NONE', *, *, #106, .F. ) ;
#221 = VERTEX_POINT ( 'NONE', #25 ) ;
#222 = AXIS2_PLACEMENT_3D ( 'NONE', #306, #189, #281 ) ;
#223 = AXIS2_PLACEMENT_3D ( 'NONE', #2, #225, #148 ) ;
#224 = ADVANCED_FACE ( 'NONE', ( #204 ), #337, .T. ) ;
#225 = DIRECTION ( 'NONE',  ( 3.491481338843133355E-15, -1.276467311168695266E-16, 1.000000000000000000 ) ) ;
#226 = MANIFOLD_SOLID_BREP ( 'Corps-Déplacer/Copier1[2]', #282 ) ;
#227 = CARTESIAN_POINT ( 'NONE',  ( 1.048913977811916904E-13, -1.200000000000003064, 30.00000000000000000 ) ) ;
#228 = CONICAL_SURFACE ( 'NONE', #255, 6.250000000000000000, 0.2617993877991501850 ) ;
#229 = CARTESIAN_POINT ( 'NONE',  ( 1.047444401652940007E-13, -3.673940397442059178E-15, 30.00000000000000000 ) ) ;
#230 = ORIENTED_EDGE ( 'NONE', *, *, #35, .F. ) ;
#231 = MECHANICAL_CONTEXT ( 'NONE', #47, 'mechanical' ) ;
#232 = CARTESIAN_POINT ( 'NONE',  ( 2.094888803305880013E-14, -7.658803867012171593E-16, 6.000000000000000000 ) ) ;
#233 = APPROVAL_DATE_TIME ( #121, #111 ) ;
#234 = EDGE_CURVE ( 'NONE', #89, #242, #186, .T. ) ;
#235 = CIRCLE ( 'NONE', #76, 1.249999999999999556 ) ;
#236 = LOCAL_TIME ( 9, 8, 54.00000000000000000, #356 ) ;
#237 = DIRECTION ( 'NONE',  ( 3.372511997194914833E-15, -0.2588190451025215166, 0.9659258262890679791 ) ) ;
#238 = EDGE_CURVE ( 'NONE', #174, #14, #30, .T. ) ;
#239 = ORIENTED_EDGE ( 'NONE', *, *, #77, .T. ) ;
#240 = FACE_OUTER_BOUND ( 'NONE', #144, .T. ) ;
#241 = ORIENTED_EDGE ( 'NONE', *, *, #139, .F. ) ;
#242 = VERTEX_POINT ( 'NONE', #33 ) ;
#243 = CARTESIAN_POINT ( 'NONE',  ( -6.413798080740949357E-31, 2.249657531481865154E-32, -1.836984780467449341E-16 ) ) ;
#244 = FACE_OUTER_BOUND ( 'NONE', #188, .T. ) ;
#245 = DATE_AND_TIME ( #247, #236 ) ;
#246 = DIRECTION ( 'NONE',  ( 0.000000000000000000, 1.000000000000000000, 0.000000000000000000 ) ) ;
#247 = CALENDAR_DATE ( 2023, 31, 3 ) ;
#248 = ORIENTED_EDGE ( 'NONE', *, *, #197, .T. ) ;
#249 = CIRCLE ( 'NONE', #288, 1.199999999999999512 ) ;
#250 = CC_DESIGN_SECURITY_CLASSIFICATION ( #187, ( #113 ) ) ;
#251 = ORIENTED_EDGE ( 'NONE', *, *, #64, .T. ) ;
#252 = PRODUCT ( '372726', '372726', '', ( #231 ) ) ;
#253 = CARTESIAN_POINT ( 'NONE',  ( 1.047444401652940007E-13, -3.673940397442059178E-15, 30.00000000000000000 ) ) ;
#254 = DIRECTION ( 'NONE',  ( -3.491481338843133355E-15, 1.224646799147353207E-16, -1.000000000000000000 ) ) ;
#255 = AXIS2_PLACEMENT_3D ( 'NONE', #172, #61, #193 ) ;
#256 = CARTESIAN_POINT ( 'NONE',  ( 2.094888803305880013E-14, -7.658803867012171593E-16, 6.000000000000000000 ) ) ;
#257 = DIRECTION ( 'NONE',  ( -4.275831445896958607E-31, -1.000000000000000000, -1.224646799147353207E-16 ) ) ;
#258 = CARTESIAN_POINT ( 'NONE',  ( 1.047444401652940007E-13, 1.199999999999995737, 30.00000000000000000 ) ) ;
#259 = ADVANCED_FACE ( 'NONE', ( #85 ), #128, .T. ) ;
#260 = VECTOR ( 'NONE', #325, 1000.000000000000000 ) ;
#261 = CARTESIAN_POINT ( 'NONE',  ( -1.198479195589419821E-30, -1.249999999999999334, -3.432580842567308968E-16 ) ) ;
#262 = ORIENTED_EDGE ( 'NONE', *, *, #35, .T. ) ;
#263 = CC_DESIGN_PERSON_AND_ORGANIZATION_ASSIGNMENT ( #44, #103, ( #68 ) ) ;
#264 = EDGE_LOOP ( 'NONE', ( #352, #11, #72, #241 ) ) ;
#265 = EDGE_LOOP ( 'NONE', ( #299, #262, #171, #349 ) ) ;
#266 = DIRECTION ( 'NONE',  ( -4.456761796588773165E-31, -1.000000000000000000, -1.276467311168694772E-16 ) ) ;
#267 = EDGE_CURVE ( 'NONE', #89, #79, #286, .T. ) ;
#268 = APPROVAL_ROLE ( '' ) ;
#269 = AXIS2_PLACEMENT_3D ( 'NONE', #29, #1, #118 ) ;
#270 = DIRECTION ( 'NONE',  ( 4.275831445896959482E-31, 1.000000000000000000, 1.224646799147353207E-16 ) ) ;
#271 = COORDINATED_UNIVERSAL_TIME_OFFSET ( 1, 0, .AHEAD. ) ;
#272 = VERTEX_POINT ( 'NONE', #339 ) ;
#273 = CARTESIAN_POINT ( 'NONE',  ( 2.094888803305880013E-14, -1.250000000000000444, 6.000000000000000000 ) ) ;
#274 = DATE_AND_TIME ( #135, #31 ) ;
#275 = EDGE_CURVE ( 'NONE', #14, #109, #87, .T. ) ;
#276 = EDGE_LOOP ( 'NONE', ( #58, #201, #182, #69 ) ) ;
#277 = DIRECTION ( 'NONE',  ( -3.491481338843133355E-15, 1.276467311168695266E-16, -1.000000000000000000 ) ) ;
#278 = PERSON_AND_ORGANIZATION_ROLE ( 'classification_officer' ) ;
#279 = AXIS2_PLACEMENT_3D ( 'NONE', #253, #254, #313 ) ;
#280 = LOCAL_TIME ( 9, 8, 54.00000000000000000, #63 ) ;
#281 = DIRECTION ( 'NONE',  ( -4.456761796588771413E-31, -1.000000000000000000, -1.276467311168695512E-16 ) ) ;
#282 = CLOSED_SHELL ( 'NONE', ( #336, #224, #9, #92 ) ) ;
#283 = CONICAL_SURFACE ( 'NONE', #269, 1.199999999999999512, 0.7853981633974396193 ) ;
#284 = DIRECTION ( 'NONE',  ( 0.000000000000000000, 1.000000000000000000, 0.000000000000000000 ) ) ;
#285 = APPROVAL ( #301, 'UNSPECIFIED' ) ;
#286 = LINE ( 'NONE', #227, #152 ) ;
#287 = FACE_OUTER_BOUND ( 'NONE', #264, .T. ) ;
#288 = AXIS2_PLACEMENT_3D ( 'NONE', #229, #314, #284 ) ;
#289 = DIRECTION ( 'NONE',  ( 3.491481338843133355E-15, -1.276467311168695266E-16, 1.000000000000000000 ) ) ;
#290 = DIRECTION ( 'NONE',  ( 0.000000000000000000, -1.000000000000000000, 0.000000000000000000 ) ) ;
#291 = CYLINDRICAL_SURFACE ( 'NONE', #294, 1.249999999999999334 ) ;
#292 = DIRECTION ( 'NONE',  ( 3.491481338843133355E-15, -1.276467311168695266E-16, 1.000000000000000000 ) ) ;
#293 = ORIENTED_EDGE ( 'NONE', *, *, #302, .F. ) ;
#294 = AXIS2_PLACEMENT_3D ( 'NONE', #90, #10, #6 ) ;
#295 =( LENGTH_UNIT ( ) NAMED_UNIT ( * ) SI_UNIT ( .MILLI., .METRE. ) );
#296 = VERTEX_POINT ( 'NONE', #318 ) ;
#297 = DIRECTION ( 'NONE',  ( 3.491481338843133355E-15, -1.276467311168695266E-16, 1.000000000000000000 ) ) ;
#298 = DATE_AND_TIME ( #326, #56 ) ;
#299 = ORIENTED_EDGE ( 'NONE', *, *, #77, .F. ) ;
#300 = FACE_OUTER_BOUND ( 'NONE', #276, .T. ) ;
#301 = APPROVAL_STATUS ( 'not_yet_approved' ) ;
#302 = EDGE_CURVE ( 'NONE', #14, #174, #235, .T. ) ;
#303 = DIRECTION ( 'NONE',  ( -3.491481338843133355E-15, 1.276467311168695266E-16, -1.000000000000000000 ) ) ;
#304 = PERSON_AND_ORGANIZATION ( #331, #321 ) ;
#305 = DIRECTION ( 'NONE',  ( -4.456761796588773165E-31, -1.000000000000000000, -1.276467311168694772E-16 ) ) ;
#306 = CARTESIAN_POINT ( 'NONE',  ( -6.413839710158237013E-31, 0.000000000000000000, -1.836996703606440502E-16 ) ) ;
#307 = CC_DESIGN_PERSON_AND_ORGANIZATION_ASSIGNMENT ( #358, #130, ( #113 ) ) ;
#308 = AXIS2_PLACEMENT_3D ( 'NONE', #156, #104, #266 ) ;
#309 = DIRECTION ( 'NONE',  ( 4.275831445896959482E-31, 1.000000000000000000, 1.224646799147353207E-16 ) ) ;
#310 = EDGE_CURVE ( 'NONE', #296, #79, #333, .T. ) ;
#311 = CIRCLE ( 'NONE', #180, 1.499999999999997780 ) ;
#312 = DIRECTION ( 'NONE',  ( 3.491481338843133355E-15, -1.276467311168695266E-16, 1.000000000000000000 ) ) ;
#313 = DIRECTION ( 'NONE',  ( 0.000000000000000000, 1.000000000000000000, 0.000000000000000000 ) ) ;
#314 = DIRECTION ( 'NONE',  ( -3.491481338843133355E-15, 1.224646799147353207E-16, -1.000000000000000000 ) ) ;
#315 = CIRCLE ( 'NONE', #112, 1.499999999999997780 ) ;
#316 = CARTESIAN_POINT ( 'NONE',  ( 2.094888803305880013E-14, -7.658803867012171593E-16, 6.000000000000000000 ) ) ;
#317 = CARTESIAN_POINT ( 'NONE',  ( 8.686622103373162160E-14, 6.249999999999996447, 24.66025403784433578 ) ) ;
#318 = CARTESIAN_POINT ( 'NONE',  ( 1.036969957636410291E-13, 1.499999999999995781, 29.69999999999999218 ) ) ;
#319 = CARTESIAN_POINT ( 'NONE',  ( 6.413747168845429152E-31, 1.499999999999997780, 1.836970198721027222E-16 ) ) ;
#320 = AXIS2_PLACEMENT_3D ( 'NONE', #74, #297, #305 ) ;
#321 = ORGANIZATION ( 'UNSPECIFIED', 'UNSPECIFIED', '' ) ;
#322 = ORIENTED_EDGE ( 'NONE', *, *, #28, .T. ) ;
#323 = PERSON_AND_ORGANIZATION ( #331, #321 ) ;
#324 = EDGE_CURVE ( 'NONE', #363, #60, #65, .T. ) ;
#325 = DIRECTION ( 'NONE',  ( 3.491481338843133355E-15, -1.276467311168695266E-16, 1.000000000000000000 ) ) ;
#326 = CALENDAR_DATE ( 2023, 31, 3 ) ;
#327 = LOCAL_TIME ( 9, 8, 54.00000000000000000, #271 ) ;
#328 = CARTESIAN_POINT ( 'NONE',  ( 1.836970198721020813E-16, -1.499999999999997780, -1.836970198721033385E-16 ) ) ;
#329 = ADVANCED_FACE ( 'NONE', ( #147 ), #32, .F. ) ;
#330 = ORIENTED_EDGE ( 'NONE', *, *, #106, .T. ) ;
#331 = PERSON ( 'UNSPECIFIED', 'UNSPECIFIED', 'UNSPECIFIED', ('UNSPECIFIED'), ('UNSPECIFIED'), ('UNSPECIFIED') ) ;
#332 = EDGE_CURVE ( 'NONE', #296, #221, #36, .T. ) ;
#333 = CIRCLE ( 'NONE', #196, 1.499999999999999334 ) ;
#334 = DIRECTION ( 'NONE',  ( -3.491481338843133355E-15, 1.224646799147353207E-16, -1.000000000000000000 ) ) ;
#335 = ORIENTED_EDGE ( 'NONE', *, *, #202, .F. ) ;
#336 = ADVANCED_FACE ( 'NONE', ( #344 ), #291, .T. ) ;
#337 = PLANE ( 'NONE',  #350 ) ;
#338 = CIRCLE ( 'NONE', #361, 1.249999999999999556 ) ;
#339 = CARTESIAN_POINT ( 'NONE',  ( 1.062752486642281585E-14, 1.249999999999998668, 6.000000000000000000 ) ) ;
#340 = CC_DESIGN_DATE_AND_TIME_ASSIGNMENT ( #274, #216, ( #187 ) ) ;
#341 = FACE_OUTER_BOUND ( 'NONE', #199, .T. ) ;
#342 = DIRECTION ( 'NONE',  ( -2.468850131082286643E-15, 0.7071067811865414665, -0.7071067811865536790 ) ) ;
#343 = DIRECTION ( 'NONE',  ( 4.275831445896958607E-31, 1.000000000000000000, 1.224646799147353207E-16 ) ) ;
#344 = FACE_OUTER_BOUND ( 'NONE', #191, .T. ) ;
#345 = MANIFOLD_SOLID_BREP ( 'Corps-Déplacer/Copier1[1]', #347 ) ;
#346 = DIRECTION ( 'NONE',  ( -3.491481338843133355E-15, 1.224646799147353207E-16, -1.000000000000000000 ) ) ;
#347 = CLOSED_SHELL ( 'NONE', ( #259, #142, #166, #96, #22, #362, #157, #329 ) ) ;
#348 = DIRECTION ( 'NONE',  ( -3.491481338843133355E-15, 1.224646799147353207E-16, -1.000000000000000000 ) ) ;
#349 = ORIENTED_EDGE ( 'NONE', *, *, #206, .F. ) ;
#350 = AXIS2_PLACEMENT_3D ( 'NONE', #145, #141, #175 ) ;
#351 = APPROVAL_PERSON_ORGANIZATION ( #137, #4, #268 ) ;
#352 = ORIENTED_EDGE ( 'NONE', *, *, #192, .T. ) ;
#353 = CARTESIAN_POINT ( 'NONE',  ( 1.047444401652940007E-13, -3.673940397442059178E-15, 30.00000000000000000 ) ) ;
#354 = DATE_AND_TIME ( #105, #327 ) ;
#355 = DIRECTION ( 'NONE',  ( -3.491481338843133355E-15, 1.224646799147353207E-16, -1.000000000000000000 ) ) ;
#356 = COORDINATED_UNIVERSAL_TIME_OFFSET ( 1, 0, .AHEAD. ) ;
#357 = CARTESIAN_POINT ( 'NONE',  ( 2.420648447061906217E-14, -8.849764081882758065E-16, 6.933012701892209861 ) ) ;
#358 = PERSON_AND_ORGANIZATION ( #331, #321 ) ;
#359 = VECTOR ( 'NONE', #215, 1000.000000000000000 ) ;
#360 = CYLINDRICAL_SURFACE ( 'NONE', #13, 1.499999999999997780 ) ;
#361 = AXIS2_PLACEMENT_3D ( 'NONE', #232, #88, #290 ) ;
#362 = ADVANCED_FACE ( 'NONE', ( #240 ), #95, .F. ) ;
#363 = VERTEX_POINT ( 'NONE', #38 ) ;
ENDSEC;
END-ISO-10303-21;
