ISO-10303-21;
HEADER;
FILE_DESCRIPTION (( 'STEP AP203' ),
    '1' );
FILE_NAME ('372725.step',
    '2023-03-31T07:08:53',
    ( '' ),
    ( '' ),
    'SwSTEP 2.0',
    'SolidWorks 2022',
    '' );
FILE_SCHEMA (( 'CONFIG_CONTROL_DESIGN' ));
ENDSEC;

DATA;
#1 = PLANE ( 'NONE',  #63 ) ;
#2 = VERTEX_POINT ( 'NONE', #123 ) ;
#3 = PERSON_AND_ORGANIZATION ( #208, #147 ) ;
#4 = ADVANCED_FACE ( 'NONE', ( #150 ), #120, .F. ) ;
#5 = CIRCLE ( 'NONE', #202, 2.999999999999998224 ) ;
#6 = AXIS2_PLACEMENT_3D ( 'NONE', #81, #161, #19 ) ;
#7 = LOCAL_TIME ( 9, 8, 53.00000000000000000, #304 ) ;
#8 = APPROVAL ( #80, 'UNSPECIFIED' ) ;
#9 = CARTESIAN_POINT ( 'NONE',  ( 8.851168027022566959E-15, 0.9999999999999986677, 5.000000000000000000 ) ) ;
#10 = DIRECTION ( 'NONE',  ( -3.491481338843133355E-15, 1.224646799147353207E-16, -1.000000000000000000 ) ) ;
#11 = CARTESIAN_POINT ( 'NONE',  ( -6.413839710158237013E-31, 0.000000000000000000, -1.836996703606440502E-16 ) ) ;
#12 = CONICAL_SURFACE ( 'NONE', #117, 5.999999999999999112, 0.2617993877991501850 ) ;
#13 = CC_DESIGN_SECURITY_CLASSIFICATION ( #317, ( #358 ) ) ;
#14 = CARTESIAN_POINT ( 'NONE',  ( 1.305814020727331749E-13, -4.580179028811101010E-15, 37.39999999999999858 ) ) ;
#15 = DIRECTION ( 'NONE',  ( -4.456761796588769661E-31, -1.000000000000000000, -1.276467311168695512E-16 ) ) ;
#16 = ORIENTED_EDGE ( 'NONE', *, *, #319, .F. ) ;
#17 = EDGE_CURVE ( 'NONE', #276, #344, #85, .T. ) ;
#18 =( LENGTH_UNIT ( ) NAMED_UNIT ( * ) SI_UNIT ( .MILLI., .METRE. ) );
#19 = DIRECTION ( 'NONE',  ( 0.000000000000000000, -1.000000000000000000, 0.000000000000000000 ) ) ;
#20 = DATE_TIME_ROLE ( 'creation_date' ) ;
#21 = ORIENTED_EDGE ( 'NONE', *, *, #253, .F. ) ;
#22 = DIRECTION ( 'NONE',  ( -3.491481338843133355E-15, 1.276467311168695266E-16, -1.000000000000000000 ) ) ;
#23 = COORDINATED_UNIVERSAL_TIME_OFFSET ( 1, 0, .AHEAD. ) ;
#24 = CARTESIAN_POINT ( 'NONE',  ( 1.319595011101558884E-13, -2.400000000000005240, 38.00000000000000000 ) ) ;
#25 = CIRCLE ( 'NONE', #101, 0.9999999999999993339 ) ;
#26 = LOCAL_TIME ( 9, 8, 53.00000000000000000, #145 ) ;
#27 = ORIENTED_EDGE ( 'NONE', *, *, #295, .F. ) ;
#28 = DIRECTION ( 'NONE',  ( -4.275831445896958607E-31, -1.000000000000000000, -1.224646799147353207E-16 ) ) ;
#29 = VERTEX_POINT ( 'NONE', #255 ) ;
#30 = DIRECTION ( 'NONE',  ( 0.000000000000000000, 0.000000000000000000, 1.000000000000000000 ) ) ;
#31 = ADVANCED_FACE ( 'NONE', ( #259 ), #339, .T. ) ;
#32 = ORIENTED_EDGE ( 'NONE', *, *, #17, .T. ) ;
#33 = ORIENTED_EDGE ( 'NONE', *, *, #121, .T. ) ;
#34 = APPLICATION_CONTEXT ( 'configuration controlled 3d designs of mechanical parts and assemblies' ) ;
#35 = AXIS2_PLACEMENT_3D ( 'NONE', #162, #30, #252 ) ;
#36 = FACE_OUTER_BOUND ( 'NONE', #220, .T. ) ;
#37 = CARTESIAN_POINT ( 'NONE',  ( 0.000000000000000000, 0.000000000000000000, 0.000000000000000000 ) ) ;
#38 = ADVANCED_FACE ( 'NONE', ( #204 ), #232, .F. ) ;
#39 = LINE ( 'NONE', #184, #107 ) ;
#40 = CARTESIAN_POINT ( 'NONE',  ( 1.745740669421566678E-14, -6.382336555843476821E-16, 5.000000000000000000 ) ) ;
#41 = CIRCLE ( 'NONE', #262, 0.9999999999999991118 ) ;
#42 = CARTESIAN_POINT ( 'NONE',  ( -2.476696116459931122E-30, 6.709805186089076877E-32, -7.093539607118620226E-16 ) ) ;
#43 = DIRECTION ( 'NONE',  ( 0.000000000000000000, 1.000000000000000000, 0.000000000000000000 ) ) ;
#44 = PRODUCT_RELATED_PRODUCT_CATEGORY ( 'detail', '', ( #87 ) ) ;
#45 = ORIENTED_EDGE ( 'NONE', *, *, #287, .F. ) ;
#46 = FACE_OUTER_BOUND ( 'NONE', #205, .T. ) ;
#47 = APPROVAL_STATUS ( 'not_yet_approved' ) ;
#48 = APPLICATION_CONTEXT ( 'configuration controlled 3d designs of mechanical parts and assemblies' ) ;
#49 = VERTEX_POINT ( 'NONE', #236 ) ;
#50 = DIRECTION ( 'NONE',  ( -3.491481338843133355E-15, 1.224646799147353207E-16, -1.000000000000000000 ) ) ;
#51 = COORDINATED_UNIVERSAL_TIME_OFFSET ( 1, 0, .AHEAD. ) ;
#52 = CARTESIAN_POINT ( 'NONE',  ( 1.745740669421566678E-14, 2.249639673992782580E-32, 5.000000000000000000 ) ) ;
#53 = PERSON_AND_ORGANIZATION ( #208, #147 ) ;
#54 = CARTESIAN_POINT ( 'NONE',  ( 1.326762908760390423E-13, 2.399999999999995914, 38.00000000000000000 ) ) ;
#55 = CONICAL_SURFACE ( 'NONE', #306, 2.400000000000000799, 0.7853981633974453924 ) ;
#56 = VERTEX_POINT ( 'NONE', #343 ) ;
#57 = CALENDAR_DATE ( 2023, 31, 3 ) ;
#58 = EDGE_LOOP ( 'NONE', ( #45, #224, #76, #178 ) ) ;
#59 = ORIENTED_EDGE ( 'NONE', *, *, #295, .T. ) ;
#60 = EDGE_CURVE ( 'NONE', #359, #29, #258, .T. ) ;
#61 = CIRCLE ( 'NONE', #323, 0.9999999999999991118 ) ;
#62 = DIRECTION ( 'NONE',  ( 3.491481338843133355E-15, -1.276467311168695266E-16, 1.000000000000000000 ) ) ;
#63 = AXIS2_PLACEMENT_3D ( 'NONE', #218, #79, #241 ) ;
#64 = EDGE_CURVE ( 'NONE', #95, #307, #124, .T. ) ;
#65 = ORIENTED_EDGE ( 'NONE', *, *, #223, .F. ) ;
#66 = CC_DESIGN_APPROVAL ( #8, ( #358 ) ) ;
#67 = CARTESIAN_POINT ( 'NONE',  ( 0.000000000000000000, 0.000000000000000000, 0.000000000000000000 ) ) ;
#68 = DIRECTION ( 'NONE',  ( 4.275831445896958607E-31, 1.000000000000000000, 1.224646799147353454E-16 ) ) ;
#69 = DIRECTION ( 'NONE',  ( -4.275831445896958607E-31, -1.000000000000000000, -1.224646799147353207E-16 ) ) ;
#70 = DATE_AND_TIME ( #242, #212 ) ;
#71 = LINE ( 'NONE', #185, #225 ) ;
#72 = CARTESIAN_POINT ( 'NONE',  ( -6.413839710158237013E-31, 0.000000000000000000, -1.836996703606440502E-16 ) ) ;
#73 = CC_DESIGN_APPROVAL ( #335, ( #226 ) ) ;
#74 = APPROVAL_PERSON_ORGANIZATION ( #3, #305, #166 ) ;
#75 = CC_DESIGN_PERSON_AND_ORGANIZATION_ASSIGNMENT ( #53, #136, ( #226 ) ) ;
#76 = ORIENTED_EDGE ( 'NONE', *, *, #88, .T. ) ;
#77 = CARTESIAN_POINT ( 'NONE',  ( 1.326762908760390423E-13, -4.653657836759941941E-15, 38.00000000000000000 ) ) ;
#78 = APPROVAL_STATUS ( 'not_yet_approved' ) ;
#79 = DIRECTION ( 'NONE',  ( 3.491481338843133355E-15, -1.224646799147353207E-16, 1.000000000000000000 ) ) ;
#80 = APPROVAL_STATUS ( 'not_yet_approved' ) ;
#81 = CARTESIAN_POINT ( 'NONE',  ( 1.745740669421566678E-14, -6.382336555843476821E-16, 5.000000000000000000 ) ) ;
#82 = FACE_OUTER_BOUND ( 'NONE', #137, .T. ) ;
#83 = APPROVAL_DATE_TIME ( #141, #335 ) ;
#84 = EDGE_CURVE ( 'NONE', #359, #2, #41, .T. ) ;
#85 = CIRCLE ( 'NONE', #160, 2.400000000000000799 ) ;
#86 = AXIS2_PLACEMENT_3D ( 'NONE', #270, #355, #301 ) ;
#87 = PRODUCT ( '372725', '372725', '', ( #134 ) ) ;
#88 = EDGE_CURVE ( 'NONE', #276, #307, #39, .T. ) ;
#89 = DIRECTION ( 'NONE',  ( -3.491481338843133355E-15, 1.224646799147353207E-16, -1.000000000000000000 ) ) ;
#90 = CARTESIAN_POINT ( 'NONE',  ( -3.206816838010677856E-31, 1.124799933034399755E-32, -9.184688465421452921E-17 ) ) ;
#91 = UNCERTAINTY_MEASURE_WITH_UNIT (LENGTH_MEASURE( 1.000000000000000082E-05 ), #18, 'distance_accuracy_value', 'NONE');
#92 =( GEOMETRIC_REPRESENTATION_CONTEXT ( 3 ) GLOBAL_UNCERTAINTY_ASSIGNED_CONTEXT ( ( #91 ) ) GLOBAL_UNIT_ASSIGNED_CONTEXT ( ( #18, #133, #327 ) ) REPRESENTATION_CONTEXT ( 'NONE', 'WORKASPACE' ) );
#93 = DIRECTION ( 'NONE',  ( -4.456761796588771413E-31, -1.000000000000000000, -1.276467311168695512E-16 ) ) ;
#94 = DIRECTION ( 'NONE',  ( -3.491481338843133355E-15, 1.224646799147353207E-16, -1.000000000000000000 ) ) ;
#95 = VERTEX_POINT ( 'NONE', #260 ) ;
#96 = FACE_OUTER_BOUND ( 'NONE', #348, .T. ) ;
#97 = ORIENTED_EDGE ( 'NONE', *, *, #198, .F. ) ;
#98 = CARTESIAN_POINT ( 'NONE',  ( 8.260933544542137464E-14, -6.000000000000001776, 23.66025403784433223 ) ) ;
#99 = ORIENTED_EDGE ( 'NONE', *, *, #282, .F. ) ;
#100 = DIRECTION ( 'NONE',  ( -2.468850131082271655E-15, 0.7071067811865455743, -0.7071067811865493491 ) ) ;
#101 = AXIS2_PLACEMENT_3D ( 'NONE', #40, #156, #263 ) ;
#102 = EDGE_LOOP ( 'NONE', ( #294, #148, #279, #27 ) ) ;
#103 = FACE_OUTER_BOUND ( 'NONE', #318, .T. ) ;
#104 = ADVANCED_FACE ( 'NONE', ( #122 ), #350, .T. ) ;
#105 = DIRECTION ( 'NONE',  ( 0.000000000000000000, 1.000000000000000000, 0.000000000000000000 ) ) ;
#106 = PERSON_AND_ORGANIZATION_ROLE ( 'design_owner' ) ;
#107 = VECTOR ( 'NONE', #100, 1000.000000000000114 ) ;
#108 = CARTESIAN_POINT ( 'NONE',  ( 4.351817819469793351E-14, -1.591001827480824452E-15, 12.46410161513772685 ) ) ;
#109 = PERSON_AND_ORGANIZATION_ROLE ( 'creator' ) ;
#110 = ORIENTED_EDGE ( 'NONE', *, *, #149, .F. ) ;
#111 = VERTEX_POINT ( 'NONE', #9 ) ;
#112 = PERSON_AND_ORGANIZATION_ROLE ( 'design_supplier' ) ;
#113 = CC_DESIGN_PERSON_AND_ORGANIZATION_ASSIGNMENT ( #363, #112, ( #358 ) ) ;
#114 = EDGE_LOOP ( 'NONE', ( #115, #110 ) ) ;
#115 = ORIENTED_EDGE ( 'NONE', *, *, #84, .F. ) ;
#116 = AXIS2_PLACEMENT_3D ( 'NONE', #231, #293, #158 ) ;
#117 = AXIS2_PLACEMENT_3D ( 'NONE', #361, #165, #193 ) ;
#118 = MANIFOLD_SOLID_BREP ( 'Corps-Déplacer/Copier1[2]', #349 ) ;
#119 = DIRECTION ( 'NONE',  ( 3.491481338843133355E-15, -1.276467311168695266E-16, 1.000000000000000000 ) ) ;
#120 = PLANE ( 'NONE',  #240 ) ;
#121 = EDGE_CURVE ( 'NONE', #56, #140, #211, .T. ) ;
#122 = FACE_OUTER_BOUND ( 'NONE', #144, .T. ) ;
#123 = CARTESIAN_POINT ( 'NONE',  ( 8.851168027022571692E-15, 0.9999999999999991118, -5.817072295950234096E-16 ) ) ;
#124 = CIRCLE ( 'NONE', #200, 3.000000000000000444 ) ;
#125 = DIRECTION ( 'NONE',  ( 3.491481338843133355E-15, -1.276467311168695266E-16, 1.000000000000000000 ) ) ;
#126 = ORIENTED_EDGE ( 'NONE', *, *, #159, .T. ) ;
#127 = DIRECTION ( 'NONE',  ( 0.000000000000000000, 1.000000000000000000, 0.000000000000000000 ) ) ;
#128 = CARTESIAN_POINT ( 'NONE',  ( 1.326762908760390423E-13, -4.653657836759941941E-15, 38.00000000000000000 ) ) ;
#129 = COORDINATED_UNIVERSAL_TIME_OFFSET ( 1, 0, .AHEAD. ) ;
#130 = LOCAL_TIME ( 9, 8, 53.00000000000000000, #51 ) ;
#131 = ADVANCED_FACE ( 'NONE', ( #336 ), #196, .T. ) ;
#132 = DIRECTION ( 'NONE',  ( 0.000000000000000000, -1.000000000000000000, 0.000000000000000000 ) ) ;
#133 =( NAMED_UNIT ( * ) PLANE_ANGLE_UNIT ( ) SI_UNIT ( $, .RADIAN. ) );
#134 = MECHANICAL_CONTEXT ( 'NONE', #34, 'mechanical' ) ;
#135 = DIRECTION ( 'NONE',  ( -2.382254525458723780E-15, -0.7071067811865453523, -0.7071067811865496822 ) ) ;
#136 = PERSON_AND_ORGANIZATION_ROLE ( 'creator' ) ;
#137 = EDGE_LOOP ( 'NONE', ( #97, #167 ) ) ;
#138 = AXIS2_PLACEMENT_3D ( 'NONE', #77, #296, #139 ) ;
#139 = DIRECTION ( 'NONE',  ( 0.000000000000000000, 1.000000000000000000, 0.000000000000000000 ) ) ;
#140 = VERTEX_POINT ( 'NONE', #265 ) ;
#141 = DATE_AND_TIME ( #57, #234 ) ;
#142 = CC_DESIGN_PERSON_AND_ORGANIZATION_ASSIGNMENT ( #357, #106, ( #87 ) ) ;
#143 = PLANE ( 'NONE',  #330 ) ;
#144 = EDGE_LOOP ( 'NONE', ( #32, #331, #21, #173 ) ) ;
#145 = COORDINATED_UNIVERSAL_TIME_OFFSET ( 1, 0, .AHEAD. ) ;
#146 = ORIENTED_EDGE ( 'NONE', *, *, #60, .F. ) ;
#147 = ORGANIZATION ( 'UNSPECIFIED', 'UNSPECIFIED', '' ) ;
#148 = ORIENTED_EDGE ( 'NONE', *, *, #64, .T. ) ;
#149 = EDGE_CURVE ( 'NONE', #2, #359, #61, .T. ) ;
#150 = FACE_OUTER_BOUND ( 'NONE', #114, .T. ) ;
#151 = DIRECTION ( 'NONE',  ( 3.491481338843133355E-15, -1.276467311168695266E-16, 1.000000000000000000 ) ) ;
#152 = DIRECTION ( 'NONE',  ( 3.491481338843133355E-15, -1.276467311168695266E-16, 1.000000000000000000 ) ) ;
#153 = DIRECTION ( 'NONE',  ( -3.491481338843133355E-15, 1.224646799147353207E-16, -1.000000000000000000 ) ) ;
#154 = APPROVAL_DATE_TIME ( #70, #305 ) ;
#155 = VECTOR ( 'NONE', #320, 1000.000000000000000 ) ;
#156 = DIRECTION ( 'NONE',  ( 3.491481338843133355E-15, -1.276467311168695266E-16, 1.000000000000000000 ) ) ;
#157 = DIRECTION ( 'NONE',  ( 4.275831445896958607E-31, 1.000000000000000000, 1.224646799147353207E-16 ) ) ;
#158 = DIRECTION ( 'NONE',  ( -1.421085471520200372E-14, -1.000000000000000000, 0.000000000000000000 ) ) ;
#159 = EDGE_CURVE ( 'NONE', #95, #140, #315, .T. ) ;
#160 = AXIS2_PLACEMENT_3D ( 'NONE', #233, #10, #286 ) ;
#161 = DIRECTION ( 'NONE',  ( 3.491481338843133355E-15, -1.276467311168695266E-16, 1.000000000000000000 ) ) ;
#162 = CARTESIAN_POINT ( 'NONE',  ( 0.000000000000000000, 0.000000000000000000, 0.000000000000000000 ) ) ;
#163 = ADVANCED_FACE ( 'NONE', ( #96 ), #309, .T. ) ;
#164 = ORIENTED_EDGE ( 'NONE', *, *, #60, .T. ) ;
#165 = DIRECTION ( 'NONE',  ( 3.491481338843133355E-15, -1.276467311168695266E-16, 1.000000000000000000 ) ) ;
#166 = APPROVAL_ROLE ( '' ) ;
#167 = ORIENTED_EDGE ( 'NONE', *, *, #274, .F. ) ;
#168 = LINE ( 'NONE', #275, #316 ) ;
#169 = PERSON_AND_ORGANIZATION ( #208, #147 ) ;
#170 = VECTOR ( 'NONE', #89, 1000.000000000000000 ) ;
#171 = APPROVAL_PERSON_ORGANIZATION ( #169, #8, #326 ) ;
#172 = CARTESIAN_POINT ( 'NONE',  ( 1.224646799147350002E-16, 0.9999999999999991118, -5.605293924377505371E-17 ) ) ;
#173 = ORIENTED_EDGE ( 'NONE', *, *, #88, .F. ) ;
#174 = CALENDAR_DATE ( 2023, 31, 3 ) ;
#175 = ORIENTED_EDGE ( 'NONE', *, *, #282, .T. ) ;
#176 = VERTEX_POINT ( 'NONE', #342 ) ;
#177 = ADVANCED_FACE ( 'NONE', ( #36 ), #182, .T. ) ;
#178 = ORIENTED_EDGE ( 'NONE', *, *, #64, .F. ) ;
#179 = CC_DESIGN_APPROVAL ( #305, ( #317 ) ) ;
#180 = CC_DESIGN_DATE_AND_TIME_ASSIGNMENT ( #269, #20, ( #226 ) ) ;
#181 = CIRCLE ( 'NONE', #6, 0.9999999999999993339 ) ;
#182 = CYLINDRICAL_SURFACE ( 'NONE', #217, 0.9999999999999991118 ) ;
#183 = DIRECTION ( 'NONE',  ( 3.491481338843133355E-15, -1.224646799147353207E-16, 1.000000000000000000 ) ) ;
#184 = CARTESIAN_POINT ( 'NONE',  ( 1.326762908760390423E-13, 2.399999999999995914, 38.00000000000000000 ) ) ;
#185 = CARTESIAN_POINT ( 'NONE',  ( 8.334412352490978553E-14, 5.999999999999996447, 23.66025403784433223 ) ) ;
#186 = CARTESIAN_POINT ( 'NONE',  ( 1.326762908760390423E-13, 1.799711739194222561E-32, 38.00000000000000000 ) ) ;
#187 = AXIS2_PLACEMENT_3D ( 'NONE', #67, #188, #235 ) ;
#188 = DIRECTION ( 'NONE',  ( -3.491481338843133355E-15, 1.224646799147353207E-16, -1.000000000000000000 ) ) ;
#189 = CC_DESIGN_PERSON_AND_ORGANIZATION_ASSIGNMENT ( #302, #109, ( #358 ) ) ;
#190 = AXIS2_PLACEMENT_3D ( 'NONE', #285, #151, #347 ) ;
#191 = FACE_OUTER_BOUND ( 'NONE', #58, .T. ) ;
#192 = DATE_AND_TIME ( #250, #26 ) ;
#193 = DIRECTION ( 'NONE',  ( 0.000000000000000000, -1.000000000000000000, 0.000000000000000000 ) ) ;
#194 = PERSON_AND_ORGANIZATION ( #208, #147 ) ;
#195 = SECURITY_CLASSIFICATION_LEVEL ( 'unclassified' ) ;
#196 = CONICAL_SURFACE ( 'NONE', #356, 5.999999999999999112, 0.2617993877991501850 ) ;
#197 = ORIENTED_EDGE ( 'NONE', *, *, #223, .T. ) ;
#198 = EDGE_CURVE ( 'NONE', #176, #49, #273, .T. ) ;
#199 = ORIENTED_EDGE ( 'NONE', *, *, #121, .F. ) ;
#200 = AXIS2_PLACEMENT_3D ( 'NONE', #266, #214, #43 ) ;
#201 = CARTESIAN_POINT ( 'NONE',  ( 3.673940397442045077E-16, -2.999999999999998224, -3.673940397442070222E-16 ) ) ;
#202 = AXIS2_PLACEMENT_3D ( 'NONE', #108, #22, #132 ) ;
#203 = DIRECTION ( 'NONE',  ( -4.456761796588769661E-31, -1.000000000000000000, -1.276467311168695512E-16 ) ) ;
#204 = FACE_OUTER_BOUND ( 'NONE', #249, .T. ) ;
#205 = EDGE_LOOP ( 'NONE', ( #264, #362, #33, #65 ) ) ;
#206 = LINE ( 'NONE', #98, #284 ) ;
#207 = CARTESIAN_POINT ( 'NONE',  ( -1.087060150674700229E-30, -0.9999999999999991118, -3.113464014775134782E-16 ) ) ;
#208 = PERSON ( 'UNSPECIFIED', 'UNSPECIFIED', 'UNSPECIFIED', ('UNSPECIFIED'), ('UNSPECIFIED'), ('UNSPECIFIED') ) ;
#209 = DIRECTION ( 'NONE',  ( 3.404208188709233130E-15, 0.2588190451025213501, 0.9659258262890680902 ) ) ;
#210 = ADVANCED_FACE ( 'NONE', ( #257 ), #313, .T. ) ;
#211 = CIRCLE ( 'NONE', #116, 2.999999999999998224 ) ;
#212 = LOCAL_TIME ( 9, 8, 53.00000000000000000, #129 ) ;
#213 = ORIENTED_EDGE ( 'NONE', *, *, #17, .F. ) ;
#214 = DIRECTION ( 'NONE',  ( -3.491481338843133355E-15, 1.224646799147353207E-16, -1.000000000000000000 ) ) ;
#215 = ORIENTED_EDGE ( 'NONE', *, *, #230, .T. ) ;
#216 = CARTESIAN_POINT ( 'NONE',  ( 1.329702061078344218E-13, -2.400000000000005240, 38.00000000000000000 ) ) ;
#217 = AXIS2_PLACEMENT_3D ( 'NONE', #72, #62, #15 ) ;
#218 = CARTESIAN_POINT ( 'NONE',  ( 1.745740669421566678E-14, 2.249639673992782580E-32, 5.000000000000000000 ) ) ;
#219 = CALENDAR_DATE ( 2023, 31, 3 ) ;
#220 = EDGE_LOOP ( 'NONE', ( #99, #288, #164, #298 ) ) ;
#221 = APPLICATION_PROTOCOL_DEFINITION ( 'international standard', 'config_control_design', 1994, #34 ) ;
#222 = ORIENTED_EDGE ( 'NONE', *, *, #353, .F. ) ;
#223 = EDGE_CURVE ( 'NONE', #176, #140, #206, .T. ) ;
#224 = ORIENTED_EDGE ( 'NONE', *, *, #353, .T. ) ;
#225 = VECTOR ( 'NONE', #209, 1000.000000000000000 ) ;
#226 = PRODUCT_DEFINITION ( 'UNKNOWN', '', #358, #310 ) ;
#227 = EDGE_CURVE ( 'NONE', #49, #56, #71, .T. ) ;
#228 = CIRCLE ( 'NONE', #86, 0.9999999999999993339 ) ;
#229 = DIRECTION ( 'NONE',  ( -4.456761796588771413E-31, -1.000000000000000000, -1.276467311168695512E-16 ) ) ;
#230 = EDGE_CURVE ( 'NONE', #29, #111, #25, .T. ) ;
#231 = CARTESIAN_POINT ( 'NONE',  ( 4.351817819469793351E-14, -1.591001827480824452E-15, 12.46410161513772685 ) ) ;
#232 = PLANE ( 'NONE',  #311 ) ;
#233 = CARTESIAN_POINT ( 'NONE',  ( 1.326762908760390423E-13, -4.653657836759941941E-15, 38.00000000000000000 ) ) ;
#234 = LOCAL_TIME ( 9, 8, 53.00000000000000000, #23 ) ;
#235 = DIRECTION ( 'NONE',  ( 4.275831445896958607E-31, 1.000000000000000000, 1.224646799147353454E-16 ) ) ;
#236 = CARTESIAN_POINT ( 'NONE',  ( 3.073272180428626097E-14, 0.9999999999999986677, 5.000000000000000000 ) ) ;
#237 = DIRECTION ( 'NONE',  ( -3.491481338843133355E-15, 1.224646799147353207E-16, -1.000000000000000000 ) ) ;
#238 = DIRECTION ( 'NONE',  ( 0.000000000000000000, -1.000000000000000000, 0.000000000000000000 ) ) ;
#239 = CC_DESIGN_DATE_AND_TIME_ASSIGNMENT ( #244, #277, ( #317 ) ) ;
#240 = AXIS2_PLACEMENT_3D ( 'NONE', #90, #183, #69 ) ;
#241 = DIRECTION ( 'NONE',  ( -4.275831445896958607E-31, -1.000000000000000000, -1.224646799147353207E-16 ) ) ;
#242 = CALENDAR_DATE ( 2023, 31, 3 ) ;
#243 = DIRECTION ( 'NONE',  ( 0.000000000000000000, 1.000000000000000000, 0.000000000000000000 ) ) ;
#244 = DATE_AND_TIME ( #174, #7 ) ;
#245 = LINE ( 'NONE', #172, #155 ) ;
#246 = PERSON_AND_ORGANIZATION ( #208, #147 ) ;
#247 = VECTOR ( 'NONE', #135, 1000.000000000000000 ) ;
#248 = CARTESIAN_POINT ( 'NONE',  ( -2.922372296118807738E-30, -0.9999999999999991118, -8.370006918287314013E-16 ) ) ;
#249 = EDGE_LOOP ( 'NONE', ( #213, #222 ) ) ;
#250 = CALENDAR_DATE ( 2023, 31, 3 ) ;
#251 = EDGE_LOOP ( 'NONE', ( #351, #346, #197, #59 ) ) ;
#252 = DIRECTION ( 'NONE',  ( 1.000000000000000000, 0.000000000000000000, 0.000000000000000000 ) ) ;
#253 = EDGE_CURVE ( 'NONE', #307, #95, #334, .T. ) ;
#254 = AXIS2_PLACEMENT_3D ( 'NONE', #128, #289, #127 ) ;
#255 = CARTESIAN_POINT ( 'NONE',  ( 1.745740669421566678E-14, -1.000000000000000000, 5.000000000000000000 ) ) ;
#256 = ADVANCED_FACE ( 'NONE', ( #46 ), #12, .T. ) ;
#257 = FACE_OUTER_BOUND ( 'NONE', #303, .T. ) ;
#258 = LINE ( 'NONE', #207, #281 ) ;
#259 = FACE_OUTER_BOUND ( 'NONE', #102, .T. ) ;
#260 = CARTESIAN_POINT ( 'NONE',  ( 8.741718417345970599E-14, -3.000000000000005329, 37.39999999999999858 ) ) ;
#261 = ADVANCED_FACE ( 'NONE', ( #82 ), #1, .F. ) ;
#262 = AXIS2_PLACEMENT_3D ( 'NONE', #42, #119, #229 ) ;
#263 = DIRECTION ( 'NONE',  ( 0.000000000000000000, -1.000000000000000000, 0.000000000000000000 ) ) ;
#264 = ORIENTED_EDGE ( 'NONE', *, *, #198, .T. ) ;
#265 = CARTESIAN_POINT ( 'NONE',  ( 8.741718417345975648E-14, -3.000000000000000000, 12.46410161513772685 ) ) ;
#266 = CARTESIAN_POINT ( 'NONE',  ( 1.305814020727331749E-13, -4.580179028811101010E-15, 37.39999999999999858 ) ) ;
#267 = SHAPE_DEFINITION_REPRESENTATION ( #280, #333 ) ;
#268 = AXIS2_PLACEMENT_3D ( 'NONE', #14, #237, #243 ) ;
#269 = DATE_AND_TIME ( #219, #130 ) ;
#270 = CARTESIAN_POINT ( 'NONE',  ( 1.745740669421566678E-14, -6.382336555843476821E-16, 5.000000000000000000 ) ) ;
#271 = APPROVAL_ROLE ( '' ) ;
#272 = DIRECTION ( 'NONE',  ( 3.491481338843133355E-15, -1.224646799147353207E-16, 1.000000000000000000 ) ) ;
#273 = CIRCLE ( 'NONE', #190, 0.9999999999999993339 ) ;
#274 = EDGE_CURVE ( 'NONE', #49, #176, #181, .T. ) ;
#275 = CARTESIAN_POINT ( 'NONE',  ( 1.282749433769086881E-30, 2.999999999999998224, 3.673940397442057896E-16 ) ) ;
#276 = VERTEX_POINT ( 'NONE', #54 ) ;
#277 = DATE_TIME_ROLE ( 'classification_date' ) ;
#278 = ADVANCED_FACE ( 'NONE', ( #191 ), #55, .T. ) ;
#279 = ORIENTED_EDGE ( 'NONE', *, *, #319, .T. ) ;
#280 = PRODUCT_DEFINITION_SHAPE ( 'NONE', 'NONE',  #226 ) ;
#281 = VECTOR ( 'NONE', #291, 1000.000000000000000 ) ;
#282 = EDGE_CURVE ( 'NONE', #2, #111, #245, .T. ) ;
#283 = ORIENTED_EDGE ( 'NONE', *, *, #230, .F. ) ;
#284 = VECTOR ( 'NONE', #314, 1000.000000000000114 ) ;
#285 = CARTESIAN_POINT ( 'NONE',  ( 1.745740669421566678E-14, -6.382336555843476821E-16, 5.000000000000000000 ) ) ;
#286 = DIRECTION ( 'NONE',  ( 0.000000000000000000, 1.000000000000000000, 0.000000000000000000 ) ) ;
#287 = EDGE_CURVE ( 'NONE', #344, #95, #322, .T. ) ;
#288 = ORIENTED_EDGE ( 'NONE', *, *, #149, .T. ) ;
#289 = DIRECTION ( 'NONE',  ( -3.491481338843133355E-15, 1.224646799147353207E-16, -1.000000000000000000 ) ) ;
#290 = CARTESIAN_POINT ( 'NONE',  ( 8.260933544542137464E-14, -3.020154085325541628E-15, 23.66025403784433223 ) ) ;
#291 = DIRECTION ( 'NONE',  ( 3.491481338843133355E-15, -1.276467311168695266E-16, 1.000000000000000000 ) ) ;
#292 = CIRCLE ( 'NONE', #138, 2.400000000000000799 ) ;
#293 = DIRECTION ( 'NONE',  ( -3.491481338843133355E-15, 1.276467311168695266E-16, -1.000000000000000000 ) ) ;
#294 = ORIENTED_EDGE ( 'NONE', *, *, #159, .F. ) ;
#295 = EDGE_CURVE ( 'NONE', #140, #56, #5, .T. ) ;
#296 = DIRECTION ( 'NONE',  ( -3.491481338843133355E-15, 1.224646799147353207E-16, -1.000000000000000000 ) ) ;
#297 = APPROVAL_DATE_TIME ( #192, #8 ) ;
#298 = ORIENTED_EDGE ( 'NONE', *, *, #321, .F. ) ;
#299 = CARTESIAN_POINT ( 'NONE',  ( 1.305814020727331749E-13, 2.999999999999995559, 37.39999999999999858 ) ) ;
#300 = PERSON_AND_ORGANIZATION_ROLE ( 'classification_officer' ) ;
#301 = DIRECTION ( 'NONE',  ( 0.000000000000000000, -1.000000000000000000, 0.000000000000000000 ) ) ;
#302 = PERSON_AND_ORGANIZATION ( #208, #147 ) ;
#303 = EDGE_LOOP ( 'NONE', ( #329, #126, #199, #16 ) ) ;
#304 = COORDINATED_UNIVERSAL_TIME_OFFSET ( 1, 0, .AHEAD. ) ;
#305 = APPROVAL ( #47, 'UNSPECIFIED' ) ;
#306 = AXIS2_PLACEMENT_3D ( 'NONE', #325, #354, #105 ) ;
#307 = VERTEX_POINT ( 'NONE', #299 ) ;
#308 = AXIS2_PLACEMENT_3D ( 'NONE', #11, #125, #203 ) ;
#309 = CYLINDRICAL_SURFACE ( 'NONE', #308, 0.9999999999999991118 ) ;
#310 = DESIGN_CONTEXT ( 'detailed design', #48, 'design' ) ;
#311 = AXIS2_PLACEMENT_3D ( 'NONE', #186, #153, #157 ) ;
#312 = AXIS2_PLACEMENT_3D ( 'NONE', #37, #94, #68 ) ;
#313 = CYLINDRICAL_SURFACE ( 'NONE', #187, 2.999999999999998224 ) ;
#314 = DIRECTION ( 'NONE',  ( 3.372511997194914833E-15, -0.2588190451025215166, 0.9659258262890679791 ) ) ;
#315 = LINE ( 'NONE', #201, #170 ) ;
#316 = VECTOR ( 'NONE', #50, 1000.000000000000000 ) ;
#317 = SECURITY_CLASSIFICATION ( '', '', #195 ) ;
#318 = EDGE_LOOP ( 'NONE', ( #215, #328 ) ) ;
#319 = EDGE_CURVE ( 'NONE', #307, #56, #168, .T. ) ;
#320 = DIRECTION ( 'NONE',  ( 3.491481338843133355E-15, -1.276467311168695266E-16, 1.000000000000000000 ) ) ;
#321 = EDGE_CURVE ( 'NONE', #111, #29, #228, .T. ) ;
#322 = LINE ( 'NONE', #216, #247 ) ;
#323 = AXIS2_PLACEMENT_3D ( 'NONE', #337, #152, #93 ) ;
#324 = APPLICATION_PROTOCOL_DEFINITION ( 'international standard', 'config_control_design', 1994, #48 ) ;
#325 = CARTESIAN_POINT ( 'NONE',  ( 1.326762908760390423E-13, -4.653657836759941941E-15, 38.00000000000000000 ) ) ;
#326 = APPROVAL_ROLE ( '' ) ;
#327 =( NAMED_UNIT ( * ) SI_UNIT ( $, .STERADIAN. ) SOLID_ANGLE_UNIT ( ) );
#328 = ORIENTED_EDGE ( 'NONE', *, *, #321, .T. ) ;
#329 = ORIENTED_EDGE ( 'NONE', *, *, #253, .T. ) ;
#330 = AXIS2_PLACEMENT_3D ( 'NONE', #52, #272, #28 ) ;
#331 = ORIENTED_EDGE ( 'NONE', *, *, #287, .T. ) ;
#332 = ADVANCED_FACE ( 'NONE', ( #103 ), #143, .T. ) ;
#333 = ADVANCED_BREP_SHAPE_REPRESENTATION ( '372725', ( #360, #118, #35 ), #92 ) ;
#334 = CIRCLE ( 'NONE', #268, 3.000000000000000444 ) ;
#335 = APPROVAL ( #78, 'UNSPECIFIED' ) ;
#336 = FACE_OUTER_BOUND ( 'NONE', #251, .T. ) ;
#337 = CARTESIAN_POINT ( 'NONE',  ( -2.476696116459931122E-30, 6.709805186089076877E-32, -7.093539607118620226E-16 ) ) ;
#338 = CLOSED_SHELL ( 'NONE', ( #256, #104, #210, #31, #278, #38, #131, #261 ) ) ;
#339 = CYLINDRICAL_SURFACE ( 'NONE', #312, 2.999999999999998224 ) ;
#340 = APPROVAL_PERSON_ORGANIZATION ( #194, #335, #271 ) ;
#341 = ORIENTED_EDGE ( 'NONE', *, *, #84, .T. ) ;
#342 = CARTESIAN_POINT ( 'NONE',  ( 1.745740669421566678E-14, -1.000000000000000000, 5.000000000000000000 ) ) ;
#343 = CARTESIAN_POINT ( 'NONE',  ( 8.704979013371558890E-14, 2.999999999999996891, 12.46410161513772685 ) ) ;
#344 = VERTEX_POINT ( 'NONE', #24 ) ;
#345 = DIRECTION ( 'NONE',  ( 3.491481338843133355E-15, -1.276467311168695266E-16, 1.000000000000000000 ) ) ;
#346 = ORIENTED_EDGE ( 'NONE', *, *, #274, .T. ) ;
#347 = DIRECTION ( 'NONE',  ( 0.000000000000000000, -1.000000000000000000, 0.000000000000000000 ) ) ;
#348 = EDGE_LOOP ( 'NONE', ( #341, #175, #283, #146 ) ) ;
#349 = CLOSED_SHELL ( 'NONE', ( #163, #332, #177, #4 ) ) ;
#350 = CONICAL_SURFACE ( 'NONE', #254, 2.400000000000000799, 0.7853981633974453924 ) ;
#351 = ORIENTED_EDGE ( 'NONE', *, *, #227, .F. ) ;
#352 = CC_DESIGN_PERSON_AND_ORGANIZATION_ASSIGNMENT ( #246, #300, ( #317 ) ) ;
#353 = EDGE_CURVE ( 'NONE', #344, #276, #292, .T. ) ;
#354 = DIRECTION ( 'NONE',  ( -3.491481338843133355E-15, 1.224646799147353207E-16, -1.000000000000000000 ) ) ;
#355 = DIRECTION ( 'NONE',  ( 3.491481338843133355E-15, -1.276467311168695266E-16, 1.000000000000000000 ) ) ;
#356 = AXIS2_PLACEMENT_3D ( 'NONE', #290, #345, #238 ) ;
#357 = PERSON_AND_ORGANIZATION ( #208, #147 ) ;
#358 = PRODUCT_DEFINITION_FORMATION_WITH_SPECIFIED_SOURCE ( 'ANY', '', #87, .NOT_KNOWN. ) ;
#359 = VERTEX_POINT ( 'NONE', #248 ) ;
#360 = MANIFOLD_SOLID_BREP ( 'Corps-Déplacer/Copier1[1]', #338 ) ;
#361 = CARTESIAN_POINT ( 'NONE',  ( 8.260933544542137464E-14, -3.020154085325541628E-15, 23.66025403784433223 ) ) ;
#362 = ORIENTED_EDGE ( 'NONE', *, *, #227, .T. ) ;
#363 = PERSON_AND_ORGANIZATION ( #208, #147 ) ;
ENDSEC;
END-ISO-10303-21;
