ISO-10303-21;
HEADER;
FILE_DESCRIPTION (( 'STEP AP203' ),
    '1' );
FILE_NAME ('372724.step',
    '2023-03-31T07:08:53',
    ( '' ),
    ( '' ),
    'SwSTEP 2.0',
    'SolidWorks 2022',
    '' );
FILE_SCHEMA (( 'CONFIG_CONTROL_DESIGN' ));
ENDSEC;

DATA;
#1 = PLANE ( 'NONE',  #104 ) ;
#2 = ORIENTED_EDGE ( 'NONE', *, *, #22, .T. ) ;
#3 = DIRECTION ( 'NONE',  ( -3.491481338843133355E-15, 1.224646799147353207E-16, -1.000000000000000000 ) ) ;
#4 = APPROVAL_DATE_TIME ( #176, #167 ) ;
#5 = FACE_OUTER_BOUND ( 'NONE', #114, .T. ) ;
#6 = CYLINDRICAL_SURFACE ( 'NONE', #276, 1.499999999999998668 ) ;
#7 = CIRCLE ( 'NONE', #345, 1.499999999999998668 ) ;
#8 = COORDINATED_UNIVERSAL_TIME_OFFSET ( 1, 0, .AHEAD. ) ;
#9 = CARTESIAN_POINT ( 'NONE',  ( 1.326762908760390423E-13, -4.653657836759941941E-15, 38.00000000000000000 ) ) ;
#10 = VERTEX_POINT ( 'NONE', #36 ) ;
#11 = EDGE_CURVE ( 'NONE', #120, #230, #339, .T. ) ;
#12 = SHAPE_DEFINITION_REPRESENTATION ( #346, #265 ) ;
#13 = DIRECTION ( 'NONE',  ( -3.491481338843133355E-15, 1.224646799147353207E-16, -1.000000000000000000 ) ) ;
#14 = DATE_TIME_ROLE ( 'classification_date' ) ;
#15 = CALENDAR_DATE ( 2023, 31, 3 ) ;
#16 = CONICAL_SURFACE ( 'NONE', #317, 5.999999999999999112, 0.2617993877991501850 ) ;
#17 = ADVANCED_FACE ( 'NONE', ( #157 ), #6, .T. ) ;
#18 = CARTESIAN_POINT ( 'NONE',  ( 2.086808398166936038E-14, 0.9999999999999986677, 5.000000000000000000 ) ) ;
#19 = DIRECTION ( 'NONE',  ( -3.491481338843133355E-15, 1.224646799147353207E-16, -1.000000000000000000 ) ) ;
#20 = APPROVAL ( #29, 'UNSPECIFIED' ) ;
#21 = VERTEX_POINT ( 'NONE', #306 ) ;
#22 = EDGE_CURVE ( 'NONE', #10, #193, #93, .T. ) ;
#23 = ORIENTED_EDGE ( 'NONE', *, *, #207, .T. ) ;
#24 = CARTESIAN_POINT ( 'NONE',  ( 8.851168027022571692E-15, 0.9999999999999991118, -5.817072295950234096E-16 ) ) ;
#25 = ORIENTED_EDGE ( 'NONE', *, *, #44, .F. ) ;
#26 = CALENDAR_DATE ( 2023, 31, 3 ) ;
#27 = VERTEX_POINT ( 'NONE', #121 ) ;
#28 = LOCAL_TIME ( 9, 8, 53.00000000000000000, #8 ) ;
#29 = APPROVAL_STATUS ( 'not_yet_approved' ) ;
#30 = CARTESIAN_POINT ( 'NONE',  ( 1.326762908760390423E-13, 8.998558695971084067E-33, 38.00000000000000000 ) ) ;
#31 = DIRECTION ( 'NONE',  ( 0.000000000000000000, -1.000000000000000000, 0.000000000000000000 ) ) ;
#32 = ORIENTED_EDGE ( 'NONE', *, *, #49, .T. ) ;
#33 = CARTESIAN_POINT ( 'NONE',  ( 1.326762908760390423E-13, 1.199999999999996403, 38.00000000000000000 ) ) ;
#34 = COORDINATED_UNIVERSAL_TIME_OFFSET ( 1, 0, .AHEAD. ) ;
#35 = LINE ( 'NONE', #103, #110 ) ;
#36 = CARTESIAN_POINT ( 'NONE',  ( 7.780072302186123806E-14, 1.499999999999997780, 6.866025403784430381 ) ) ;
#37 = CARTESIAN_POINT ( 'NONE',  ( 1.316288464743861212E-13, -4.616918432785521081E-15, 37.69999999999999574 ) ) ;
#38 = PERSON_AND_ORGANIZATION_ROLE ( 'classification_officer' ) ;
#39 = FACE_OUTER_BOUND ( 'NONE', #178, .T. ) ;
#40 = EDGE_CURVE ( 'NONE', #311, #230, #138, .T. ) ;
#41 = ORIENTED_EDGE ( 'NONE', *, *, #11, .T. ) ;
#42 = AXIS2_PLACEMENT_3D ( 'NONE', #192, #78, #273 ) ;
#43 = CONICAL_SURFACE ( 'NONE', #271, 1.200000000000001066, 0.7853981633974453924 ) ;
#44 = EDGE_CURVE ( 'NONE', #21, #311, #253, .T. ) ;
#45 = DIRECTION ( 'NONE',  ( 3.491481338843133355E-15, -1.224646799147353207E-16, 1.000000000000000000 ) ) ;
#46 = LOCAL_TIME ( 9, 8, 53.00000000000000000, #363 ) ;
#47 = DESIGN_CONTEXT ( 'detailed design', #353, 'design' ) ;
#48 = ADVANCED_FACE ( 'NONE', ( #175 ), #150, .T. ) ;
#49 = EDGE_CURVE ( 'NONE', #230, #311, #315, .T. ) ;
#50 = VECTOR ( 'NONE', #136, 1000.000000000000114 ) ;
#51 = FACE_OUTER_BOUND ( 'NONE', #224, .T. ) ;
#52 = DIRECTION ( 'NONE',  ( 3.404208188709233130E-15, 0.2588190451025213501, 0.9659258262890680902 ) ) ;
#53 = ORIENTED_EDGE ( 'NONE', *, *, #160, .F. ) ;
#54 = CC_DESIGN_APPROVAL ( #167, ( #140 ) ) ;
#55 = DIRECTION ( 'NONE',  ( -3.491481338843133355E-15, 1.224646799147353207E-16, -1.000000000000000000 ) ) ;
#56 =( NAMED_UNIT ( * ) SI_UNIT ( $, .STERADIAN. ) SOLID_ANGLE_UNIT ( ) );
#57 = DATE_TIME_ROLE ( 'creation_date' ) ;
#58 = CYLINDRICAL_SURFACE ( 'NONE', #107, 0.9999999999999991118 ) ;
#59 = ORIENTED_EDGE ( 'NONE', *, *, #269, .F. ) ;
#60 = CIRCLE ( 'NONE', #134, 0.9999999999999991118 ) ;
#61 = CARTESIAN_POINT ( 'NONE',  ( 1.316288464743861212E-13, -4.616918432785521081E-15, 37.69999999999999574 ) ) ;
#62 = PERSON_AND_ORGANIZATION_ROLE ( 'design_owner' ) ;
#63 = CARTESIAN_POINT ( 'NONE',  ( 1.745740669421566678E-14, 1.124819836996389648E-32, 5.000000000000000000 ) ) ;
#64 = ORIENTED_EDGE ( 'NONE', *, *, #40, .F. ) ;
#65 = PERSON_AND_ORGANIZATION_ROLE ( 'design_supplier' ) ;
#66 = PLANE ( 'NONE',  #189 ) ;
#67 = CARTESIAN_POINT ( 'NONE',  ( 0.000000000000000000, 0.000000000000000000, 0.000000000000000000 ) ) ;
#68 = DIRECTION ( 'NONE',  ( 0.000000000000000000, -1.000000000000000000, 0.000000000000000000 ) ) ;
#69 = EDGE_LOOP ( 'NONE', ( #83, #330, #101, #82 ) ) ;
#70 = AXIS2_PLACEMENT_3D ( 'NONE', #349, #191, #295 ) ;
#71 = DATE_AND_TIME ( #15, #173 ) ;
#72 = APPROVAL_DATE_TIME ( #291, #75 ) ;
#73 = AXIS2_PLACEMENT_3D ( 'NONE', #153, #257, #331 ) ;
#74 = LOCAL_TIME ( 9, 8, 53.00000000000000000, #34 ) ;
#75 = APPROVAL ( #158, 'UNSPECIFIED' ) ;
#76 = EDGE_CURVE ( 'NONE', #109, #10, #296, .T. ) ;
#77 = DIRECTION ( 'NONE',  ( 0.000000000000000000, 1.000000000000000000, 0.000000000000000000 ) ) ;
#78 = DIRECTION ( 'NONE',  ( -3.491481338843133355E-15, 1.224646799147353207E-16, -1.000000000000000000 ) ) ;
#79 = AXIS2_PLACEMENT_3D ( 'NONE', #203, #285, #361 ) ;
#80 = CIRCLE ( 'NONE', #320, 0.9999999999999993339 ) ;
#81 = CARTESIAN_POINT ( 'NONE',  ( 0.000000000000000000, 0.000000000000000000, 0.000000000000000000 ) ) ;
#82 = ORIENTED_EDGE ( 'NONE', *, *, #215, .F. ) ;
#83 = ORIENTED_EDGE ( 'NONE', *, *, #244, .F. ) ;
#84 = VECTOR ( 'NONE', #287, 1000.000000000000114 ) ;
#85 = AXIS2_PLACEMENT_3D ( 'NONE', #275, #219, #177 ) ;
#86 = EDGE_LOOP ( 'NONE', ( #279, #284 ) ) ;
#87 = PERSON_AND_ORGANIZATION ( #319, #357 ) ;
#88 = EDGE_CURVE ( 'NONE', #120, #21, #194, .T. ) ;
#89 = CARTESIAN_POINT ( 'NONE',  ( 1.316288464743861212E-13, 1.499999999999996447, 37.69999999999999574 ) ) ;
#90 = ORIENTED_EDGE ( 'NONE', *, *, #215, .T. ) ;
#91 = CC_DESIGN_DATE_AND_TIME_ASSIGNMENT ( #71, #14, ( #327 ) ) ;
#92 = DIRECTION ( 'NONE',  ( -4.275831445896958607E-31, -1.000000000000000000, -1.224646799147353207E-16 ) ) ;
#93 = CIRCLE ( 'NONE', #79, 1.499999999999998668 ) ;
#94 = EDGE_LOOP ( 'NONE', ( #252, #234, #360, #218 ) ) ;
#95 = CIRCLE ( 'NONE', #316, 0.9999999999999993339 ) ;
#96 = PERSON_AND_ORGANIZATION_ROLE ( 'creator' ) ;
#97 = DIRECTION ( 'NONE',  ( 3.491481338843133355E-15, -1.224646799147353207E-16, 1.000000000000000000 ) ) ;
#98 = ADVANCED_FACE ( 'NONE', ( #111 ), #355, .T. ) ;
#99 = ORIENTED_EDGE ( 'NONE', *, *, #160, .T. ) ;
#100 = DIRECTION ( 'NONE',  ( -4.456761796588769661E-31, -1.000000000000000000, -1.276467311168695512E-16 ) ) ;
#101 = ORIENTED_EDGE ( 'NONE', *, *, #141, .T. ) ;
#102 = CALENDAR_DATE ( 2023, 31, 3 ) ;
#103 = CARTESIAN_POINT ( 'NONE',  ( 1.224646799147350002E-16, 0.9999999999999991118, -5.605293924377505371E-17 ) ) ;
#104 = AXIS2_PLACEMENT_3D ( 'NONE', #63, #97, #92 ) ;
#105 = CC_DESIGN_PERSON_AND_ORGANIZATION_ASSIGNMENT ( #204, #65, ( #156 ) ) ;
#106 = ADVANCED_FACE ( 'NONE', ( #51 ), #272, .T. ) ;
#107 = AXIS2_PLACEMENT_3D ( 'NONE', #237, #341, #100 ) ;
#108 = DIRECTION ( 'NONE',  ( 3.491481338843133355E-15, -1.276467311168695266E-16, 1.000000000000000000 ) ) ;
#109 = VERTEX_POINT ( 'NONE', #18 ) ;
#110 = VECTOR ( 'NONE', #148, 1000.000000000000000 ) ;
#111 = FACE_OUTER_BOUND ( 'NONE', #146, .T. ) ;
#112 = CC_DESIGN_PERSON_AND_ORGANIZATION_ASSIGNMENT ( #337, #96, ( #156 ) ) ;
#113 = APPLICATION_CONTEXT ( 'configuration controlled 3d designs of mechanical parts and assemblies' ) ;
#114 = EDGE_LOOP ( 'NONE', ( #149, #199 ) ) ;
#115 = ADVANCED_FACE ( 'NONE', ( #350 ), #301, .F. ) ;
#116 = APPLICATION_PROTOCOL_DEFINITION ( 'international standard', 'config_control_design', 1994, #353 ) ;
#117 = AXIS2_PLACEMENT_3D ( 'NONE', #37, #3, #125 ) ;
#118 = CIRCLE ( 'NONE', #263, 0.9999999999999993339 ) ;
#119 = DIRECTION ( 'NONE',  ( 3.491481338843133355E-15, -1.276467311168695266E-16, 1.000000000000000000 ) ) ;
#120 = VERTEX_POINT ( 'NONE', #170 ) ;
#121 = CARTESIAN_POINT ( 'NONE',  ( 1.745740669421566678E-14, -1.000000000000000000, 5.000000000000000000 ) ) ;
#122 = DIRECTION ( 'NONE',  ( 3.491481338843133355E-15, -1.276467311168695266E-16, 1.000000000000000000 ) ) ;
#123 = CARTESIAN_POINT ( 'NONE',  ( -6.413811575962160563E-31, 2.249662264968272623E-32, -1.836988645652424251E-16 ) ) ;
#124 = ORIENTED_EDGE ( 'NONE', *, *, #249, .T. ) ;
#125 = DIRECTION ( 'NONE',  ( 0.000000000000000000, 1.000000000000000000, 0.000000000000000000 ) ) ;
#126 = CALENDAR_DATE ( 2023, 31, 3 ) ;
#127 = CARTESIAN_POINT ( 'NONE',  ( 8.260933544542137464E-14, -3.020154085325541628E-15, 23.66025403784433223 ) ) ;
#128 = AXIS2_PLACEMENT_3D ( 'NONE', #354, #280, #328 ) ;
#129 = ORIENTED_EDGE ( 'NONE', *, *, #40, .T. ) ;
#130 = CIRCLE ( 'NONE', #70, 0.9999999999999991118 ) ;
#131 = CARTESIAN_POINT ( 'NONE',  ( 1.745740669421566678E-14, 1.124819836996389648E-32, 5.000000000000000000 ) ) ;
#132 = EDGE_LOOP ( 'NONE', ( #356, #256, #166, #209 ) ) ;
#133 = FACE_OUTER_BOUND ( 'NONE', #94, .T. ) ;
#134 = AXIS2_PLACEMENT_3D ( 'NONE', #267, #122, #309 ) ;
#135 = MANIFOLD_SOLID_BREP ( 'Corps-Déplacer/Copier1[1]', #155 ) ;
#136 = DIRECTION ( 'NONE',  ( 3.372511997194914833E-15, -0.2588190451025215166, 0.9659258262890679791 ) ) ;
#137 = VERTEX_POINT ( 'NONE', #24 ) ;
#138 = CIRCLE ( 'NONE', #335, 1.500000000000000888 ) ;
#139 = CIRCLE ( 'NONE', #352, 1.200000000000001066 ) ;
#140 = PRODUCT_DEFINITION ( 'UNKNOWN', '', #156, #47 ) ;
#141 = EDGE_CURVE ( 'NONE', #290, #334, #144, .T. ) ;
#142 = ORIENTED_EDGE ( 'NONE', *, *, #324, .T. ) ;
#143 = APPROVAL_STATUS ( 'not_yet_approved' ) ;
#144 = LINE ( 'NONE', #359, #277 ) ;
#145 = CIRCLE ( 'NONE', #85, 0.9999999999999993339 ) ;
#146 = EDGE_LOOP ( 'NONE', ( #23, #227, #2, #53 ) ) ;
#147 = DIRECTION ( 'NONE',  ( 4.275831445896958607E-31, 1.000000000000000000, 1.224646799147353207E-16 ) ) ;
#148 = DIRECTION ( 'NONE',  ( 3.491481338843133355E-15, -1.276467311168695266E-16, 1.000000000000000000 ) ) ;
#149 = ORIENTED_EDGE ( 'NONE', *, *, #343, .F. ) ;
#150 = CYLINDRICAL_SURFACE ( 'NONE', #73, 0.9999999999999991118 ) ;
#151 = DIRECTION ( 'NONE',  ( 0.000000000000000000, -1.000000000000000000, 0.000000000000000000 ) ) ;
#152 = CARTESIAN_POINT ( 'NONE',  ( 1.328232484919367446E-13, -1.200000000000005507, 38.00000000000000000 ) ) ;
#153 = CARTESIAN_POINT ( 'NONE',  ( -6.413839710158237013E-31, 0.000000000000000000, -1.836996703606440502E-16 ) ) ;
#154 = DIRECTION ( 'NONE',  ( 0.000000000000000000, 1.000000000000000000, 0.000000000000000000 ) ) ;
#155 = CLOSED_SHELL ( 'NONE', ( #98, #169, #106, #17, #300, #115, #270, #318 ) ) ;
#156 = PRODUCT_DEFINITION_FORMATION_WITH_SPECIFIED_SOURCE ( 'ANY', '', #225, .NOT_KNOWN. ) ;
#157 = FACE_OUTER_BOUND ( 'NONE', #342, .T. ) ;
#158 = APPROVAL_STATUS ( 'not_yet_approved' ) ;
#159 = DIRECTION ( 'NONE',  ( -3.491481338843133355E-15, 1.224646799147353207E-16, -1.000000000000000000 ) ) ;
#160 = EDGE_CURVE ( 'NONE', #27, #193, #164, .T. ) ;
#161 = CARTESIAN_POINT ( 'NONE',  ( 1.326762908760390423E-13, -4.653657836759941941E-15, 38.00000000000000000 ) ) ;
#162 =( GEOMETRIC_REPRESENTATION_CONTEXT ( 3 ) GLOBAL_UNCERTAINTY_ASSIGNED_CONTEXT ( ( #190 ) ) GLOBAL_UNIT_ASSIGNED_CONTEXT ( ( #282, #340, #56 ) ) REPRESENTATION_CONTEXT ( 'NONE', 'WORKASPACE' ) );
#163 = DIRECTION ( 'NONE',  ( 3.491481338843133355E-15, -1.276467311168695266E-16, 1.000000000000000000 ) ) ;
#164 = LINE ( 'NONE', #321, #50 ) ;
#165 = CARTESIAN_POINT ( 'NONE',  ( 8.260933544542137464E-14, -3.020154085325541628E-15, 23.66025403784433223 ) ) ;
#166 = ORIENTED_EDGE ( 'NONE', *, *, #324, .F. ) ;
#167 = APPROVAL ( #143, 'UNSPECIFIED' ) ;
#168 = APPROVAL_PERSON_ORGANIZATION ( #226, #20, #254 ) ;
#169 = ADVANCED_FACE ( 'NONE', ( #216 ), #43, .T. ) ;
#170 = CARTESIAN_POINT ( 'NONE',  ( 1.323178959930974653E-13, -1.200000000000005507, 38.00000000000000000 ) ) ;
#171 = DIRECTION ( 'NONE',  ( 4.275831445896958607E-31, 1.000000000000000000, 1.224646799147353207E-16 ) ) ;
#172 = DIRECTION ( 'NONE',  ( -4.275831445896958607E-31, -1.000000000000000000, -1.224646799147353207E-16 ) ) ;
#173 = LOCAL_TIME ( 9, 8, 53.00000000000000000, #262 ) ;
#174 = ORIENTED_EDGE ( 'NONE', *, *, #269, .T. ) ;
#175 = FACE_OUTER_BOUND ( 'NONE', #69, .T. ) ;
#176 = DATE_AND_TIME ( #26, #74 ) ;
#177 = DIRECTION ( 'NONE',  ( 0.000000000000000000, -1.000000000000000000, 0.000000000000000000 ) ) ;
#178 = EDGE_LOOP ( 'NONE', ( #142, #90 ) ) ;
#179 = DIRECTION ( 'NONE',  ( -3.491481338843133355E-15, 1.224646799147353207E-16, -1.000000000000000000 ) ) ;
#180 = SECURITY_CLASSIFICATION_LEVEL ( 'unclassified' ) ;
#181 = APPROVAL_ROLE ( '' ) ;
#182 = CARTESIAN_POINT ( 'NONE',  ( 7.798442004173313884E-14, -1.500000000000005329, 37.69999999999999574 ) ) ;
#183 = CC_DESIGN_PERSON_AND_ORGANIZATION_ASSIGNMENT ( #197, #62, ( #225 ) ) ;
#184 = ORIENTED_EDGE ( 'NONE', *, *, #261, .F. ) ;
#185 = CARTESIAN_POINT ( 'NONE',  ( 1.745740669421566678E-14, -1.000000000000000000, 5.000000000000000000 ) ) ;
#186 = EDGE_CURVE ( 'NONE', #109, #27, #80, .T. ) ;
#187 = AXIS2_PLACEMENT_3D ( 'NONE', #123, #293, #172 ) ;
#188 = EDGE_CURVE ( 'NONE', #137, #290, #130, .T. ) ;
#189 = AXIS2_PLACEMENT_3D ( 'NONE', #131, #45, #198 ) ;
#190 = UNCERTAINTY_MEASURE_WITH_UNIT (LENGTH_MEASURE( 1.000000000000000082E-05 ), #282, 'distance_accuracy_value', 'NONE');
#191 = DIRECTION ( 'NONE',  ( 3.491481338843133355E-15, -1.276467311168695266E-16, 1.000000000000000000 ) ) ;
#192 = CARTESIAN_POINT ( 'NONE',  ( 1.326762908760390423E-13, -4.653657836759941941E-15, 38.00000000000000000 ) ) ;
#193 = VERTEX_POINT ( 'NONE', #268 ) ;
#194 = CIRCLE ( 'NONE', #42, 1.200000000000001066 ) ;
#195 = VECTOR ( 'NONE', #13, 1000.000000000000000 ) ;
#196 = APPROVAL_ROLE ( '' ) ;
#197 = PERSON_AND_ORGANIZATION ( #319, #357 ) ;
#198 = DIRECTION ( 'NONE',  ( -4.275831445896958607E-31, -1.000000000000000000, -1.224646799147353207E-16 ) ) ;
#199 = ORIENTED_EDGE ( 'NONE', *, *, #188, .F. ) ;
#200 = MECHANICAL_CONTEXT ( 'NONE', #113, 'mechanical' ) ;
#201 = DIRECTION ( 'NONE',  ( -3.491481338843133355E-15, 1.276467311168695266E-16, -1.000000000000000000 ) ) ;
#202 = ORIENTED_EDGE ( 'NONE', *, *, #76, .F. ) ;
#203 = CARTESIAN_POINT ( 'NONE',  ( 2.397259956933623188E-14, -8.764256985584666527E-16, 6.866025403784430381 ) ) ;
#204 = PERSON_AND_ORGANIZATION ( #319, #357 ) ;
#205 = LINE ( 'NONE', #310, #336 ) ;
#206 = EDGE_LOOP ( 'NONE', ( #202, #302, #99, #174 ) ) ;
#207 = EDGE_CURVE ( 'NONE', #27, #109, #145, .T. ) ;
#208 = CARTESIAN_POINT ( 'NONE',  ( 1.745740669421566678E-14, -6.382336555843476821E-16, 5.000000000000000000 ) ) ;
#209 = ORIENTED_EDGE ( 'NONE', *, *, #141, .F. ) ;
#210 = ADVANCED_FACE ( 'NONE', ( #5 ), #286, .F. ) ;
#211 = LINE ( 'NONE', #333, #195 ) ;
#212 = APPROVAL_PERSON_ORGANIZATION ( #236, #75, #181 ) ;
#213 = APPROVAL_PERSON_ORGANIZATION ( #223, #167, #196 ) ;
#214 = DIRECTION ( 'NONE',  ( -3.491481338843133355E-15, 1.224646799147353207E-16, -1.000000000000000000 ) ) ;
#215 = EDGE_CURVE ( 'NONE', #220, #334, #118, .T. ) ;
#216 = FACE_OUTER_BOUND ( 'NONE', #305, .T. ) ;
#217 = DIRECTION ( 'NONE',  ( 0.000000000000000000, -1.000000000000000000, 0.000000000000000000 ) ) ;
#218 = ORIENTED_EDGE ( 'NONE', *, *, #49, .F. ) ;
#219 = DIRECTION ( 'NONE',  ( 3.491481338843133355E-15, -1.276467311168695266E-16, 1.000000000000000000 ) ) ;
#220 = VERTEX_POINT ( 'NONE', #283 ) ;
#221 = AXIS2_PLACEMENT_3D ( 'NONE', #30, #55, #171 ) ;
#222 = AXIS2_PLACEMENT_3D ( 'NONE', #81, #19, #247 ) ;
#223 = PERSON_AND_ORGANIZATION ( #319, #357 ) ;
#224 = EDGE_LOOP ( 'NONE', ( #129, #238, #326, #184 ) ) ;
#225 = PRODUCT ( '372724', '372724', '', ( #200 ) ) ;
#226 = PERSON_AND_ORGANIZATION ( #319, #357 ) ;
#227 = ORIENTED_EDGE ( 'NONE', *, *, #76, .T. ) ;
#228 = DIRECTION ( 'NONE',  ( -3.491481338843133355E-15, 1.224646799147353207E-16, -1.000000000000000000 ) ) ;
#229 = CARTESIAN_POINT ( 'NONE',  ( 2.397259956933623188E-14, -8.764256985584666527E-16, 6.866025403784430381 ) ) ;
#230 = VERTEX_POINT ( 'NONE', #182 ) ;
#231 = DIRECTION ( 'NONE',  ( 0.000000000000000000, 1.000000000000000000, 0.000000000000000000 ) ) ;
#232 = APPROVAL_DATE_TIME ( #332, #20 ) ;
#233 = FACE_OUTER_BOUND ( 'NONE', #206, .T. ) ;
#234 = ORIENTED_EDGE ( 'NONE', *, *, #88, .T. ) ;
#235 = APPLICATION_PROTOCOL_DEFINITION ( 'international standard', 'config_control_design', 1994, #113 ) ;
#236 = PERSON_AND_ORGANIZATION ( #319, #357 ) ;
#237 = CARTESIAN_POINT ( 'NONE',  ( -6.413839710158237013E-31, 0.000000000000000000, -1.836996703606440502E-16 ) ) ;
#238 = ORIENTED_EDGE ( 'NONE', *, *, #278, .T. ) ;
#239 = CARTESIAN_POINT ( 'NONE',  ( 1.745740669421566678E-14, -6.382336555843476821E-16, 5.000000000000000000 ) ) ;
#240 = CC_DESIGN_APPROVAL ( #75, ( #327 ) ) ;
#241 = CC_DESIGN_PERSON_AND_ORGANIZATION_ASSIGNMENT ( #87, #258, ( #140 ) ) ;
#242 = CARTESIAN_POINT ( 'NONE',  ( 1.745740669421566678E-14, -6.382336555843476821E-16, 5.000000000000000000 ) ) ;
#243 = AXIS2_PLACEMENT_3D ( 'NONE', #9, #264, #154 ) ;
#244 = EDGE_CURVE ( 'NONE', #137, #220, #35, .T. ) ;
#245 = DIRECTION ( 'NONE',  ( 0.000000000000000000, -1.000000000000000000, 0.000000000000000000 ) ) ;
#246 = EDGE_LOOP ( 'NONE', ( #248, #308 ) ) ;
#247 = DIRECTION ( 'NONE',  ( 4.275831445896958607E-31, 1.000000000000000000, 1.224646799147353207E-16 ) ) ;
#248 = ORIENTED_EDGE ( 'NONE', *, *, #207, .F. ) ;
#249 = EDGE_CURVE ( 'NONE', #21, #120, #139, .T. ) ;
#250 = CONICAL_SURFACE ( 'NONE', #243, 1.200000000000001066, 0.7853981633974453924 ) ;
#251 = COORDINATED_UNIVERSAL_TIME_OFFSET ( 1, 0, .AHEAD. ) ;
#252 = ORIENTED_EDGE ( 'NONE', *, *, #11, .F. ) ;
#253 = LINE ( 'NONE', #33, #84 ) ;
#254 = APPROVAL_ROLE ( '' ) ;
#255 = DIRECTION ( 'NONE',  ( -3.491481338843133355E-15, 1.224646799147353207E-16, -1.000000000000000000 ) ) ;
#256 = ORIENTED_EDGE ( 'NONE', *, *, #244, .T. ) ;
#257 = DIRECTION ( 'NONE',  ( 3.491481338843133355E-15, -1.276467311168695266E-16, 1.000000000000000000 ) ) ;
#258 = PERSON_AND_ORGANIZATION_ROLE ( 'creator' ) ;
#259 = DIRECTION ( 'NONE',  ( 3.491481338843133355E-15, -1.276467311168695266E-16, 1.000000000000000000 ) ) ;
#260 = DIRECTION ( 'NONE',  ( -2.382254525458723780E-15, -0.7071067811865453523, -0.7071067811865496822 ) ) ;
#261 = EDGE_CURVE ( 'NONE', #311, #10, #205, .T. ) ;
#262 = COORDINATED_UNIVERSAL_TIME_OFFSET ( 1, 0, .AHEAD. ) ;
#263 = AXIS2_PLACEMENT_3D ( 'NONE', #239, #259, #31 ) ;
#264 = DIRECTION ( 'NONE',  ( -3.491481338843133355E-15, 1.224646799147353207E-16, -1.000000000000000000 ) ) ;
#265 = ADVANCED_BREP_SHAPE_REPRESENTATION ( '372724', ( #135, #362, #128 ), #162 ) ;
#266 = ORIENTED_EDGE ( 'NONE', *, *, #278, .F. ) ;
#267 = CARTESIAN_POINT ( 'NONE',  ( -2.476696116459931122E-30, 6.709805186089076877E-32, -7.093539607118620226E-16 ) ) ;
#268 = CARTESIAN_POINT ( 'NONE',  ( 7.798442004173327768E-14, -1.499999999999999556, 6.866025403784430381 ) ) ;
#269 = EDGE_CURVE ( 'NONE', #193, #10, #7, .T. ) ;
#270 = ADVANCED_FACE ( 'NONE', ( #233 ), #16, .T. ) ;
#271 = AXIS2_PLACEMENT_3D ( 'NONE', #161, #214, #77 ) ;
#272 = CYLINDRICAL_SURFACE ( 'NONE', #222, 1.499999999999998668 ) ;
#273 = DIRECTION ( 'NONE',  ( 0.000000000000000000, 1.000000000000000000, 0.000000000000000000 ) ) ;
#274 = ORIENTED_EDGE ( 'NONE', *, *, #261, .T. ) ;
#275 = CARTESIAN_POINT ( 'NONE',  ( 1.745740669421566678E-14, -6.382336555843476821E-16, 5.000000000000000000 ) ) ;
#276 = AXIS2_PLACEMENT_3D ( 'NONE', #67, #179, #147 ) ;
#277 = VECTOR ( 'NONE', #119, 1000.000000000000000 ) ;
#278 = EDGE_CURVE ( 'NONE', #230, #193, #211, .T. ) ;
#279 = ORIENTED_EDGE ( 'NONE', *, *, #249, .F. ) ;
#280 = DIRECTION ( 'NONE',  ( 0.000000000000000000, 0.000000000000000000, 1.000000000000000000 ) ) ;
#281 = CC_DESIGN_SECURITY_CLASSIFICATION ( #327, ( #156 ) ) ;
#282 =( LENGTH_UNIT ( ) NAMED_UNIT ( * ) SI_UNIT ( .MILLI., .METRE. ) );
#283 = CARTESIAN_POINT ( 'NONE',  ( 8.851168027022566959E-15, 0.9999999999999986677, 5.000000000000000000 ) ) ;
#284 = ORIENTED_EDGE ( 'NONE', *, *, #88, .F. ) ;
#285 = DIRECTION ( 'NONE',  ( -3.491481338843133355E-15, 1.276467311168695266E-16, -1.000000000000000000 ) ) ;
#286 = PLANE ( 'NONE',  #187 ) ;
#287 = DIRECTION ( 'NONE',  ( -2.468850131082271655E-15, 0.7071067811865455743, -0.7071067811865493491 ) ) ;
#288 = PERSON_AND_ORGANIZATION ( #319, #357 ) ;
#289 = CARTESIAN_POINT ( 'NONE',  ( 1.326762908760390423E-13, -4.653657836759941941E-15, 38.00000000000000000 ) ) ;
#290 = VERTEX_POINT ( 'NONE', #313 ) ;
#291 = DATE_AND_TIME ( #102, #28 ) ;
#292 = LOCAL_TIME ( 9, 8, 53.00000000000000000, #251 ) ;
#293 = DIRECTION ( 'NONE',  ( 3.491481338843133355E-15, -1.224646799147353207E-16, 1.000000000000000000 ) ) ;
#294 = PRODUCT_RELATED_PRODUCT_CATEGORY ( 'detail', '', ( #225 ) ) ;
#295 = DIRECTION ( 'NONE',  ( -4.456761796588771413E-31, -1.000000000000000000, -1.276467311168695512E-16 ) ) ;
#296 = LINE ( 'NONE', #297, #347 ) ;
#297 = CARTESIAN_POINT ( 'NONE',  ( 8.334412352490978553E-14, 5.999999999999996447, 23.66025403784433223 ) ) ;
#298 = CC_DESIGN_DATE_AND_TIME_ASSIGNMENT ( #303, #57, ( #140 ) ) ;
#299 = CLOSED_SHELL ( 'NONE', ( #323, #314, #48, #210 ) ) ;
#300 = ADVANCED_FACE ( 'NONE', ( #133 ), #250, .T. ) ;
#301 = PLANE ( 'NONE',  #221 ) ;
#302 = ORIENTED_EDGE ( 'NONE', *, *, #186, .T. ) ;
#303 = DATE_AND_TIME ( #358, #292 ) ;
#304 = FACE_OUTER_BOUND ( 'NONE', #132, .T. ) ;
#305 = EDGE_LOOP ( 'NONE', ( #124, #41, #64, #25 ) ) ;
#306 = CARTESIAN_POINT ( 'NONE',  ( 1.326762908760390423E-13, 1.199999999999996403, 38.00000000000000000 ) ) ;
#307 = FACE_OUTER_BOUND ( 'NONE', #246, .T. ) ;
#308 = ORIENTED_EDGE ( 'NONE', *, *, #186, .F. ) ;
#309 = DIRECTION ( 'NONE',  ( -4.456761796588771413E-31, -1.000000000000000000, -1.276467311168695512E-16 ) ) ;
#310 = CARTESIAN_POINT ( 'NONE',  ( 6.413747168845432655E-31, 1.499999999999998668, 1.836970198721028208E-16 ) ) ;
#311 = VERTEX_POINT ( 'NONE', #89 ) ;
#312 = DIRECTION ( 'NONE',  ( 3.491481338843133355E-15, -1.276467311168695266E-16, 1.000000000000000000 ) ) ;
#313 = CARTESIAN_POINT ( 'NONE',  ( -2.922372296118807738E-30, -0.9999999999999991118, -8.370006918287314013E-16 ) ) ;
#314 = ADVANCED_FACE ( 'NONE', ( #39 ), #1, .T. ) ;
#315 = CIRCLE ( 'NONE', #117, 1.500000000000000888 ) ;
#316 = AXIS2_PLACEMENT_3D ( 'NONE', #208, #312, #68 ) ;
#317 = AXIS2_PLACEMENT_3D ( 'NONE', #127, #338, #151 ) ;
#318 = ADVANCED_FACE ( 'NONE', ( #307 ), #66, .F. ) ;
#319 = PERSON ( 'UNSPECIFIED', 'UNSPECIFIED', 'UNSPECIFIED', ('UNSPECIFIED'), ('UNSPECIFIED'), ('UNSPECIFIED') ) ;
#320 = AXIS2_PLACEMENT_3D ( 'NONE', #242, #163, #245 ) ;
#321 = CARTESIAN_POINT ( 'NONE',  ( 8.260933544542137464E-14, -6.000000000000001776, 23.66025403784433223 ) ) ;
#322 = CC_DESIGN_PERSON_AND_ORGANIZATION_ASSIGNMENT ( #288, #38, ( #327 ) ) ;
#323 = ADVANCED_FACE ( 'NONE', ( #304 ), #58, .T. ) ;
#324 = EDGE_CURVE ( 'NONE', #334, #220, #95, .T. ) ;
#325 = AXIS2_PLACEMENT_3D ( 'NONE', #165, #108, #217 ) ;
#326 = ORIENTED_EDGE ( 'NONE', *, *, #22, .F. ) ;
#327 = SECURITY_CLASSIFICATION ( '', '', #180 ) ;
#328 = DIRECTION ( 'NONE',  ( 1.000000000000000000, 0.000000000000000000, 0.000000000000000000 ) ) ;
#329 = DIRECTION ( 'NONE',  ( 0.000000000000000000, -1.000000000000000000, 0.000000000000000000 ) ) ;
#330 = ORIENTED_EDGE ( 'NONE', *, *, #188, .T. ) ;
#331 = DIRECTION ( 'NONE',  ( -4.456761796588769661E-31, -1.000000000000000000, -1.276467311168695512E-16 ) ) ;
#332 = DATE_AND_TIME ( #126, #46 ) ;
#333 = CARTESIAN_POINT ( 'NONE',  ( 1.836970198721021799E-16, -1.499999999999998668, -1.836970198721034618E-16 ) ) ;
#334 = VERTEX_POINT ( 'NONE', #185 ) ;
#335 = AXIS2_PLACEMENT_3D ( 'NONE', #61, #228, #231 ) ;
#336 = VECTOR ( 'NONE', #159, 1000.000000000000000 ) ;
#337 = PERSON_AND_ORGANIZATION ( #319, #357 ) ;
#338 = DIRECTION ( 'NONE',  ( 3.491481338843133355E-15, -1.276467311168695266E-16, 1.000000000000000000 ) ) ;
#339 = LINE ( 'NONE', #152, #351 ) ;
#340 =( NAMED_UNIT ( * ) PLANE_ANGLE_UNIT ( ) SI_UNIT ( $, .RADIAN. ) );
#341 = DIRECTION ( 'NONE',  ( 3.491481338843133355E-15, -1.276467311168695266E-16, 1.000000000000000000 ) ) ;
#342 = EDGE_LOOP ( 'NONE', ( #266, #32, #274, #59 ) ) ;
#343 = EDGE_CURVE ( 'NONE', #290, #137, #60, .T. ) ;
#344 = DIRECTION ( 'NONE',  ( 0.000000000000000000, 1.000000000000000000, 0.000000000000000000 ) ) ;
#345 = AXIS2_PLACEMENT_3D ( 'NONE', #229, #201, #329 ) ;
#346 = PRODUCT_DEFINITION_SHAPE ( 'NONE', 'NONE',  #140 ) ;
#347 = VECTOR ( 'NONE', #52, 1000.000000000000000 ) ;
#348 = CC_DESIGN_APPROVAL ( #20, ( #156 ) ) ;
#349 = CARTESIAN_POINT ( 'NONE',  ( -2.476696116459931122E-30, 6.709805186089076877E-32, -7.093539607118620226E-16 ) ) ;
#350 = FACE_OUTER_BOUND ( 'NONE', #86, .T. ) ;
#351 = VECTOR ( 'NONE', #260, 1000.000000000000000 ) ;
#352 = AXIS2_PLACEMENT_3D ( 'NONE', #289, #255, #344 ) ;
#353 = APPLICATION_CONTEXT ( 'configuration controlled 3d designs of mechanical parts and assemblies' ) ;
#354 = CARTESIAN_POINT ( 'NONE',  ( 0.000000000000000000, 0.000000000000000000, 0.000000000000000000 ) ) ;
#355 = CONICAL_SURFACE ( 'NONE', #325, 5.999999999999999112, 0.2617993877991501850 ) ;
#356 = ORIENTED_EDGE ( 'NONE', *, *, #343, .T. ) ;
#357 = ORGANIZATION ( 'UNSPECIFIED', 'UNSPECIFIED', '' ) ;
#358 = CALENDAR_DATE ( 2023, 31, 3 ) ;
#359 = CARTESIAN_POINT ( 'NONE',  ( -1.087060150674700229E-30, -0.9999999999999991118, -3.113464014775134782E-16 ) ) ;
#360 = ORIENTED_EDGE ( 'NONE', *, *, #44, .T. ) ;
#361 = DIRECTION ( 'NONE',  ( -3.552713678800500929E-14, -1.000000000000000000, 0.000000000000000000 ) ) ;
#362 = MANIFOLD_SOLID_BREP ( 'Corps-Déplacer/Copier1[2]', #299 ) ;
#363 = COORDINATED_UNIVERSAL_TIME_OFFSET ( 1, 0, .AHEAD. ) ;
ENDSEC;
END-ISO-10303-21;
