ISO-10303-21;
HEADER;
FILE_DESCRIPTION (( 'STEP AP203' ),
    '1' );
FILE_NAME ('372723.step',
    '2023-03-31T07:08:52',
    ( '' ),
    ( '' ),
    'SwSTEP 2.0',
    'SolidWorks 2022',
    '' );
FILE_SCHEMA (( 'CONFIG_CONTROL_DESIGN' ));
ENDSEC;

DATA;
#1 = EDGE_LOOP ( 'NONE', ( #360, #86, #224, #5 ) ) ;
#2 = CARTESIAN_POINT ( 'NONE',  ( -6.413803915257459741E-31, 2.249659577954773294E-32, -1.836986451539394062E-16 ) ) ;
#3 = EDGE_LOOP ( 'NONE', ( #313, #64, #204, #144 ) ) ;
#4 = CC_DESIGN_APPROVAL ( #83, ( #140 ) ) ;
#5 = ORIENTED_EDGE ( 'NONE', *, *, #257, .F. ) ;
#6 = EDGE_CURVE ( 'NONE', #169, #200, #270, .T. ) ;
#7 = APPLICATION_CONTEXT ( 'configuration controlled 3d designs of mechanical parts and assemblies' ) ;
#8 = CALENDAR_DATE ( 2023, 31, 3 ) ;
#9 = AXIS2_PLACEMENT_3D ( 'NONE', #15, #265, #188 ) ;
#10 = CC_DESIGN_SECURITY_CLASSIFICATION ( #327, ( #140 ) ) ;
#11 = CC_DESIGN_PERSON_AND_ORGANIZATION_ASSIGNMENT ( #317, #211, ( #140 ) ) ;
#12 = DIRECTION ( 'NONE',  ( 3.372511997194914833E-15, -0.2588190451025215166, 0.9659258262890679791 ) ) ;
#13 = PERSON ( 'UNSPECIFIED', 'UNSPECIFIED', 'UNSPECIFIED', ('UNSPECIFIED'), ('UNSPECIFIED'), ('UNSPECIFIED') ) ;
#14 = PERSON_AND_ORGANIZATION ( #13, #339 ) ;
#15 = CARTESIAN_POINT ( 'NONE',  ( 0.000000000000000000, 0.000000000000000000, 0.000000000000000000 ) ) ;
#16 = ORIENTED_EDGE ( 'NONE', *, *, #37, .T. ) ;
#17 = PERSON_AND_ORGANIZATION ( #13, #339 ) ;
#18 = LINE ( 'NONE', #132, #326 ) ;
#19 = DIRECTION ( 'NONE',  ( 3.491481338843133355E-15, -1.276467311168695266E-16, 1.000000000000000000 ) ) ;
#20 = DIRECTION ( 'NONE',  ( 4.275831445896959482E-31, 1.000000000000000000, 1.224646799147353207E-16 ) ) ;
#21 = CARTESIAN_POINT ( 'NONE',  ( -6.413839710158237013E-31, 0.000000000000000000, -1.836996703606440502E-16 ) ) ;
#22 = DIRECTION ( 'NONE',  ( -3.491481338843133355E-15, 1.224646799147353207E-16, -1.000000000000000000 ) ) ;
#23 = CARTESIAN_POINT ( 'NONE',  ( 1.745740669421566678E-14, -6.382336555843476821E-16, 5.000000000000000000 ) ) ;
#24 = EDGE_CURVE ( 'NONE', #252, #362, #117, .T. ) ;
#25 = ORIENTED_EDGE ( 'NONE', *, *, #24, .F. ) ;
#26 = MANIFOLD_SOLID_BREP ( 'Corps-Déplacer/Copier1[1]', #71 ) ;
#27 = MANIFOLD_SOLID_BREP ( 'Corps-Déplacer/Copier1[2]', #314 ) ;
#28 = VECTOR ( 'NONE', #175, 1000.000000000000000 ) ;
#29 = APPLICATION_CONTEXT ( 'configuration controlled 3d designs of mechanical parts and assemblies' ) ;
#30 = ORIENTED_EDGE ( 'NONE', *, *, #6, .T. ) ;
#31 = VERTEX_POINT ( 'NONE', #328 ) ;
#32 = DIRECTION ( 'NONE',  ( 0.000000000000000000, 1.000000000000000000, 0.000000000000000000 ) ) ;
#33 = ORIENTED_EDGE ( 'NONE', *, *, #24, .T. ) ;
#34 = DIRECTION ( 'NONE',  ( -3.491481338843133355E-15, 1.224646799147353207E-16, -1.000000000000000000 ) ) ;
#35 = ORIENTED_EDGE ( 'NONE', *, *, #232, .T. ) ;
#36 = AXIS2_PLACEMENT_3D ( 'NONE', #136, #19, #269 ) ;
#37 = EDGE_CURVE ( 'NONE', #170, #87, #51, .T. ) ;
#38 = COORDINATED_UNIVERSAL_TIME_OFFSET ( 1, 0, .AHEAD. ) ;
#39 = CC_DESIGN_DATE_AND_TIME_ASSIGNMENT ( #43, #181, ( #327 ) ) ;
#40 = APPROVAL_DATE_TIME ( #315, #83 ) ;
#41 = VECTOR ( 'NONE', #309, 1000.000000000000000 ) ;
#42 = DIRECTION ( 'NONE',  ( -4.456761796588769661E-31, -1.000000000000000000, -1.276467311168695512E-16 ) ) ;
#43 = DATE_AND_TIME ( #316, #193 ) ;
#44 = CARTESIAN_POINT ( 'NONE',  ( 1.745740669421566678E-14, 1.124819836996389511E-32, 5.000000000000000000 ) ) ;
#45 = DIRECTION ( 'NONE',  ( 0.000000000000000000, -1.000000000000000000, 0.000000000000000000 ) ) ;
#46 = APPLICATION_PROTOCOL_DEFINITION ( 'international standard', 'config_control_design', 1994, #29 ) ;
#47 = ORIENTED_EDGE ( 'NONE', *, *, #232, .F. ) ;
#48 = AXIS2_PLACEMENT_3D ( 'NONE', #49, #195, #295 ) ;
#49 = CARTESIAN_POINT ( 'NONE',  ( 2.397259956933621926E-14, -8.764256985584662583E-16, 6.866025403784427716 ) ) ;
#50 = CARTESIAN_POINT ( 'NONE',  ( 1.047444401652940007E-13, -3.673940397442059178E-15, 30.00000000000000000 ) ) ;
#51 = LINE ( 'NONE', #356, #318 ) ;
#52 = CARTESIAN_POINT ( 'NONE',  ( 8.260933544542137464E-14, -3.020154085325541628E-15, 23.66025403784433223 ) ) ;
#53 = EDGE_CURVE ( 'NONE', #62, #31, #167, .T. ) ;
#54 = CARTESIAN_POINT ( 'NONE',  ( -2.922372296118807738E-30, -0.9999999999999991118, -8.370006918287314013E-16 ) ) ;
#55 = EDGE_LOOP ( 'NONE', ( #138, #100, #30, #112 ) ) ;
#56 = PRODUCT_DEFINITION_SHAPE ( 'NONE', 'NONE',  #182 ) ;
#57 = ORIENTED_EDGE ( 'NONE', *, *, #219, .F. ) ;
#58 = APPROVAL_PERSON_ORGANIZATION ( #17, #208, #180 ) ;
#59 = CARTESIAN_POINT ( 'NONE',  ( 8.334412352490978553E-14, 5.999999999999996447, 23.66025403784433223 ) ) ;
#60 = ORIENTED_EDGE ( 'NONE', *, *, #268, .F. ) ;
#61 = PRODUCT ( '372723', '372723', '', ( #234 ) ) ;
#62 = VERTEX_POINT ( 'NONE', #164 ) ;
#63 = EDGE_CURVE ( 'NONE', #134, #118, #92, .T. ) ;
#64 = ORIENTED_EDGE ( 'NONE', *, *, #126, .T. ) ;
#65 = AXIS2_PLACEMENT_3D ( 'NONE', #74, #189, #273 ) ;
#66 = EDGE_CURVE ( 'NONE', #200, #87, #260, .T. ) ;
#67 = COORDINATED_UNIVERSAL_TIME_OFFSET ( 1, 0, .AHEAD. ) ;
#68 = APPROVAL ( #151, 'UNSPECIFIED' ) ;
#69 =( NAMED_UNIT ( * ) SI_UNIT ( $, .STERADIAN. ) SOLID_ANGLE_UNIT ( ) );
#70 = PERSON_AND_ORGANIZATION_ROLE ( 'design_supplier' ) ;
#71 = CLOSED_SHELL ( 'NONE', ( #320, #329, #229, #331, #245, #137, #357, #243 ) ) ;
#72 = AXIS2_PLACEMENT_3D ( 'NONE', #50, #163, #217 ) ;
#73 = FACE_OUTER_BOUND ( 'NONE', #230, .T. ) ;
#74 = CARTESIAN_POINT ( 'NONE',  ( 1.036969957636410417E-13, -3.637200993467639107E-15, 29.69999999999999574 ) ) ;
#75 = DIRECTION ( 'NONE',  ( 3.491481338843133355E-15, -1.276467311168695266E-16, 1.000000000000000000 ) ) ;
#76 = LINE ( 'NONE', #262, #288 ) ;
#77 = ORIENTED_EDGE ( 'NONE', *, *, #152, .F. ) ;
#78 = EDGE_CURVE ( 'NONE', #170, #169, #221, .T. ) ;
#79 = ORIENTED_EDGE ( 'NONE', *, *, #6, .F. ) ;
#80 = DIRECTION ( 'NONE',  ( 3.491481338843133355E-15, -1.276467311168695266E-16, 1.000000000000000000 ) ) ;
#81 = FACE_OUTER_BOUND ( 'NONE', #1, .T. ) ;
#82 = FACE_OUTER_BOUND ( 'NONE', #3, .T. ) ;
#83 = APPROVAL ( #340, 'UNSPECIFIED' ) ;
#84 = EDGE_LOOP ( 'NONE', ( #280, #111 ) ) ;
#85 = DIRECTION ( 'NONE',  ( -4.456761796588769661E-31, -1.000000000000000000, -1.276467311168695512E-16 ) ) ;
#86 = ORIENTED_EDGE ( 'NONE', *, *, #152, .T. ) ;
#87 = VERTEX_POINT ( 'NONE', #249 ) ;
#88 = AXIS2_PLACEMENT_3D ( 'NONE', #212, #294, #161 ) ;
#89 = EDGE_CURVE ( 'NONE', #87, #362, #155, .T. ) ;
#90 = ORIENTED_EDGE ( 'NONE', *, *, #196, .T. ) ;
#91 = ORIENTED_EDGE ( 'NONE', *, *, #168, .T. ) ;
#92 = CIRCLE ( 'NONE', #36, 0.9999999999999991118 ) ;
#93 = CALENDAR_DATE ( 2023, 31, 3 ) ;
#94 = AXIS2_PLACEMENT_3D ( 'NONE', #292, #233, #95 ) ;
#95 = DIRECTION ( 'NONE',  ( 1.000000000000000000, 0.000000000000000000, 0.000000000000000000 ) ) ;
#96 = PERSON_AND_ORGANIZATION ( #13, #339 ) ;
#97 = CARTESIAN_POINT ( 'NONE',  ( 1.745740669421566678E-14, -6.382336555843476821E-16, 5.000000000000000000 ) ) ;
#98 = AXIS2_PLACEMENT_3D ( 'NONE', #238, #346, #153 ) ;
#99 = CARTESIAN_POINT ( 'NONE',  ( 1.036969957636410417E-13, 1.499999999999995559, 29.69999999999999574 ) ) ;
#100 = ORIENTED_EDGE ( 'NONE', *, *, #78, .T. ) ;
#101 = PERSON_AND_ORGANIZATION ( #13, #339 ) ;
#102 = DIRECTION ( 'NONE',  ( -3.491481338843133355E-15, 1.224646799147353207E-16, -1.000000000000000000 ) ) ;
#103 = CC_DESIGN_DATE_AND_TIME_ASSIGNMENT ( #122, #156, ( #182 ) ) ;
#104 = FACE_OUTER_BOUND ( 'NONE', #149, .T. ) ;
#105 = FACE_OUTER_BOUND ( 'NONE', #141, .T. ) ;
#106 = CIRCLE ( 'NONE', #210, 0.9999999999999993339 ) ;
#107 = CARTESIAN_POINT ( 'NONE',  ( -6.413839710158237013E-31, 0.000000000000000000, -1.836996703606440502E-16 ) ) ;
#108 = CARTESIAN_POINT ( 'NONE',  ( 1.745740669421566678E-14, 1.124819836996389511E-32, 5.000000000000000000 ) ) ;
#109 = DIRECTION ( 'NONE',  ( 3.491481338843133355E-15, -1.276467311168695266E-16, 1.000000000000000000 ) ) ;
#110 = AXIS2_PLACEMENT_3D ( 'NONE', #187, #291, #352 ) ;
#111 = ORIENTED_EDGE ( 'NONE', *, *, #359, .F. ) ;
#112 = ORIENTED_EDGE ( 'NONE', *, *, #126, .F. ) ;
#113 = CARTESIAN_POINT ( 'NONE',  ( 1.047444401652940007E-13, -3.673940397442059178E-15, 30.00000000000000000 ) ) ;
#114 = CC_DESIGN_PERSON_AND_ORGANIZATION_ASSIGNMENT ( #289, #70, ( #140 ) ) ;
#115 = VERTEX_POINT ( 'NONE', #218 ) ;
#116 = DIRECTION ( 'NONE',  ( -4.275831445896958607E-31, -1.000000000000000000, -1.224646799147353207E-16 ) ) ;
#117 = CIRCLE ( 'NONE', #48, 1.499999999999997558 ) ;
#118 = VERTEX_POINT ( 'NONE', #246 ) ;
#119 = AXIS2_PLACEMENT_3D ( 'NONE', #271, #22, #20 ) ;
#120 = ORIENTED_EDGE ( 'NONE', *, *, #66, .F. ) ;
#121 = AXIS2_PLACEMENT_3D ( 'NONE', #52, #80, #296 ) ;
#122 = DATE_AND_TIME ( #8, #298 ) ;
#123 = APPLICATION_PROTOCOL_DEFINITION ( 'international standard', 'config_control_design', 1994, #7 ) ;
#124 = CARTESIAN_POINT ( 'NONE',  ( 1.745740669421566678E-14, -6.382336555843476821E-16, 5.000000000000000000 ) ) ;
#125 =( NAMED_UNIT ( * ) PLANE_ANGLE_UNIT ( ) SI_UNIT ( $, .RADIAN. ) );
#126 = EDGE_CURVE ( 'NONE', #87, #200, #150, .T. ) ;
#127 = DIRECTION ( 'NONE',  ( 3.491481338843133355E-15, -1.276467311168695266E-16, 1.000000000000000000 ) ) ;
#128 = UNCERTAINTY_MEASURE_WITH_UNIT (LENGTH_MEASURE( 1.000000000000000082E-05 ), #264, 'distance_accuracy_value', 'NONE');
#129 = CARTESIAN_POINT ( 'NONE',  ( 1.047444401652940007E-13, 1.199999999999995515, 30.00000000000000000 ) ) ;
#130 = PERSON_AND_ORGANIZATION_ROLE ( 'creator' ) ;
#131 = AXIS2_PLACEMENT_3D ( 'NONE', #2, #281, #116 ) ;
#132 = CARTESIAN_POINT ( 'NONE',  ( 1.224646799147350002E-16, 0.9999999999999991118, -5.605293924377505371E-17 ) ) ;
#133 = DIRECTION ( 'NONE',  ( -3.491481338843133355E-15, 1.224646799147353207E-16, -1.000000000000000000 ) ) ;
#134 = VERTEX_POINT ( 'NONE', #54 ) ;
#135 = AXIS2_PLACEMENT_3D ( 'NONE', #44, #287, #322 ) ;
#136 = CARTESIAN_POINT ( 'NONE',  ( -2.476696116459931122E-30, 6.709805186089076877E-32, -7.093539607118620226E-16 ) ) ;
#137 = ADVANCED_FACE ( 'NONE', ( #302 ), #348, .F. ) ;
#138 = ORIENTED_EDGE ( 'NONE', *, *, #37, .F. ) ;
#139 = VECTOR ( 'NONE', #325, 1000.000000000000000 ) ;
#140 = PRODUCT_DEFINITION_FORMATION_WITH_SPECIFIED_SOURCE ( 'ANY', '', #61, .NOT_KNOWN. ) ;
#141 = EDGE_LOOP ( 'NONE', ( #312, #16, #120, #79 ) ) ;
#142 = CARTESIAN_POINT ( 'NONE',  ( 6.383479766648867940E-14, 1.499999999999996891, 6.866025403784427716 ) ) ;
#143 = ADVANCED_FACE ( 'NONE', ( #104 ), #323, .T. ) ;
#144 = ORIENTED_EDGE ( 'NONE', *, *, #196, .F. ) ;
#145 = CARTESIAN_POINT ( 'NONE',  ( 1.047444401652940007E-13, -3.673940397442059178E-15, 30.00000000000000000 ) ) ;
#146 = ORIENTED_EDGE ( 'NONE', *, *, #66, .T. ) ;
#147 = PLANE ( 'NONE',  #131 ) ;
#148 = AXIS2_PLACEMENT_3D ( 'NONE', #266, #353, #239 ) ;
#149 = EDGE_LOOP ( 'NONE', ( #77, #254, #332, #57 ) ) ;
#150 = CIRCLE ( 'NONE', #65, 1.499999999999999112 ) ;
#151 = APPROVAL_STATUS ( 'not_yet_approved' ) ;
#152 = EDGE_CURVE ( 'NONE', #118, #31, #18, .T. ) ;
#153 = DIRECTION ( 'NONE',  ( 0.000000000000000000, -1.000000000000000000, 0.000000000000000000 ) ) ;
#154 = PERSON_AND_ORGANIZATION_ROLE ( 'design_owner' ) ;
#155 = LINE ( 'NONE', #214, #258 ) ;
#156 = DATE_TIME_ROLE ( 'creation_date' ) ;
#157 = CARTESIAN_POINT ( 'NONE',  ( -2.476696116459931122E-30, 6.709805186089076877E-32, -7.093539607118620226E-16 ) ) ;
#158 = DIRECTION ( 'NONE',  ( 3.491481338843133355E-15, -1.276467311168695266E-16, 1.000000000000000000 ) ) ;
#159 = AXIS2_PLACEMENT_3D ( 'NONE', #107, #293, #85 ) ;
#160 = CC_DESIGN_APPROVAL ( #68, ( #327 ) ) ;
#161 = DIRECTION ( 'NONE',  ( 0.000000000000000000, -1.000000000000000000, 0.000000000000000000 ) ) ;
#162 = CARTESIAN_POINT ( 'NONE',  ( 1.745740669421566678E-14, -6.382336555843476821E-16, 5.000000000000000000 ) ) ;
#163 = DIRECTION ( 'NONE',  ( -3.491481338843133355E-15, 1.224646799147353207E-16, -1.000000000000000000 ) ) ;
#164 = CARTESIAN_POINT ( 'NONE',  ( 1.745740669421566678E-14, -1.000000000000000000, 5.000000000000000000 ) ) ;
#165 = DIRECTION ( 'NONE',  ( -2.382254525458723780E-15, -0.7071067811865453523, -0.7071067811865496822 ) ) ;
#166 = ADVANCED_BREP_SHAPE_REPRESENTATION ( '372723', ( #26, #27, #94 ), #251 ) ;
#167 = CIRCLE ( 'NONE', #173, 0.9999999999999993339 ) ;
#168 = EDGE_CURVE ( 'NONE', #115, #284, #106, .T. ) ;
#169 = VERTEX_POINT ( 'NONE', #351 ) ;
#170 = VERTEX_POINT ( 'NONE', #216 ) ;
#171 = EDGE_CURVE ( 'NONE', #200, #252, #215, .T. ) ;
#172 = SHAPE_DEFINITION_REPRESENTATION ( #56, #166 ) ;
#173 = AXIS2_PLACEMENT_3D ( 'NONE', #162, #158, #45 ) ;
#174 = EDGE_LOOP ( 'NONE', ( #176, #91, #256, #90 ) ) ;
#175 = DIRECTION ( 'NONE',  ( 3.404208188709233130E-15, 0.2588190451025213501, 0.9659258262890680902 ) ) ;
#176 = ORIENTED_EDGE ( 'NONE', *, *, #282, .F. ) ;
#177 = FACE_OUTER_BOUND ( 'NONE', #84, .T. ) ;
#178 = EDGE_LOOP ( 'NONE', ( #222, #304 ) ) ;
#179 = ADVANCED_FACE ( 'NONE', ( #81 ), #194, .T. ) ;
#180 = APPROVAL_ROLE ( '' ) ;
#181 = DATE_TIME_ROLE ( 'classification_date' ) ;
#182 = PRODUCT_DEFINITION ( 'UNKNOWN', '', #140, #319 ) ;
#183 = DIRECTION ( 'NONE',  ( 0.000000000000000000, -1.000000000000000000, 0.000000000000000000 ) ) ;
#184 = CONICAL_SURFACE ( 'NONE', #72, 1.199999999999999289, 0.7853981633974453924 ) ;
#185 = PERSON_AND_ORGANIZATION ( #13, #339 ) ;
#186 = PLANE ( 'NONE',  #135 ) ;
#187 = CARTESIAN_POINT ( 'NONE',  ( 1.047444401652940007E-13, 8.998558695971084067E-33, 30.00000000000000000 ) ) ;
#188 = DIRECTION ( 'NONE',  ( 4.275831445896959482E-31, 1.000000000000000000, 1.224646799147353207E-16 ) ) ;
#189 = DIRECTION ( 'NONE',  ( -3.491481338843133355E-15, 1.224646799147353207E-16, -1.000000000000000000 ) ) ;
#190 = ORIENTED_EDGE ( 'NONE', *, *, #89, .T. ) ;
#191 = CYLINDRICAL_SURFACE ( 'NONE', #119, 1.499999999999997558 ) ;
#192 = AXIS2_PLACEMENT_3D ( 'NONE', #124, #235, #213 ) ;
#193 = LOCAL_TIME ( 9, 8, 52.00000000000000000, #67 ) ;
#194 = CYLINDRICAL_SURFACE ( 'NONE', #358, 0.9999999999999991118 ) ;
#195 = DIRECTION ( 'NONE',  ( -3.491481338843133355E-15, 1.276467311168695266E-16, -1.000000000000000000 ) ) ;
#196 = EDGE_CURVE ( 'NONE', #362, #252, #311, .T. ) ;
#197 = CIRCLE ( 'NONE', #240, 0.9999999999999993339 ) ;
#198 = CC_DESIGN_APPROVAL ( #208, ( #182 ) ) ;
#199 = COORDINATED_UNIVERSAL_TIME_OFFSET ( 1, 0, .AHEAD. ) ;
#200 = VERTEX_POINT ( 'NONE', #99 ) ;
#201 = ORIENTED_EDGE ( 'NONE', *, *, #78, .F. ) ;
#202 = LINE ( 'NONE', #363, #41 ) ;
#203 = EDGE_LOOP ( 'NONE', ( #146, #190, #25, #334 ) ) ;
#204 = ORIENTED_EDGE ( 'NONE', *, *, #171, .T. ) ;
#205 = EDGE_CURVE ( 'NONE', #284, #362, #76, .T. ) ;
#206 = CONICAL_SURFACE ( 'NONE', #88, 5.999999999999999112, 0.2617993877991501850 ) ;
#207 = PERSON_AND_ORGANIZATION ( #13, #339 ) ;
#208 = APPROVAL ( #342, 'UNSPECIFIED' ) ;
#209 = DIRECTION ( 'NONE',  ( 3.491481338843133355E-15, -1.276467311168695266E-16, 1.000000000000000000 ) ) ;
#210 = AXIS2_PLACEMENT_3D ( 'NONE', #23, #109, #242 ) ;
#211 = PERSON_AND_ORGANIZATION_ROLE ( 'creator' ) ;
#212 = CARTESIAN_POINT ( 'NONE',  ( 8.260933544542137464E-14, -3.020154085325541628E-15, 23.66025403784433223 ) ) ;
#213 = DIRECTION ( 'NONE',  ( 0.000000000000000000, -1.000000000000000000, 0.000000000000000000 ) ) ;
#214 = CARTESIAN_POINT ( 'NONE',  ( 1.836970198721020566E-16, -1.499999999999997558, -1.836970198721033139E-16 ) ) ;
#215 = LINE ( 'NONE', #324, #139 ) ;
#216 = CARTESIAN_POINT ( 'NONE',  ( 1.043860452823524111E-13, -1.200000000000002842, 30.00000000000000000 ) ) ;
#217 = DIRECTION ( 'NONE',  ( 0.000000000000000000, 1.000000000000000000, 0.000000000000000000 ) ) ;
#218 = CARTESIAN_POINT ( 'NONE',  ( 2.086808398166935407E-14, 0.9999999999999986677, 5.000000000000000000 ) ) ;
#219 = EDGE_CURVE ( 'NONE', #31, #62, #297, .T. ) ;
#220 = CARTESIAN_POINT ( 'NONE',  ( 1.047444401652940007E-13, -3.673940397442059178E-15, 30.00000000000000000 ) ) ;
#221 = CIRCLE ( 'NONE', #345, 1.199999999999999289 ) ;
#222 = ORIENTED_EDGE ( 'NONE', *, *, #53, .T. ) ;
#223 = DIRECTION ( 'NONE',  ( 0.000000000000000000, 1.000000000000000000, 0.000000000000000000 ) ) ;
#224 = ORIENTED_EDGE ( 'NONE', *, *, #53, .F. ) ;
#225 = FACE_OUTER_BOUND ( 'NONE', #337, .T. ) ;
#226 = CONICAL_SURFACE ( 'NONE', #355, 1.199999999999999289, 0.7853981633974453924 ) ;
#227 = LOCAL_TIME ( 9, 8, 52.00000000000000000, #338 ) ;
#228 = ORIENTED_EDGE ( 'NONE', *, *, #168, .F. ) ;
#229 = ADVANCED_FACE ( 'NONE', ( #290 ), #343, .T. ) ;
#230 = EDGE_LOOP ( 'NONE', ( #47, #228 ) ) ;
#231 = APPROVAL_ROLE ( '' ) ;
#232 = EDGE_CURVE ( 'NONE', #284, #115, #197, .T. ) ;
#233 = DIRECTION ( 'NONE',  ( 0.000000000000000000, 0.000000000000000000, 1.000000000000000000 ) ) ;
#234 = MECHANICAL_CONTEXT ( 'NONE', #7, 'mechanical' ) ;
#235 = DIRECTION ( 'NONE',  ( 3.491481338843133355E-15, -1.276467311168695266E-16, 1.000000000000000000 ) ) ;
#236 = SECURITY_CLASSIFICATION_LEVEL ( 'unclassified' ) ;
#237 = FACE_OUTER_BOUND ( 'NONE', #174, .T. ) ;
#238 = CARTESIAN_POINT ( 'NONE',  ( 2.397259956933621926E-14, -8.764256985584662583E-16, 6.866025403784427716 ) ) ;
#239 = DIRECTION ( 'NONE',  ( 0.000000000000000000, 1.000000000000000000, 0.000000000000000000 ) ) ;
#240 = AXIS2_PLACEMENT_3D ( 'NONE', #97, #209, #183 ) ;
#241 = CARTESIAN_POINT ( 'NONE',  ( 6.401849468636073163E-14, -1.499999999999998446, 6.866025403784427716 ) ) ;
#242 = DIRECTION ( 'NONE',  ( 0.000000000000000000, -1.000000000000000000, 0.000000000000000000 ) ) ;
#243 = ADVANCED_FACE ( 'NONE', ( #73 ), #186, .F. ) ;
#244 = DIRECTION ( 'NONE',  ( 0.000000000000000000, 1.000000000000000000, 0.000000000000000000 ) ) ;
#245 = ADVANCED_FACE ( 'NONE', ( #253 ), #226, .T. ) ;
#246 = CARTESIAN_POINT ( 'NONE',  ( 8.851168027022571692E-15, 0.9999999999999991118, -5.817072295950234096E-16 ) ) ;
#247 = DIRECTION ( 'NONE',  ( 3.491481338843133355E-15, -1.224646799147353207E-16, 1.000000000000000000 ) ) ;
#248 = AXIS2_PLACEMENT_3D ( 'NONE', #108, #247, #354 ) ;
#249 = CARTESIAN_POINT ( 'NONE',  ( 6.401849468636066853E-14, -1.500000000000002665, 29.69999999999999574 ) ) ;
#250 = APPROVAL_DATE_TIME ( #310, #68 ) ;
#251 =( GEOMETRIC_REPRESENTATION_CONTEXT ( 3 ) GLOBAL_UNCERTAINTY_ASSIGNED_CONTEXT ( ( #128 ) ) GLOBAL_UNIT_ASSIGNED_CONTEXT ( ( #264, #125, #69 ) ) REPRESENTATION_CONTEXT ( 'NONE', 'WORKASPACE' ) );
#252 = VERTEX_POINT ( 'NONE', #142 ) ;
#253 = FACE_OUTER_BOUND ( 'NONE', #55, .T. ) ;
#254 = ORIENTED_EDGE ( 'NONE', *, *, #359, .T. ) ;
#255 = DIRECTION ( 'NONE',  ( -3.491481338843133355E-15, 1.224646799147353207E-16, -1.000000000000000000 ) ) ;
#256 = ORIENTED_EDGE ( 'NONE', *, *, #205, .T. ) ;
#257 = EDGE_CURVE ( 'NONE', #134, #62, #202, .T. ) ;
#258 = VECTOR ( 'NONE', #102, 1000.000000000000000 ) ;
#259 = EDGE_LOOP ( 'NONE', ( #60, #201 ) ) ;
#260 = CIRCLE ( 'NONE', #148, 1.499999999999999112 ) ;
#261 = LOCAL_TIME ( 9, 8, 52.00000000000000000, #199 ) ;
#262 = CARTESIAN_POINT ( 'NONE',  ( 8.260933544542137464E-14, -6.000000000000001776, 23.66025403784433223 ) ) ;
#263 = PERSON_AND_ORGANIZATION_ROLE ( 'classification_officer' ) ;
#264 =( LENGTH_UNIT ( ) NAMED_UNIT ( * ) SI_UNIT ( .MILLI., .METRE. ) );
#265 = DIRECTION ( 'NONE',  ( -3.491481338843133355E-15, 1.224646799147353207E-16, -1.000000000000000000 ) ) ;
#266 = CARTESIAN_POINT ( 'NONE',  ( 1.036969957636410417E-13, -3.637200993467639107E-15, 29.69999999999999574 ) ) ;
#267 = APPROVAL_DATE_TIME ( #321, #208 ) ;
#268 = EDGE_CURVE ( 'NONE', #169, #170, #285, .T. ) ;
#269 = DIRECTION ( 'NONE',  ( -4.456761796588771413E-31, -1.000000000000000000, -1.276467311168695512E-16 ) ) ;
#270 = LINE ( 'NONE', #129, #276 ) ;
#271 = CARTESIAN_POINT ( 'NONE',  ( 0.000000000000000000, 0.000000000000000000, 0.000000000000000000 ) ) ;
#272 = CC_DESIGN_PERSON_AND_ORGANIZATION_ASSIGNMENT ( #207, #154, ( #61 ) ) ;
#273 = DIRECTION ( 'NONE',  ( 0.000000000000000000, 1.000000000000000000, 0.000000000000000000 ) ) ;
#274 = PLANE ( 'NONE',  #248 ) ;
#275 = DIRECTION ( 'NONE',  ( 3.491481338843133355E-15, -1.276467311168695266E-16, 1.000000000000000000 ) ) ;
#276 = VECTOR ( 'NONE', #300, 1000.000000000000114 ) ;
#277 = CIRCLE ( 'NONE', #279, 0.9999999999999991118 ) ;
#278 = CONICAL_SURFACE ( 'NONE', #121, 5.999999999999999112, 0.2617993877991501850 ) ;
#279 = AXIS2_PLACEMENT_3D ( 'NONE', #157, #75, #350 ) ;
#280 = ORIENTED_EDGE ( 'NONE', *, *, #63, .F. ) ;
#281 = DIRECTION ( 'NONE',  ( 3.491481338843133355E-15, -1.224646799147353207E-16, 1.000000000000000000 ) ) ;
#282 = EDGE_CURVE ( 'NONE', #115, #252, #333, .T. ) ;
#283 = CARTESIAN_POINT ( 'NONE',  ( 1.745740669421566678E-14, -1.000000000000000000, 5.000000000000000000 ) ) ;
#284 = VERTEX_POINT ( 'NONE', #283 ) ;
#285 = CIRCLE ( 'NONE', #335, 1.199999999999999289 ) ;
#286 = CALENDAR_DATE ( 2023, 31, 3 ) ;
#287 = DIRECTION ( 'NONE',  ( 3.491481338843133355E-15, -1.224646799147353207E-16, 1.000000000000000000 ) ) ;
#288 = VECTOR ( 'NONE', #12, 1000.000000000000114 ) ;
#289 = PERSON_AND_ORGANIZATION ( #13, #339 ) ;
#290 = FACE_OUTER_BOUND ( 'NONE', #203, .T. ) ;
#291 = DIRECTION ( 'NONE',  ( -3.491481338843133355E-15, 1.224646799147353207E-16, -1.000000000000000000 ) ) ;
#292 = CARTESIAN_POINT ( 'NONE',  ( 0.000000000000000000, 0.000000000000000000, 0.000000000000000000 ) ) ;
#293 = DIRECTION ( 'NONE',  ( 3.491481338843133355E-15, -1.276467311168695266E-16, 1.000000000000000000 ) ) ;
#294 = DIRECTION ( 'NONE',  ( 3.491481338843133355E-15, -1.276467311168695266E-16, 1.000000000000000000 ) ) ;
#295 = DIRECTION ( 'NONE',  ( -2.664535259100375697E-14, -1.000000000000000000, 0.000000000000000000 ) ) ;
#296 = DIRECTION ( 'NONE',  ( 0.000000000000000000, -1.000000000000000000, 0.000000000000000000 ) ) ;
#297 = CIRCLE ( 'NONE', #192, 0.9999999999999993339 ) ;
#298 = LOCAL_TIME ( 9, 8, 52.00000000000000000, #349 ) ;
#299 = CC_DESIGN_PERSON_AND_ORGANIZATION_ASSIGNMENT ( #96, #130, ( #182 ) ) ;
#300 = DIRECTION ( 'NONE',  ( -2.468850131082271655E-15, 0.7071067811865455743, -0.7071067811865493491 ) ) ;
#301 = FACE_OUTER_BOUND ( 'NONE', #178, .T. ) ;
#302 = FACE_OUTER_BOUND ( 'NONE', #259, .T. ) ;
#303 = LOCAL_TIME ( 9, 8, 52.00000000000000000, #38 ) ;
#304 = ORIENTED_EDGE ( 'NONE', *, *, #219, .T. ) ;
#305 = CALENDAR_DATE ( 2023, 31, 3 ) ;
#306 = ADVANCED_FACE ( 'NONE', ( #177 ), #147, .F. ) ;
#307 = ORIENTED_EDGE ( 'NONE', *, *, #205, .F. ) ;
#308 = CC_DESIGN_PERSON_AND_ORGANIZATION_ASSIGNMENT ( #185, #263, ( #327 ) ) ;
#309 = DIRECTION ( 'NONE',  ( 3.491481338843133355E-15, -1.276467311168695266E-16, 1.000000000000000000 ) ) ;
#310 = DATE_AND_TIME ( #305, #261 ) ;
#311 = CIRCLE ( 'NONE', #98, 1.499999999999997558 ) ;
#312 = ORIENTED_EDGE ( 'NONE', *, *, #268, .T. ) ;
#313 = ORIENTED_EDGE ( 'NONE', *, *, #89, .F. ) ;
#314 = CLOSED_SHELL ( 'NONE', ( #179, #341, #143, #306 ) ) ;
#315 = DATE_AND_TIME ( #93, #227 ) ;
#316 = CALENDAR_DATE ( 2023, 31, 3 ) ;
#317 = PERSON_AND_ORGANIZATION ( #13, #339 ) ;
#318 = VECTOR ( 'NONE', #165, 1000.000000000000000 ) ;
#319 = DESIGN_CONTEXT ( 'detailed design', #29, 'design' ) ;
#320 = ADVANCED_FACE ( 'NONE', ( #225 ), #278, .T. ) ;
#321 = DATE_AND_TIME ( #286, #303 ) ;
#322 = DIRECTION ( 'NONE',  ( -4.275831445896958607E-31, -1.000000000000000000, -1.224646799147353207E-16 ) ) ;
#323 = CYLINDRICAL_SURFACE ( 'NONE', #159, 0.9999999999999991118 ) ;
#324 = CARTESIAN_POINT ( 'NONE',  ( 6.413747168845428276E-31, 1.499999999999997558, 1.836970198721026976E-16 ) ) ;
#325 = DIRECTION ( 'NONE',  ( -3.491481338843133355E-15, 1.224646799147353207E-16, -1.000000000000000000 ) ) ;
#326 = VECTOR ( 'NONE', #275, 1000.000000000000000 ) ;
#327 = SECURITY_CLASSIFICATION ( '', '', #236 ) ;
#328 = CARTESIAN_POINT ( 'NONE',  ( 8.851168027022566959E-15, 0.9999999999999986677, 5.000000000000000000 ) ) ;
#329 = ADVANCED_FACE ( 'NONE', ( #105 ), #184, .T. ) ;
#330 = APPROVAL_PERSON_ORGANIZATION ( #101, #83, #231 ) ;
#331 = ADVANCED_FACE ( 'NONE', ( #82 ), #191, .T. ) ;
#332 = ORIENTED_EDGE ( 'NONE', *, *, #257, .T. ) ;
#333 = LINE ( 'NONE', #59, #28 ) ;
#334 = ORIENTED_EDGE ( 'NONE', *, *, #171, .F. ) ;
#335 = AXIS2_PLACEMENT_3D ( 'NONE', #113, #255, #223 ) ;
#336 = ORIENTED_EDGE ( 'NONE', *, *, #282, .T. ) ;
#337 = EDGE_LOOP ( 'NONE', ( #35, #336, #33, #307 ) ) ;
#338 = COORDINATED_UNIVERSAL_TIME_OFFSET ( 1, 0, .AHEAD. ) ;
#339 = ORGANIZATION ( 'UNSPECIFIED', 'UNSPECIFIED', '' ) ;
#340 = APPROVAL_STATUS ( 'not_yet_approved' ) ;
#341 = ADVANCED_FACE ( 'NONE', ( #301 ), #274, .T. ) ;
#342 = APPROVAL_STATUS ( 'not_yet_approved' ) ;
#343 = CYLINDRICAL_SURFACE ( 'NONE', #9, 1.499999999999997558 ) ;
#344 = APPROVAL_ROLE ( '' ) ;
#345 = AXIS2_PLACEMENT_3D ( 'NONE', #220, #133, #244 ) ;
#346 = DIRECTION ( 'NONE',  ( -3.491481338843133355E-15, 1.276467311168695266E-16, -1.000000000000000000 ) ) ;
#347 = APPROVAL_PERSON_ORGANIZATION ( #14, #68, #344 ) ;
#348 = PLANE ( 'NONE',  #110 ) ;
#349 = COORDINATED_UNIVERSAL_TIME_OFFSET ( 1, 0, .AHEAD. ) ;
#350 = DIRECTION ( 'NONE',  ( -4.456761796588771413E-31, -1.000000000000000000, -1.276467311168695512E-16 ) ) ;
#351 = CARTESIAN_POINT ( 'NONE',  ( 1.047444401652940007E-13, 1.199999999999995515, 30.00000000000000000 ) ) ;
#352 = DIRECTION ( 'NONE',  ( 4.275831445896958607E-31, 1.000000000000000000, 1.224646799147353207E-16 ) ) ;
#353 = DIRECTION ( 'NONE',  ( -3.491481338843133355E-15, 1.224646799147353207E-16, -1.000000000000000000 ) ) ;
#354 = DIRECTION ( 'NONE',  ( -4.275831445896958607E-31, -1.000000000000000000, -1.224646799147353207E-16 ) ) ;
#355 = AXIS2_PLACEMENT_3D ( 'NONE', #145, #34, #32 ) ;
#356 = CARTESIAN_POINT ( 'NONE',  ( 1.048913977811916904E-13, -1.200000000000002842, 30.00000000000000000 ) ) ;
#357 = ADVANCED_FACE ( 'NONE', ( #237 ), #206, .T. ) ;
#358 = AXIS2_PLACEMENT_3D ( 'NONE', #21, #127, #42 ) ;
#359 = EDGE_CURVE ( 'NONE', #118, #134, #277, .T. ) ;
#360 = ORIENTED_EDGE ( 'NONE', *, *, #63, .T. ) ;
#361 = PRODUCT_RELATED_PRODUCT_CATEGORY ( 'detail', '', ( #61 ) ) ;
#362 = VERTEX_POINT ( 'NONE', #241 ) ;
#363 = CARTESIAN_POINT ( 'NONE',  ( -1.087060150674700229E-30, -0.9999999999999991118, -3.113464014775134782E-16 ) ) ;
ENDSEC;
END-ISO-10303-21;
