ISO-10303-21;
HEADER;
FILE_DESCRIPTION (( 'STEP AP203' ),
    '1' );
FILE_NAME ('372722.step',
    '2023-03-31T07:08:51',
    ( '' ),
    ( '' ),
    'SwSTEP 2.0',
    'SolidWorks 2022',
    '' );
FILE_SCHEMA (( 'CONFIG_CONTROL_DESIGN' ));
ENDSEC;

DATA;
#1 = CIRCLE ( 'NONE', #137, 1.500000000000000888 ) ;
#2 = LINE ( 'NONE', #20, #86 ) ;
#3 = ORIENTED_EDGE ( 'NONE', *, *, #182, .T. ) ;
#4 = CARTESIAN_POINT ( 'NONE',  ( 1.323178959930974653E-13, -1.200000000000005507, 38.00000000000000000 ) ) ;
#5 = ADVANCED_FACE ( 'NONE', ( #339 ), #358, .T. ) ;
#6 = CARTESIAN_POINT ( 'NONE',  ( 7.074811187622316494E-15, 0.7499999999999992228, 4.000000000000000000 ) ) ;
#7 = ORGANIZATION ( 'UNSPECIFIED', 'UNSPECIFIED', '' ) ;
#8 = CARTESIAN_POINT ( 'NONE',  ( 1.396592535537253342E-14, -0.7500000000000003331, 4.000000000000000000 ) ) ;
#9 = ORIENTED_EDGE ( 'NONE', *, *, #177, .F. ) ;
#10 = DIRECTION ( 'NONE',  ( 4.275831445896958607E-31, 1.000000000000000000, 1.224646799147353207E-16 ) ) ;
#11 = PLANE ( 'NONE',  #242 ) ;
#12 = PERSON_AND_ORGANIZATION ( #281, #7 ) ;
#13 = CARTESIAN_POINT ( 'NONE',  ( 2.373871466805334795E-14, -8.678749889286558226E-16, 6.799038105676637578 ) ) ;
#14 = VERTEX_POINT ( 'NONE', #8 ) ;
#15 = LINE ( 'NONE', #135, #101 ) ;
#16 = ORIENTED_EDGE ( 'NONE', *, *, #84, .T. ) ;
#17 = DATE_AND_TIME ( #277, #73 ) ;
#18 = CARTESIAN_POINT ( 'NONE',  ( 1.396592535537253342E-14, -5.105869244674781062E-16, 4.000000000000000000 ) ) ;
#19 = AXIS2_PLACEMENT_3D ( 'NONE', #271, #290, #32 ) ;
#20 = CARTESIAN_POINT ( 'NONE',  ( 7.982202601608797470E-14, 5.749999999999997335, 22.66025403784432868 ) ) ;
#21 = CYLINDRICAL_SURFACE ( 'NONE', #58, 0.7499999999999997780 ) ;
#22 = EDGE_LOOP ( 'NONE', ( #237, #175 ) ) ;
#23 = CARTESIAN_POINT ( 'NONE',  ( 1.326762908760390423E-13, -4.653657836759941941E-15, 38.00000000000000000 ) ) ;
#24 = VECTOR ( 'NONE', #77, 1000.000000000000000 ) ;
#25 = EDGE_LOOP ( 'NONE', ( #34, #251 ) ) ;
#26 = DIRECTION ( 'NONE',  ( -2.382254525458723780E-15, -0.7071067811865453523, -0.7071067811865496822 ) ) ;
#27 = LINE ( 'NONE', #343, #198 ) ;
#28 = DIRECTION ( 'NONE',  ( -3.491481338843133355E-15, 1.224646799147353207E-16, -1.000000000000000000 ) ) ;
#29 = VERTEX_POINT ( 'NONE', #340 ) ;
#30 = VECTOR ( 'NONE', #36, 1000.000000000000114 ) ;
#31 = APPROVAL_PERSON_ORGANIZATION ( #12, #192, #95 ) ;
#32 = DIRECTION ( 'NONE',  ( 0.000000000000000000, 1.000000000000000000, 0.000000000000000000 ) ) ;
#33 = DIRECTION ( 'NONE',  ( 0.000000000000000000, -1.000000000000000000, 0.000000000000000000 ) ) ;
#34 = ORIENTED_EDGE ( 'NONE', *, *, #308, .F. ) ;
#35 = DIRECTION ( 'NONE',  ( -4.275831445896958607E-31, -1.000000000000000000, -1.224646799147353207E-16 ) ) ;
#36 = DIRECTION ( 'NONE',  ( -2.468850131082271655E-15, 0.7071067811865455743, -0.7071067811865493491 ) ) ;
#37 = CONICAL_SURFACE ( 'NONE', #171, 5.750000000000000000, 0.2617993877991501850 ) ;
#38 = LOCAL_TIME ( 9, 8, 51.00000000000000000, #350 ) ;
#39 = VERTEX_POINT ( 'NONE', #4 ) ;
#40 = APPROVAL_DATE_TIME ( #207, #190 ) ;
#41 = ORIENTED_EDGE ( 'NONE', *, *, #273, .T. ) ;
#42 = DIRECTION ( 'NONE',  ( 3.491481338843133355E-15, -1.276467311168695266E-16, 1.000000000000000000 ) ) ;
#43 = ORIENTED_EDGE ( 'NONE', *, *, #158, .T. ) ;
#44 = PERSON_AND_ORGANIZATION_ROLE ( 'design_supplier' ) ;
#45 = DIRECTION ( 'NONE',  ( 3.491481338843133355E-15, -1.276467311168695266E-16, 1.000000000000000000 ) ) ;
#46 = AXIS2_PLACEMENT_3D ( 'NONE', #156, #284, #312 ) ;
#47 = CIRCLE ( 'NONE', #188, 0.7499999999999997780 ) ;
#48 = CALENDAR_DATE ( 2023, 31, 3 ) ;
#49 = ORIENTED_EDGE ( 'NONE', *, *, #99, .T. ) ;
#50 = AXIS2_PLACEMENT_3D ( 'NONE', #145, #315, #54 ) ;
#51 = LOCAL_TIME ( 9, 8, 51.00000000000000000, #249 ) ;
#52 = DATE_AND_TIME ( #311, #51 ) ;
#53 = DIRECTION ( 'NONE',  ( -4.456761796588771413E-31, -1.000000000000000000, -1.276467311168695266E-16 ) ) ;
#54 = DIRECTION ( 'NONE',  ( 0.000000000000000000, -1.000000000000000000, 0.000000000000000000 ) ) ;
#55 = APPLICATION_CONTEXT ( 'configuration controlled 3d designs of mechanical parts and assemblies' ) ;
#56 = ORIENTED_EDGE ( 'NONE', *, *, #338, .F. ) ;
#57 = CARTESIAN_POINT ( 'NONE',  ( -2.365277071545212056E-30, 6.302462986968517098E-32, -6.774422779326445547E-16 ) ) ;
#58 = AXIS2_PLACEMENT_3D ( 'NONE', #285, #138, #111 ) ;
#59 = CARTESIAN_POINT ( 'NONE',  ( 1.396592535537253342E-14, 1.124819836996389648E-32, 4.000000000000000000 ) ) ;
#60 = DIRECTION ( 'NONE',  ( 0.000000000000000000, -1.000000000000000000, 0.000000000000000000 ) ) ;
#61 = ORIENTED_EDGE ( 'NONE', *, *, #204, .F. ) ;
#62 = EDGE_CURVE ( 'NONE', #29, #128, #79, .T. ) ;
#63 = AXIS2_PLACEMENT_3D ( 'NONE', #18, #42, #130 ) ;
#64 = EDGE_LOOP ( 'NONE', ( #200, #43, #154, #67 ) ) ;
#65 = APPROVAL_STATUS ( 'not_yet_approved' ) ;
#66 = PRODUCT_RELATED_PRODUCT_CATEGORY ( 'detail', '', ( #326 ) ) ;
#67 = ORIENTED_EDGE ( 'NONE', *, *, #142, .F. ) ;
#68 = CIRCLE ( 'NONE', #337, 1.499999999999998224 ) ;
#69 = EDGE_LOOP ( 'NONE', ( #149, #103 ) ) ;
#70 = DIRECTION ( 'NONE',  ( 0.000000000000000000, -1.000000000000000000, 0.000000000000000000 ) ) ;
#71 = DIRECTION ( 'NONE',  ( 4.275831445896958607E-31, 1.000000000000000000, 1.224646799147353207E-16 ) ) ;
#72 = PERSON_AND_ORGANIZATION_ROLE ( 'design_owner' ) ;
#73 = LOCAL_TIME ( 9, 8, 51.00000000000000000, #333 ) ;
#74 = DIRECTION ( 'NONE',  ( 0.000000000000000000, 1.000000000000000000, 0.000000000000000000 ) ) ;
#75 = CIRCLE ( 'NONE', #46, 0.7499999999999997780 ) ;
#76 = DIRECTION ( 'NONE',  ( -3.491481338843133355E-15, 1.224646799147353207E-16, -1.000000000000000000 ) ) ;
#77 = DIRECTION ( 'NONE',  ( 3.491481338843133355E-15, -1.276467311168695266E-16, 1.000000000000000000 ) ) ;
#78 = APPROVAL ( #65, 'UNSPECIFIED' ) ;
#79 = LINE ( 'NONE', #231, #161 ) ;
#80 = CYLINDRICAL_SURFACE ( 'NONE', #168, 1.499999999999998224 ) ;
#81 = DIRECTION ( 'NONE',  ( -3.491481338843133355E-15, 1.224646799147353207E-16, -1.000000000000000000 ) ) ;
#82 = FACE_OUTER_BOUND ( 'NONE', #278, .T. ) ;
#83 = ORIENTED_EDGE ( 'NONE', *, *, #99, .F. ) ;
#84 = EDGE_CURVE ( 'NONE', #128, #113, #68, .T. ) ;
#85 = ORIENTED_EDGE ( 'NONE', *, *, #224, .T. ) ;
#86 = VECTOR ( 'NONE', #195, 1000.000000000000000 ) ;
#87 = CARTESIAN_POINT ( 'NONE',  ( 0.000000000000000000, 0.000000000000000000, 0.000000000000000000 ) ) ;
#88 = CC_DESIGN_APPROVAL ( #192, ( #233 ) ) ;
#89 = DIRECTION ( 'NONE',  ( -3.491481338843133355E-15, 1.276467311168695266E-16, -1.000000000000000000 ) ) ;
#90 = VERTEX_POINT ( 'NONE', #319 ) ;
#91 = DATE_TIME_ROLE ( 'classification_date' ) ;
#92 = LINE ( 'NONE', #352, #30 ) ;
#93 = APPLICATION_CONTEXT ( 'configuration controlled 3d designs of mechanical parts and assemblies' ) ;
#94 = ORIENTED_EDGE ( 'NONE', *, *, #134, .F. ) ;
#95 = APPROVAL_ROLE ( '' ) ;
#96 = EDGE_CURVE ( 'NONE', #162, #292, #353, .T. ) ;
#97 = DIRECTION ( 'NONE',  ( 3.491481338843133355E-15, -1.276467311168695266E-16, 1.000000000000000000 ) ) ;
#98 = ORIENTED_EDGE ( 'NONE', *, *, #182, .F. ) ;
#99 = EDGE_CURVE ( 'NONE', #226, #113, #27, .T. ) ;
#100 = APPROVAL_DATE_TIME ( #52, #78 ) ;
#101 = VECTOR ( 'NONE', #332, 1000.000000000000000 ) ;
#102 = ORIENTED_EDGE ( 'NONE', *, *, #204, .T. ) ;
#103 = ORIENTED_EDGE ( 'NONE', *, *, #158, .F. ) ;
#104 = CARTESIAN_POINT ( 'NONE',  ( 1.396592535537253342E-14, -0.7500000000000003331, 4.000000000000000000 ) ) ;
#105 = VERTEX_POINT ( 'NONE', #6 ) ;
#106 = FACE_OUTER_BOUND ( 'NONE', #133, .T. ) ;
#107 = CIRCLE ( 'NONE', #159, 0.7499999999999997780 ) ;
#108 = MANIFOLD_SOLID_BREP ( 'Corps-Déplacer/Copier1[2]', #250 ) ;
#109 = CC_DESIGN_DATE_AND_TIME_ASSIGNMENT ( #125, #272, ( #299 ) ) ;
#110 = LINE ( 'NONE', #227, #24 ) ;
#111 = DIRECTION ( 'NONE',  ( -4.456761796588771413E-31, -1.000000000000000000, -1.276467311168695266E-16 ) ) ;
#112 = ADVANCED_FACE ( 'NONE', ( #82 ), #209, .T. ) ;
#113 = VERTEX_POINT ( 'NONE', #323 ) ;
#114 = CARTESIAN_POINT ( 'NONE',  ( 0.000000000000000000, 0.000000000000000000, 0.000000000000000000 ) ) ;
#115 = ORIENTED_EDGE ( 'NONE', *, *, #185, .T. ) ;
#116 = DIRECTION ( 'NONE',  ( -3.491481338843133355E-15, 1.276467311168695266E-16, -1.000000000000000000 ) ) ;
#117 = EDGE_CURVE ( 'NONE', #90, #39, #126, .T. ) ;
#118 = ORIENTED_EDGE ( 'NONE', *, *, #62, .T. ) ;
#119 = ADVANCED_FACE ( 'NONE', ( #264 ), #21, .T. ) ;
#120 = CARTESIAN_POINT ( 'NONE',  ( 1.316288464743861212E-13, -4.616918432785521081E-15, 37.69999999999999574 ) ) ;
#121 = CIRCLE ( 'NONE', #289, 1.500000000000000888 ) ;
#122 = SECURITY_CLASSIFICATION_LEVEL ( 'unclassified' ) ;
#123 = FACE_OUTER_BOUND ( 'NONE', #69, .T. ) ;
#124 = PERSON_AND_ORGANIZATION_ROLE ( 'creator' ) ;
#125 = DATE_AND_TIME ( #183, #303 ) ;
#126 = CIRCLE ( 'NONE', #295, 1.200000000000001066 ) ;
#127 = CARTESIAN_POINT ( 'NONE',  ( 1.316288464743861212E-13, 1.499999999999996447, 37.69999999999999574 ) ) ;
#128 = VERTEX_POINT ( 'NONE', #228 ) ;
#129 = DIRECTION ( 'NONE',  ( 1.000000000000000000, 0.000000000000000000, 0.000000000000000000 ) ) ;
#130 = DIRECTION ( 'NONE',  ( 0.000000000000000000, -1.000000000000000000, 0.000000000000000000 ) ) ;
#131 = EDGE_CURVE ( 'NONE', #113, #128, #219, .T. ) ;
#132 = VECTOR ( 'NONE', #26, 1000.000000000000000 ) ;
#133 = EDGE_LOOP ( 'NONE', ( #141, #115, #261, #61 ) ) ;
#134 = EDGE_CURVE ( 'NONE', #90, #226, #92, .T. ) ;
#135 = CARTESIAN_POINT ( 'NONE',  ( 9.184850993605115157E-17, 0.7499999999999997780, -8.796462202299225046E-17 ) ) ;
#136 = ADVANCED_FACE ( 'NONE', ( #123 ), #11, .F. ) ;
#137 = AXIS2_PLACEMENT_3D ( 'NONE', #120, #294, #153 ) ;
#138 = DIRECTION ( 'NONE',  ( 3.491481338843133355E-15, -1.276467311168695266E-16, 1.000000000000000000 ) ) ;
#139 =( GEOMETRIC_REPRESENTATION_CONTEXT ( 3 ) GLOBAL_UNCERTAINTY_ASSIGNED_CONTEXT ( ( #247 ) ) GLOBAL_UNIT_ASSIGNED_CONTEXT ( ( #344, #321, #176 ) ) REPRESENTATION_CONTEXT ( 'NONE', 'WORKASPACE' ) );
#140 = CARTESIAN_POINT ( 'NONE',  ( -6.413839710158237013E-31, 0.000000000000000000, -1.836996703606440502E-16 ) ) ;
#141 = ORIENTED_EDGE ( 'NONE', *, *, #308, .T. ) ;
#142 = EDGE_CURVE ( 'NONE', #29, #226, #1, .T. ) ;
#143 = ADVANCED_FACE ( 'NONE', ( #297 ), #174, .T. ) ;
#144 = ORIENTED_EDGE ( 'NONE', *, *, #117, .T. ) ;
#145 = CARTESIAN_POINT ( 'NONE',  ( 7.911785410657824128E-14, -2.892507354208672151E-15, 22.66025403784432868 ) ) ;
#146 = PLANE ( 'NONE',  #220 ) ;
#147 = DIRECTION ( 'NONE',  ( 4.275831445896958607E-31, 1.000000000000000000, 1.224646799147353207E-16 ) ) ;
#148 = CC_DESIGN_DATE_AND_TIME_ASSIGNMENT ( #238, #91, ( #346 ) ) ;
#149 = ORIENTED_EDGE ( 'NONE', *, *, #117, .F. ) ;
#150 = APPLICATION_PROTOCOL_DEFINITION ( 'international standard', 'config_control_design', 1994, #93 ) ;
#151 = CLOSED_SHELL ( 'NONE', ( #258, #5, #313, #252, #241, #136, #112, #351 ) ) ;
#152 = PERSON_AND_ORGANIZATION ( #281, #7 ) ;
#153 = DIRECTION ( 'NONE',  ( 0.000000000000000000, 1.000000000000000000, 0.000000000000000000 ) ) ;
#154 = ORIENTED_EDGE ( 'NONE', *, *, #134, .T. ) ;
#155 = CC_DESIGN_PERSON_AND_ORGANIZATION_ASSIGNMENT ( #157, #246, ( #346 ) ) ;
#156 = CARTESIAN_POINT ( 'NONE',  ( -2.365277071545212056E-30, 6.302462986968517098E-32, -6.774422779326445547E-16 ) ) ;
#157 = PERSON_AND_ORGANIZATION ( #281, #7 ) ;
#158 = EDGE_CURVE ( 'NONE', #39, #90, #187, .T. ) ;
#159 = AXIS2_PLACEMENT_3D ( 'NONE', #262, #97, #212 ) ;
#160 = DIRECTION ( 'NONE',  ( -4.456761796588768785E-31, -1.000000000000000000, -1.276467311168695266E-16 ) ) ;
#161 = VECTOR ( 'NONE', #81, 1000.000000000000000 ) ;
#162 = VERTEX_POINT ( 'NONE', #256 ) ;
#163 = CARTESIAN_POINT ( 'NONE',  ( 1.396592535537253342E-14, -5.105869244674781062E-16, 4.000000000000000000 ) ) ;
#164 = DIRECTION ( 'NONE',  ( 0.000000000000000000, 1.000000000000000000, 0.000000000000000000 ) ) ;
#165 = ORIENTED_EDGE ( 'NONE', *, *, #268, .F. ) ;
#166 = LINE ( 'NONE', #286, #132 ) ;
#167 = AXIS2_PLACEMENT_3D ( 'NONE', #163, #196, #60 ) ;
#168 = AXIS2_PLACEMENT_3D ( 'NONE', #87, #172, #10 ) ;
#169 = DIRECTION ( 'NONE',  ( 3.491481338843133355E-15, -1.276467311168695266E-16, 1.000000000000000000 ) ) ;
#170 = DIRECTION ( 'NONE',  ( -4.275831445896958607E-31, -1.000000000000000000, -1.224646799147353207E-16 ) ) ;
#171 = AXIS2_PLACEMENT_3D ( 'NONE', #244, #222, #70 ) ;
#172 = DIRECTION ( 'NONE',  ( -3.491481338843133355E-15, 1.224646799147353207E-16, -1.000000000000000000 ) ) ;
#173 = CONICAL_SURFACE ( 'NONE', #334, 1.200000000000001066, 0.7853981633974453924 ) ;
#174 = PLANE ( 'NONE',  #269 ) ;
#175 = ORIENTED_EDGE ( 'NONE', *, *, #338, .T. ) ;
#176 =( NAMED_UNIT ( * ) SI_UNIT ( $, .STERADIAN. ) SOLID_ANGLE_UNIT ( ) );
#177 = EDGE_CURVE ( 'NONE', #14, #105, #257, .T. ) ;
#178 = PRODUCT_DEFINITION_SHAPE ( 'NONE', 'NONE',  #299 ) ;
#179 = VERTEX_POINT ( 'NONE', #282 ) ;
#180 = APPROVAL_ROLE ( '' ) ;
#181 = APPROVAL_ROLE ( '' ) ;
#182 = EDGE_CURVE ( 'NONE', #179, #309, #75, .T. ) ;
#183 = CALENDAR_DATE ( 2023, 31, 3 ) ;
#184 = DIRECTION ( 'NONE',  ( -3.491481338843133355E-15, 1.224646799147353207E-16, -1.000000000000000000 ) ) ;
#185 = EDGE_CURVE ( 'NONE', #162, #113, #2, .T. ) ;
#186 = PERSON_AND_ORGANIZATION_ROLE ( 'creator' ) ;
#187 = CIRCLE ( 'NONE', #19, 1.200000000000001066 ) ;
#188 = AXIS2_PLACEMENT_3D ( 'NONE', #317, #169, #33 ) ;
#189 = EDGE_LOOP ( 'NONE', ( #360, #3, #191, #56 ) ) ;
#190 = APPROVAL ( #240, 'UNSPECIFIED' ) ;
#191 = ORIENTED_EDGE ( 'NONE', *, *, #268, .T. ) ;
#192 = APPROVAL ( #348, 'UNSPECIFIED' ) ;
#193 = CARTESIAN_POINT ( 'NONE',  ( 1.326762908760390423E-13, -4.653657836759941941E-15, 38.00000000000000000 ) ) ;
#194 = FACE_OUTER_BOUND ( 'NONE', #310, .T. ) ;
#195 = DIRECTION ( 'NONE',  ( 3.404208188709233130E-15, 0.2588190451025213501, 0.9659258262890680902 ) ) ;
#196 = DIRECTION ( 'NONE',  ( 3.491481338843133355E-15, -1.276467311168695266E-16, 1.000000000000000000 ) ) ;
#197 = FACE_OUTER_BOUND ( 'NONE', #330, .T. ) ;
#198 = VECTOR ( 'NONE', #76, 1000.000000000000000 ) ;
#199 = PLANE ( 'NONE',  #210 ) ;
#200 = ORIENTED_EDGE ( 'NONE', *, *, #307, .F. ) ;
#201 = CARTESIAN_POINT ( 'NONE',  ( -2.699534206289369605E-30, -0.7499999999999997780, -7.731773262702966626E-16 ) ) ;
#202 = DIRECTION ( 'NONE',  ( 3.491481338843133355E-15, -1.224646799147353207E-16, 1.000000000000000000 ) ) ;
#203 = AXIS2_PLACEMENT_3D ( 'NONE', #13, #89, #328 ) ;
#204 = EDGE_CURVE ( 'NONE', #292, #128, #214, .T. ) ;
#205 = APPROVAL_PERSON_ORGANIZATION ( #208, #190, #181 ) ;
#206 = EDGE_CURVE ( 'NONE', #226, #29, #121, .T. ) ;
#207 = DATE_AND_TIME ( #270, #38 ) ;
#208 = PERSON_AND_ORGANIZATION ( #281, #7 ) ;
#209 = CONICAL_SURFACE ( 'NONE', #50, 5.750000000000000000, 0.2617993877991501850 ) ;
#210 = AXIS2_PLACEMENT_3D ( 'NONE', #325, #291, #35 ) ;
#211 = APPROVAL_DATE_TIME ( #17, #192 ) ;
#212 = DIRECTION ( 'NONE',  ( 0.000000000000000000, -1.000000000000000000, 0.000000000000000000 ) ) ;
#213 = COORDINATED_UNIVERSAL_TIME_OFFSET ( 1, 0, .AHEAD. ) ;
#214 = LINE ( 'NONE', #316, #287 ) ;
#215 = ORIENTED_EDGE ( 'NONE', *, *, #206, .T. ) ;
#216 = PERSON_AND_ORGANIZATION ( #281, #7 ) ;
#217 = CC_DESIGN_PERSON_AND_ORGANIZATION_ASSIGNMENT ( #301, #44, ( #233 ) ) ;
#218 = ORIENTED_EDGE ( 'NONE', *, *, #185, .F. ) ;
#219 = CIRCLE ( 'NONE', #203, 1.499999999999998224 ) ;
#220 = AXIS2_PLACEMENT_3D ( 'NONE', #59, #267, #234 ) ;
#221 = DIRECTION ( 'NONE',  ( 3.372511997194914833E-15, -0.2588190451025215166, 0.9659258262890679791 ) ) ;
#222 = DIRECTION ( 'NONE',  ( 3.491481338843133355E-15, -1.276467311168695266E-16, 1.000000000000000000 ) ) ;
#223 = AXIS2_PLACEMENT_3D ( 'NONE', #140, #45, #53 ) ;
#224 = EDGE_CURVE ( 'NONE', #179, #105, #15, .T. ) ;
#225 = CARTESIAN_POINT ( 'NONE',  ( 2.373871466805334795E-14, -8.678749889286558226E-16, 6.799038105676637578 ) ) ;
#226 = VERTEX_POINT ( 'NONE', #127 ) ;
#227 = CARTESIAN_POINT ( 'NONE',  ( -9.756411057599815134E-31, -0.7499999999999997780, -2.794347186982961582E-16 ) ) ;
#228 = CARTESIAN_POINT ( 'NONE',  ( 7.786747759109182940E-14, -1.499999999999999112, 6.799038105676637578 ) ) ;
#229 = DIRECTION ( 'NONE',  ( 0.000000000000000000, 1.000000000000000000, 0.000000000000000000 ) ) ;
#230 = DIRECTION ( 'NONE',  ( 0.000000000000000000, 0.000000000000000000, 1.000000000000000000 ) ) ;
#231 = CARTESIAN_POINT ( 'NONE',  ( 1.836970198721021306E-16, -1.499999999999998224, -1.836970198721033878E-16 ) ) ;
#232 = FACE_OUTER_BOUND ( 'NONE', #327, .T. ) ;
#233 = PRODUCT_DEFINITION_FORMATION_WITH_SPECIFIED_SOURCE ( 'ANY', '', #326, .NOT_KNOWN. ) ;
#234 = DIRECTION ( 'NONE',  ( -4.275831445896958607E-31, -1.000000000000000000, -1.224646799147353207E-16 ) ) ;
#235 = ADVANCED_BREP_SHAPE_REPRESENTATION ( '372722', ( #357, #108, #354 ), #139 ) ;
#236 = AXIS2_PLACEMENT_3D ( 'NONE', #23, #260, #229 ) ;
#237 = ORIENTED_EDGE ( 'NONE', *, *, #177, .T. ) ;
#238 = DATE_AND_TIME ( #48, #359 ) ;
#239 = DIRECTION ( 'NONE',  ( -3.491481338843133355E-15, 1.224646799147353207E-16, -1.000000000000000000 ) ) ;
#240 = APPROVAL_STATUS ( 'not_yet_approved' ) ;
#241 = ADVANCED_FACE ( 'NONE', ( #362 ), #173, .T. ) ;
#242 = AXIS2_PLACEMENT_3D ( 'NONE', #266, #239, #147 ) ;
#243 = CC_DESIGN_APPROVAL ( #78, ( #346 ) ) ;
#244 = CARTESIAN_POINT ( 'NONE',  ( 7.911785410657824128E-14, -2.892507354208672151E-15, 22.66025403784432868 ) ) ;
#245 = EDGE_LOOP ( 'NONE', ( #41, #85, #9, #165 ) ) ;
#246 = PERSON_AND_ORGANIZATION_ROLE ( 'classification_officer' ) ;
#247 = UNCERTAINTY_MEASURE_WITH_UNIT (LENGTH_MEASURE( 1.000000000000000082E-05 ), #344, 'distance_accuracy_value', 'NONE');
#248 = CC_DESIGN_PERSON_AND_ORGANIZATION_ASSIGNMENT ( #216, #124, ( #299 ) ) ;
#249 = COORDINATED_UNIVERSAL_TIME_OFFSET ( 1, 0, .AHEAD. ) ;
#250 = CLOSED_SHELL ( 'NONE', ( #119, #143, #265, #322 ) ) ;
#251 = ORIENTED_EDGE ( 'NONE', *, *, #96, .F. ) ;
#252 = ADVANCED_FACE ( 'NONE', ( #194 ), #314, .T. ) ;
#253 = DIRECTION ( 'NONE',  ( -3.491481338843133355E-15, 1.224646799147353207E-16, -1.000000000000000000 ) ) ;
#254 = CARTESIAN_POINT ( 'NONE',  ( 0.000000000000000000, 0.000000000000000000, 0.000000000000000000 ) ) ;
#255 = DIRECTION ( 'NONE',  ( 0.000000000000000000, -1.000000000000000000, 0.000000000000000000 ) ) ;
#256 = CARTESIAN_POINT ( 'NONE',  ( 1.899009277661701615E-14, 0.7499999999999992228, 4.000000000000000000 ) ) ;
#257 = CIRCLE ( 'NONE', #63, 0.7499999999999997780 ) ;
#258 = ADVANCED_FACE ( 'NONE', ( #106 ), #37, .T. ) ;
#259 = CC_DESIGN_APPROVAL ( #190, ( #299 ) ) ;
#260 = DIRECTION ( 'NONE',  ( -3.491481338843133355E-15, 1.224646799147353207E-16, -1.000000000000000000 ) ) ;
#261 = ORIENTED_EDGE ( 'NONE', *, *, #131, .T. ) ;
#262 = CARTESIAN_POINT ( 'NONE',  ( 1.396592535537253342E-14, -5.105869244674781062E-16, 4.000000000000000000 ) ) ;
#263 = CC_DESIGN_SECURITY_CLASSIFICATION ( #346, ( #233 ) ) ;
#264 = FACE_OUTER_BOUND ( 'NONE', #245, .T. ) ;
#265 = ADVANCED_FACE ( 'NONE', ( #298 ), #356, .T. ) ;
#266 = CARTESIAN_POINT ( 'NONE',  ( 1.326762908760390423E-13, 8.998558695971084067E-33, 38.00000000000000000 ) ) ;
#267 = DIRECTION ( 'NONE',  ( 3.491481338843133355E-15, -1.224646799147353207E-16, 1.000000000000000000 ) ) ;
#268 = EDGE_CURVE ( 'NONE', #309, #14, #110, .T. ) ;
#269 = AXIS2_PLACEMENT_3D ( 'NONE', #324, #202, #170 ) ;
#270 = CALENDAR_DATE ( 2023, 31, 3 ) ;
#271 = CARTESIAN_POINT ( 'NONE',  ( 1.326762908760390423E-13, -4.653657836759941941E-15, 38.00000000000000000 ) ) ;
#272 = DATE_TIME_ROLE ( 'creation_date' ) ;
#273 = EDGE_CURVE ( 'NONE', #309, #179, #318, .T. ) ;
#274 = AXIS2_PLACEMENT_3D ( 'NONE', #57, #361, #160 ) ;
#275 = ORIENTED_EDGE ( 'NONE', *, *, #206, .F. ) ;
#276 = APPROVAL_PERSON_ORGANIZATION ( #329, #78, #180 ) ;
#277 = CALENDAR_DATE ( 2023, 31, 3 ) ;
#278 = EDGE_LOOP ( 'NONE', ( #218, #349, #102, #16 ) ) ;
#279 = DESIGN_CONTEXT ( 'detailed design', #55, 'design' ) ;
#280 = ORIENTED_EDGE ( 'NONE', *, *, #273, .F. ) ;
#281 = PERSON ( 'UNSPECIFIED', 'UNSPECIFIED', 'UNSPECIFIED', ('UNSPECIFIED'), ('UNSPECIFIED'), ('UNSPECIFIED') ) ;
#282 = CARTESIAN_POINT ( 'NONE',  ( 7.074811187622318072E-15, 0.7499999999999997780, -5.817072295950171973E-16 ) ) ;
#283 = DIRECTION ( 'NONE',  ( 0.000000000000000000, 1.000000000000000000, 0.000000000000000000 ) ) ;
#284 = DIRECTION ( 'NONE',  ( 3.491481338843133355E-15, -1.276467311168695266E-16, 1.000000000000000000 ) ) ;
#285 = CARTESIAN_POINT ( 'NONE',  ( -6.413839710158237013E-31, 0.000000000000000000, -1.836996703606440502E-16 ) ) ;
#286 = CARTESIAN_POINT ( 'NONE',  ( 1.328232484919367446E-13, -1.200000000000005507, 38.00000000000000000 ) ) ;
#287 = VECTOR ( 'NONE', #221, 1000.000000000000114 ) ;
#288 = CARTESIAN_POINT ( 'NONE',  ( 1.326762908760390423E-13, -4.653657836759941941E-15, 38.00000000000000000 ) ) ;
#289 = AXIS2_PLACEMENT_3D ( 'NONE', #336, #302, #74 ) ;
#290 = DIRECTION ( 'NONE',  ( -3.491481338843133355E-15, 1.224646799147353207E-16, -1.000000000000000000 ) ) ;
#291 = DIRECTION ( 'NONE',  ( 3.491481338843133355E-15, -1.224646799147353207E-16, 1.000000000000000000 ) ) ;
#292 = VERTEX_POINT ( 'NONE', #104 ) ;
#293 = ORIENTED_EDGE ( 'NONE', *, *, #84, .F. ) ;
#294 = DIRECTION ( 'NONE',  ( -3.491481338843133355E-15, 1.224646799147353207E-16, -1.000000000000000000 ) ) ;
#295 = AXIS2_PLACEMENT_3D ( 'NONE', #288, #28, #283 ) ;
#296 = APPLICATION_PROTOCOL_DEFINITION ( 'international standard', 'config_control_design', 1994, #55 ) ;
#297 = FACE_OUTER_BOUND ( 'NONE', #22, .T. ) ;
#298 = FACE_OUTER_BOUND ( 'NONE', #189, .T. ) ;
#299 = PRODUCT_DEFINITION ( 'UNKNOWN', '', #233, #279 ) ;
#300 = ORIENTED_EDGE ( 'NONE', *, *, #307, .T. ) ;
#301 = PERSON_AND_ORGANIZATION ( #281, #7 ) ;
#302 = DIRECTION ( 'NONE',  ( -3.491481338843133355E-15, 1.224646799147353207E-16, -1.000000000000000000 ) ) ;
#303 = LOCAL_TIME ( 9, 8, 51.00000000000000000, #213 ) ;
#304 = COORDINATED_UNIVERSAL_TIME_OFFSET ( 1, 0, .AHEAD. ) ;
#305 = ORIENTED_EDGE ( 'NONE', *, *, #131, .F. ) ;
#306 = SHAPE_DEFINITION_REPRESENTATION ( #178, #235 ) ;
#307 = EDGE_CURVE ( 'NONE', #39, #29, #166, .T. ) ;
#308 = EDGE_CURVE ( 'NONE', #292, #162, #107, .T. ) ;
#309 = VERTEX_POINT ( 'NONE', #201 ) ;
#310 = EDGE_LOOP ( 'NONE', ( #347, #341, #49, #293 ) ) ;
#311 = CALENDAR_DATE ( 2023, 31, 3 ) ;
#312 = DIRECTION ( 'NONE',  ( -4.456761796588768785E-31, -1.000000000000000000, -1.276467311168695266E-16 ) ) ;
#313 = ADVANCED_FACE ( 'NONE', ( #232 ), #80, .T. ) ;
#314 = CYLINDRICAL_SURFACE ( 'NONE', #345, 1.499999999999998224 ) ;
#315 = DIRECTION ( 'NONE',  ( 3.491481338843133355E-15, -1.276467311168695266E-16, 1.000000000000000000 ) ) ;
#316 = CARTESIAN_POINT ( 'NONE',  ( 7.911785410657824128E-14, -5.750000000000002665, 22.66025403784432868 ) ) ;
#317 = CARTESIAN_POINT ( 'NONE',  ( 1.396592535537253342E-14, -5.105869244674781062E-16, 4.000000000000000000 ) ) ;
#318 = CIRCLE ( 'NONE', #274, 0.7499999999999997780 ) ;
#319 = CARTESIAN_POINT ( 'NONE',  ( 1.326762908760390423E-13, 1.199999999999996403, 38.00000000000000000 ) ) ;
#320 = CC_DESIGN_PERSON_AND_ORGANIZATION_ASSIGNMENT ( #152, #186, ( #233 ) ) ;
#321 =( NAMED_UNIT ( * ) PLANE_ANGLE_UNIT ( ) SI_UNIT ( $, .RADIAN. ) );
#322 = ADVANCED_FACE ( 'NONE', ( #197 ), #199, .F. ) ;
#323 = CARTESIAN_POINT ( 'NONE',  ( 7.768378057121980241E-14, 1.499999999999997335, 6.799038105676637578 ) ) ;
#324 = CARTESIAN_POINT ( 'NONE',  ( 1.396592535537253342E-14, 1.124819836996389648E-32, 4.000000000000000000 ) ) ;
#325 = CARTESIAN_POINT ( 'NONE',  ( -6.413811575962160563E-31, 2.249662264968272623E-32, -1.836988645652424251E-16 ) ) ;
#326 = PRODUCT ( '372722', '372722', '', ( #355 ) ) ;
#327 = EDGE_LOOP ( 'NONE', ( #215, #118, #305, #83 ) ) ;
#328 = DIRECTION ( 'NONE',  ( -3.552713678800500929E-14, -1.000000000000000000, 0.000000000000000000 ) ) ;
#329 = PERSON_AND_ORGANIZATION ( #281, #7 ) ;
#330 = EDGE_LOOP ( 'NONE', ( #280, #98 ) ) ;
#331 = PERSON_AND_ORGANIZATION ( #281, #7 ) ;
#332 = DIRECTION ( 'NONE',  ( 3.491481338843133355E-15, -1.276467311168695266E-16, 1.000000000000000000 ) ) ;
#333 = COORDINATED_UNIVERSAL_TIME_OFFSET ( 1, 0, .AHEAD. ) ;
#334 = AXIS2_PLACEMENT_3D ( 'NONE', #193, #184, #164 ) ;
#335 = EDGE_LOOP ( 'NONE', ( #144, #300, #275, #94 ) ) ;
#336 = CARTESIAN_POINT ( 'NONE',  ( 1.316288464743861212E-13, -4.616918432785521081E-15, 37.69999999999999574 ) ) ;
#337 = AXIS2_PLACEMENT_3D ( 'NONE', #225, #116, #255 ) ;
#338 = EDGE_CURVE ( 'NONE', #105, #14, #47, .T. ) ;
#339 = FACE_OUTER_BOUND ( 'NONE', #335, .T. ) ;
#340 = CARTESIAN_POINT ( 'NONE',  ( 7.786747759109167794E-14, -1.500000000000005773, 37.69999999999999574 ) ) ;
#341 = ORIENTED_EDGE ( 'NONE', *, *, #142, .T. ) ;
#342 = FACE_OUTER_BOUND ( 'NONE', #25, .T. ) ;
#343 = CARTESIAN_POINT ( 'NONE',  ( 6.413747168845430903E-31, 1.499999999999998224, 1.836970198721027715E-16 ) ) ;
#344 =( LENGTH_UNIT ( ) NAMED_UNIT ( * ) SI_UNIT ( .MILLI., .METRE. ) );
#345 = AXIS2_PLACEMENT_3D ( 'NONE', #254, #253, #71 ) ;
#346 = SECURITY_CLASSIFICATION ( '', '', #122 ) ;
#347 = ORIENTED_EDGE ( 'NONE', *, *, #62, .F. ) ;
#348 = APPROVAL_STATUS ( 'not_yet_approved' ) ;
#349 = ORIENTED_EDGE ( 'NONE', *, *, #96, .T. ) ;
#350 = COORDINATED_UNIVERSAL_TIME_OFFSET ( 1, 0, .AHEAD. ) ;
#351 = ADVANCED_FACE ( 'NONE', ( #342 ), #146, .F. ) ;
#352 = CARTESIAN_POINT ( 'NONE',  ( 1.326762908760390423E-13, 1.199999999999996403, 38.00000000000000000 ) ) ;
#353 = CIRCLE ( 'NONE', #167, 0.7499999999999997780 ) ;
#354 = AXIS2_PLACEMENT_3D ( 'NONE', #114, #230, #129 ) ;
#355 = MECHANICAL_CONTEXT ( 'NONE', #93, 'mechanical' ) ;
#356 = CYLINDRICAL_SURFACE ( 'NONE', #223, 0.7499999999999997780 ) ;
#357 = MANIFOLD_SOLID_BREP ( 'Corps-Déplacer/Copier1[1]', #151 ) ;
#358 = CONICAL_SURFACE ( 'NONE', #236, 1.200000000000001066, 0.7853981633974453924 ) ;
#359 = LOCAL_TIME ( 9, 8, 51.00000000000000000, #304 ) ;
#360 = ORIENTED_EDGE ( 'NONE', *, *, #224, .F. ) ;
#361 = DIRECTION ( 'NONE',  ( 3.491481338843133355E-15, -1.276467311168695266E-16, 1.000000000000000000 ) ) ;
#362 = FACE_OUTER_BOUND ( 'NONE', #64, .T. ) ;
#363 = CC_DESIGN_PERSON_AND_ORGANIZATION_ASSIGNMENT ( #331, #72, ( #326 ) ) ;
ENDSEC;
END-ISO-10303-21;
