ISO-10303-21;
HEADER;
FILE_DESCRIPTION (( 'STEP AP203' ),
    '1' );
FILE_NAME ('372721.step',
    '2023-03-31T07:08:51',
    ( '' ),
    ( '' ),
    'SwSTEP 2.0',
    'SolidWorks 2022',
    '' );
FILE_SCHEMA (( 'CONFIG_CONTROL_DESIGN' ));
ENDSEC;

DATA;
#1 = MANIFOLD_SOLID_BREP ( 'Corps-Déplacer/Copier1[1]', #81 ) ;
#2 = FACE_OUTER_BOUND ( 'NONE', #168, .T. ) ;
#3 = PLANE ( 'NONE',  #272 ) ;
#4 = VERTEX_POINT ( 'NONE', #117 ) ;
#5 = EDGE_CURVE ( 'NONE', #82, #66, #88, .T. ) ;
#6 = EDGE_LOOP ( 'NONE', ( #60, #139, #87, #10 ) ) ;
#7 = DIRECTION ( 'NONE',  ( 0.000000000000000000, 1.000000000000000000, 0.000000000000000000 ) ) ;
#8 = APPROVAL_PERSON_ORGANIZATION ( #146, #162, #45 ) ;
#9 = ORIENTED_EDGE ( 'NONE', *, *, #102, .T. ) ;
#10 = ORIENTED_EDGE ( 'NONE', *, *, #102, .F. ) ;
#11 = DIRECTION ( 'NONE',  ( 0.000000000000000000, 1.000000000000000000, 0.000000000000000000 ) ) ;
#12 = CALENDAR_DATE ( 2023, 31, 3 ) ;
#13 = DIRECTION ( 'NONE',  ( 3.491481338843133355E-15, -1.276467311168695266E-16, 1.000000000000000000 ) ) ;
#14 = PERSON_AND_ORGANIZATION ( #185, #73 ) ;
#15 = ORIENTED_EDGE ( 'NONE', *, *, #131, .T. ) ;
#16 = PRODUCT_DEFINITION_SHAPE ( 'NONE', 'NONE',  #137 ) ;
#17 = AXIS2_PLACEMENT_3D ( 'NONE', #202, #13, #123 ) ;
#18 = COORDINATED_UNIVERSAL_TIME_OFFSET ( 1, 0, .AHEAD. ) ;
#19 = ORIENTED_EDGE ( 'NONE', *, *, #260, .T. ) ;
#20 = CARTESIAN_POINT ( 'NONE',  ( 1.899009277661701615E-14, 0.7499999999999992228, 4.000000000000000000 ) ) ;
#21 = ORIENTED_EDGE ( 'NONE', *, *, #271, .F. ) ;
#22 = FACE_OUTER_BOUND ( 'NONE', #70, .T. ) ;
#23 = DIRECTION ( 'NONE',  ( 3.491481338843133355E-15, -1.224646799147353207E-16, 1.000000000000000000 ) ) ;
#24 = CIRCLE ( 'NONE', #289, 1.199999999999999289 ) ;
#25 = LOCAL_TIME ( 9, 8, 51.00000000000000000, #263 ) ;
#26 = CALENDAR_DATE ( 2023, 31, 3 ) ;
#27 = ORIENTED_EDGE ( 'NONE', *, *, #67, .F. ) ;
#28 = APPLICATION_PROTOCOL_DEFINITION ( 'international standard', 'config_control_design', 1994, #136 ) ;
#29 = DIRECTION ( 'NONE',  ( -4.275831445896958607E-31, -1.000000000000000000, -1.224646799147353207E-16 ) ) ;
#30 = CIRCLE ( 'NONE', #42, 1.499999999999999112 ) ;
#31 = CC_DESIGN_SECURITY_CLASSIFICATION ( #281, ( #339 ) ) ;
#32 = CARTESIAN_POINT ( 'NONE',  ( 2.373871466805334795E-14, -8.678749889286558226E-16, 6.799038105676637578 ) ) ;
#33 = EDGE_LOOP ( 'NONE', ( #332, #19, #280, #89 ) ) ;
#34 = EDGE_LOOP ( 'NONE', ( #38, #314 ) ) ;
#35 = AXIS2_PLACEMENT_3D ( 'NONE', #346, #330, #206 ) ;
#36 = DIRECTION ( 'NONE',  ( -3.491481338843133355E-15, 1.276467311168695266E-16, -1.000000000000000000 ) ) ;
#37 = FACE_OUTER_BOUND ( 'NONE', #33, .T. ) ;
#38 = ORIENTED_EDGE ( 'NONE', *, *, #354, .F. ) ;
#39 = DIRECTION ( 'NONE',  ( -3.491481338843133355E-15, 1.224646799147353207E-16, -1.000000000000000000 ) ) ;
#40 = VERTEX_POINT ( 'NONE', #268 ) ;
#41 = VERTEX_POINT ( 'NONE', #297 ) ;
#42 = AXIS2_PLACEMENT_3D ( 'NONE', #175, #71, #11 ) ;
#43 = DIRECTION ( 'NONE',  ( -3.491481338843133355E-15, 1.224646799147353207E-16, -1.000000000000000000 ) ) ;
#44 = CYLINDRICAL_SURFACE ( 'NONE', #149, 0.7499999999999997780 ) ;
#45 = APPROVAL_ROLE ( '' ) ;
#46 = CARTESIAN_POINT ( 'NONE',  ( 6.413747168845427400E-31, 1.499999999999997335, 1.836970198721026729E-16 ) ) ;
#47 = CARTESIAN_POINT ( 'NONE',  ( 7.074811187622318072E-15, 0.7499999999999997780, -5.817072295950171973E-16 ) ) ;
#48 = CIRCLE ( 'NONE', #35, 0.7499999999999997780 ) ;
#49 =( LENGTH_UNIT ( ) NAMED_UNIT ( * ) SI_UNIT ( .MILLI., .METRE. ) );
#50 = ORIENTED_EDGE ( 'NONE', *, *, #254, .T. ) ;
#51 = CARTESIAN_POINT ( 'NONE',  ( -6.413839710158237013E-31, 0.000000000000000000, -1.836996703606440502E-16 ) ) ;
#52 = DATE_AND_TIME ( #26, #205 ) ;
#53 = DIRECTION ( 'NONE',  ( 4.275831445896958607E-31, 1.000000000000000000, 1.224646799147353207E-16 ) ) ;
#54 = CIRCLE ( 'NONE', #279, 0.7499999999999997780 ) ;
#55 = DIRECTION ( 'NONE',  ( 4.275831445896959482E-31, 1.000000000000000000, 1.224646799147353207E-16 ) ) ;
#56 = UNCERTAINTY_MEASURE_WITH_UNIT (LENGTH_MEASURE( 1.000000000000000082E-05 ), #49, 'distance_accuracy_value', 'NONE');
#57 = CIRCLE ( 'NONE', #359, 0.7499999999999997780 ) ;
#58 = COORDINATED_UNIVERSAL_TIME_OFFSET ( 1, 0, .AHEAD. ) ;
#59 = DIRECTION ( 'NONE',  ( -2.664535259100375697E-14, -1.000000000000000000, 0.000000000000000000 ) ) ;
#60 = ORIENTED_EDGE ( 'NONE', *, *, #211, .F. ) ;
#61 = ORIENTED_EDGE ( 'NONE', *, *, #122, .F. ) ;
#62 = DIRECTION ( 'NONE',  ( -2.382254525458723780E-15, -0.7071067811865453523, -0.7071067811865496822 ) ) ;
#63 = AXIS2_PLACEMENT_3D ( 'NONE', #83, #361, #163 ) ;
#64 = CARTESIAN_POINT ( 'NONE',  ( -2.699534206289369605E-30, -0.7499999999999997780, -7.731773262702966626E-16 ) ) ;
#65 = VERTEX_POINT ( 'NONE', #47 ) ;
#66 = VERTEX_POINT ( 'NONE', #326 ) ;
#67 = EDGE_CURVE ( 'NONE', #65, #66, #300, .T. ) ;
#68 = CIRCLE ( 'NONE', #124, 0.7499999999999997780 ) ;
#69 = APPROVAL_DATE_TIME ( #296, #162 ) ;
#70 = EDGE_LOOP ( 'NONE', ( #121, #285, #324, #319 ) ) ;
#71 = DIRECTION ( 'NONE',  ( -3.491481338843133355E-15, 1.224646799147353207E-16, -1.000000000000000000 ) ) ;
#72 = VERTEX_POINT ( 'NONE', #20 ) ;
#73 = ORGANIZATION ( 'UNSPECIFIED', 'UNSPECIFIED', '' ) ;
#74 = LINE ( 'NONE', #286, #210 ) ;
#75 = SECURITY_CLASSIFICATION_LEVEL ( 'unclassified' ) ;
#76 = VERTEX_POINT ( 'NONE', #95 ) ;
#77 = FACE_OUTER_BOUND ( 'NONE', #287, .T. ) ;
#78 = DIRECTION ( 'NONE',  ( 1.000000000000000000, 0.000000000000000000, 0.000000000000000000 ) ) ;
#79 = AXIS2_PLACEMENT_3D ( 'NONE', #101, #216, #97 ) ;
#80 = DIRECTION ( 'NONE',  ( -4.456761796588771413E-31, -1.000000000000000000, -1.276467311168695266E-16 ) ) ;
#81 = CLOSED_SHELL ( 'NONE', ( #323, #134, #343, #113, #277, #120, #363, #226 ) ) ;
#82 = VERTEX_POINT ( 'NONE', #179 ) ;
#83 = CARTESIAN_POINT ( 'NONE',  ( 1.047444401652940007E-13, -3.673940397442059178E-15, 30.00000000000000000 ) ) ;
#84 = CC_DESIGN_DATE_AND_TIME_ASSIGNMENT ( #52, #192, ( #281 ) ) ;
#85 = ORIENTED_EDGE ( 'NONE', *, *, #104, .T. ) ;
#86 = DIRECTION ( 'NONE',  ( 3.491481338843133355E-15, -1.224646799147353207E-16, 1.000000000000000000 ) ) ;
#87 = ORIENTED_EDGE ( 'NONE', *, *, #307, .T. ) ;
#88 = CIRCLE ( 'NONE', #17, 0.7499999999999997780 ) ;
#89 = ORIENTED_EDGE ( 'NONE', *, *, #143, .F. ) ;
#90 = ORIENTED_EDGE ( 'NONE', *, *, #91, .F. ) ;
#91 = EDGE_CURVE ( 'NONE', #41, #228, #342, .T. ) ;
#92 = EDGE_LOOP ( 'NONE', ( #114, #266 ) ) ;
#93 = AXIS2_PLACEMENT_3D ( 'NONE', #108, #284, #53 ) ;
#94 = FACE_OUTER_BOUND ( 'NONE', #116, .T. ) ;
#95 = CARTESIAN_POINT ( 'NONE',  ( 6.390155223571920763E-14, -1.500000000000002887, 29.69999999999999574 ) ) ;
#96 = PERSON_AND_ORGANIZATION ( #185, #73 ) ;
#97 = DIRECTION ( 'NONE',  ( 0.000000000000000000, -1.000000000000000000, 0.000000000000000000 ) ) ;
#98 = CARTESIAN_POINT ( 'NONE',  ( -2.365277071545212056E-30, 6.302462986968517098E-32, -6.774422779326445547E-16 ) ) ;
#99 = ADVANCED_BREP_SHAPE_REPRESENTATION ( '372721', ( #1, #250, #318 ), #107 ) ;
#100 = CALENDAR_DATE ( 2023, 31, 3 ) ;
#101 = CARTESIAN_POINT ( 'NONE',  ( 7.911785410657824128E-14, -2.892507354208672151E-15, 22.66025403784432868 ) ) ;
#102 = EDGE_CURVE ( 'NONE', #4, #40, #165, .T. ) ;
#103 = CARTESIAN_POINT ( 'NONE',  ( 1.836970198721020566E-16, -1.499999999999997335, -1.836970198721032892E-16 ) ) ;
#104 = EDGE_CURVE ( 'NONE', #65, #290, #328, .T. ) ;
#105 = APPROVAL_STATUS ( 'not_yet_approved' ) ;
#106 = AXIS2_PLACEMENT_3D ( 'NONE', #32, #36, #59 ) ;
#107 =( GEOMETRIC_REPRESENTATION_CONTEXT ( 3 ) GLOBAL_UNCERTAINTY_ASSIGNED_CONTEXT ( ( #56 ) ) GLOBAL_UNIT_ASSIGNED_CONTEXT ( ( #49, #214, #245 ) ) REPRESENTATION_CONTEXT ( 'NONE', 'WORKASPACE' ) );
#108 = CARTESIAN_POINT ( 'NONE',  ( 1.047444401652940007E-13, 8.998558695971084067E-33, 30.00000000000000000 ) ) ;
#109 = DIRECTION ( 'NONE',  ( 4.275831445896959482E-31, 1.000000000000000000, 1.224646799147353207E-16 ) ) ;
#110 = CC_DESIGN_PERSON_AND_ORGANIZATION_ASSIGNMENT ( #157, #154, ( #339 ) ) ;
#111 = CARTESIAN_POINT ( 'NONE',  ( 0.000000000000000000, 0.000000000000000000, 0.000000000000000000 ) ) ;
#112 = ORIENTED_EDGE ( 'NONE', *, *, #308, .F. ) ;
#113 = ADVANCED_FACE ( 'NONE', ( #355 ), #288, .T. ) ;
#114 = ORIENTED_EDGE ( 'NONE', *, *, #194, .F. ) ;
#115 = CARTESIAN_POINT ( 'NONE',  ( 1.396592535537253342E-14, 1.124819836996389648E-32, 4.000000000000000000 ) ) ;
#116 = EDGE_LOOP ( 'NONE', ( #27, #85, #141, #219 ) ) ;
#117 = CARTESIAN_POINT ( 'NONE',  ( 6.390155223571929598E-14, -1.499999999999998224, 6.799038105676637578 ) ) ;
#118 = CONICAL_SURFACE ( 'NONE', #225, 1.199999999999999289, 0.7853981633974453924 ) ;
#119 = DIRECTION ( 'NONE',  ( 0.000000000000000000, 1.000000000000000000, 0.000000000000000000 ) ) ;
#120 = ADVANCED_FACE ( 'NONE', ( #248 ), #171, .F. ) ;
#121 = ORIENTED_EDGE ( 'NONE', *, *, #271, .T. ) ;
#122 = EDGE_CURVE ( 'NONE', #290, #82, #74, .T. ) ;
#123 = DIRECTION ( 'NONE',  ( 0.000000000000000000, -1.000000000000000000, 0.000000000000000000 ) ) ;
#124 = AXIS2_PLACEMENT_3D ( 'NONE', #241, #220, #159 ) ;
#125 = DIRECTION ( 'NONE',  ( 0.000000000000000000, -1.000000000000000000, 0.000000000000000000 ) ) ;
#126 = DIRECTION ( 'NONE',  ( 0.000000000000000000, -1.000000000000000000, 0.000000000000000000 ) ) ;
#127 = CARTESIAN_POINT ( 'NONE',  ( 0.000000000000000000, 0.000000000000000000, 0.000000000000000000 ) ) ;
#128 = AXIS2_PLACEMENT_3D ( 'NONE', #98, #161, #275 ) ;
#129 = DIRECTION ( 'NONE',  ( 3.491481338843133355E-15, -1.276467311168695266E-16, 1.000000000000000000 ) ) ;
#130 = LINE ( 'NONE', #103, #204 ) ;
#131 = EDGE_CURVE ( 'NONE', #41, #261, #191, .T. ) ;
#132 = VECTOR ( 'NONE', #147, 1000.000000000000000 ) ;
#133 = APPROVAL_PERSON_ORGANIZATION ( #243, #153, #215 ) ;
#134 = ADVANCED_FACE ( 'NONE', ( #2 ), #247, .T. ) ;
#135 = DIRECTION ( 'NONE',  ( 3.491481338843133355E-15, -1.276467311168695266E-16, 1.000000000000000000 ) ) ;
#136 = APPLICATION_CONTEXT ( 'configuration controlled 3d designs of mechanical parts and assemblies' ) ;
#137 = PRODUCT_DEFINITION ( 'UNKNOWN', '', #339, #299 ) ;
#138 = CONICAL_SURFACE ( 'NONE', #356, 5.750000000000000000, 0.2617993877991501850 ) ;
#139 = ORIENTED_EDGE ( 'NONE', *, *, #308, .T. ) ;
#140 = FACE_OUTER_BOUND ( 'NONE', #92, .T. ) ;
#141 = ORIENTED_EDGE ( 'NONE', *, *, #122, .T. ) ;
#142 = CARTESIAN_POINT ( 'NONE',  ( 7.911785410657824128E-14, -2.892507354208672151E-15, 22.66025403784432868 ) ) ;
#143 = EDGE_CURVE ( 'NONE', #231, #4, #224, .T. ) ;
#144 = ADVANCED_FACE ( 'NONE', ( #77 ), #166, .T. ) ;
#145 = EDGE_LOOP ( 'NONE', ( #351, #270 ) ) ;
#146 = PERSON_AND_ORGANIZATION ( #185, #73 ) ;
#147 = DIRECTION ( 'NONE',  ( 3.404208188709233130E-15, 0.2588190451025213501, 0.9659258262890680902 ) ) ;
#148 = ORIENTED_EDGE ( 'NONE', *, *, #91, .T. ) ;
#149 = AXIS2_PLACEMENT_3D ( 'NONE', #178, #237, #234 ) ;
#150 = DATE_TIME_ROLE ( 'creation_date' ) ;
#151 = FACE_OUTER_BOUND ( 'NONE', #145, .T. ) ;
#152 = CARTESIAN_POINT ( 'NONE',  ( 2.373871466805334795E-14, -8.678749889286558226E-16, 6.799038105676637578 ) ) ;
#153 = APPROVAL ( #244, 'UNSPECIFIED' ) ;
#154 = PERSON_AND_ORGANIZATION_ROLE ( 'creator' ) ;
#155 = EDGE_LOOP ( 'NONE', ( #207, #258, #278, #9 ) ) ;
#156 = DIRECTION ( 'NONE',  ( -3.491481338843133355E-15, 1.224646799147353207E-16, -1.000000000000000000 ) ) ;
#157 = PERSON_AND_ORGANIZATION ( #185, #73 ) ;
#158 = CIRCLE ( 'NONE', #106, 1.499999999999997335 ) ;
#159 = DIRECTION ( 'NONE',  ( 0.000000000000000000, -1.000000000000000000, 0.000000000000000000 ) ) ;
#160 = LOCAL_TIME ( 9, 8, 51.00000000000000000, #302 ) ;
#161 = DIRECTION ( 'NONE',  ( 3.491481338843133355E-15, -1.276467311168695266E-16, 1.000000000000000000 ) ) ;
#162 = APPROVAL ( #353, 'UNSPECIFIED' ) ;
#163 = DIRECTION ( 'NONE',  ( 0.000000000000000000, 1.000000000000000000, 0.000000000000000000 ) ) ;
#164 = EDGE_CURVE ( 'NONE', #228, #76, #315, .T. ) ;
#165 = CIRCLE ( 'NONE', #199, 1.499999999999997335 ) ;
#166 = CYLINDRICAL_SURFACE ( 'NONE', #253, 0.7499999999999997780 ) ;
#167 = CIRCLE ( 'NONE', #172, 1.499999999999999112 ) ;
#168 = EDGE_LOOP ( 'NONE', ( #148, #345, #21, #170 ) ) ;
#169 = DIRECTION ( 'NONE',  ( -3.491481338843133355E-15, 1.224646799147353207E-16, -1.000000000000000000 ) ) ;
#170 = ORIENTED_EDGE ( 'NONE', *, *, #131, .F. ) ;
#171 = PLANE ( 'NONE',  #93 ) ;
#172 = AXIS2_PLACEMENT_3D ( 'NONE', #203, #156, #119 ) ;
#173 = DIRECTION ( 'NONE',  ( -3.491481338843133355E-15, 1.224646799147353207E-16, -1.000000000000000000 ) ) ;
#174 = CARTESIAN_POINT ( 'NONE',  ( 1.047444401652940007E-13, -3.673940397442059178E-15, 30.00000000000000000 ) ) ;
#175 = CARTESIAN_POINT ( 'NONE',  ( 1.036969957636410417E-13, -3.637200993467639107E-15, 29.69999999999999574 ) ) ;
#176 = DIRECTION ( 'NONE',  ( 3.491481338843133355E-15, -1.276467311168695266E-16, 1.000000000000000000 ) ) ;
#177 = APPROVAL_PERSON_ORGANIZATION ( #190, #196, #310 ) ;
#178 = CARTESIAN_POINT ( 'NONE',  ( -6.413839710158237013E-31, 0.000000000000000000, -1.836996703606440502E-16 ) ) ;
#179 = CARTESIAN_POINT ( 'NONE',  ( 1.396592535537253342E-14, -0.7500000000000003331, 4.000000000000000000 ) ) ;
#180 = ORIENTED_EDGE ( 'NONE', *, *, #5, .F. ) ;
#181 = FACE_OUTER_BOUND ( 'NONE', #344, .T. ) ;
#182 = EDGE_CURVE ( 'NONE', #40, #4, #158, .T. ) ;
#183 = PRODUCT ( '372721', '372721', '', ( #336 ) ) ;
#184 = PERSON_AND_ORGANIZATION_ROLE ( 'design_owner' ) ;
#185 = PERSON ( 'UNSPECIFIED', 'UNSPECIFIED', 'UNSPECIFIED', ('UNSPECIFIED'), ('UNSPECIFIED'), ('UNSPECIFIED') ) ;
#186 = APPROVAL_DATE_TIME ( #334, #153 ) ;
#187 = AXIS2_PLACEMENT_3D ( 'NONE', #255, #311, #362 ) ;
#188 = CYLINDRICAL_SURFACE ( 'NONE', #238, 1.499999999999997335 ) ;
#189 = ADVANCED_FACE ( 'NONE', ( #140 ), #198, .F. ) ;
#190 = PERSON_AND_ORGANIZATION ( #185, #73 ) ;
#191 = LINE ( 'NONE', #259, #347 ) ;
#192 = DATE_TIME_ROLE ( 'classification_date' ) ;
#193 = FACE_OUTER_BOUND ( 'NONE', #155, .T. ) ;
#194 = EDGE_CURVE ( 'NONE', #290, #65, #57, .T. ) ;
#195 = VECTOR ( 'NONE', #176, 1000.000000000000000 ) ;
#196 = APPROVAL ( #105, 'UNSPECIFIED' ) ;
#197 = CC_DESIGN_PERSON_AND_ORGANIZATION_ASSIGNMENT ( #96, #239, ( #339 ) ) ;
#198 = PLANE ( 'NONE',  #341 ) ;
#199 = AXIS2_PLACEMENT_3D ( 'NONE', #152, #331, #126 ) ;
#200 = DIRECTION ( 'NONE',  ( 3.491481338843133355E-15, -1.276467311168695266E-16, 1.000000000000000000 ) ) ;
#201 = CARTESIAN_POINT ( 'NONE',  ( 7.911785410657824128E-14, -5.750000000000002665, 22.66025403784432868 ) ) ;
#202 = CARTESIAN_POINT ( 'NONE',  ( 1.396592535537253342E-14, -5.105869244674781062E-16, 4.000000000000000000 ) ) ;
#203 = CARTESIAN_POINT ( 'NONE',  ( 1.036969957636410417E-13, -3.637200993467639107E-15, 29.69999999999999574 ) ) ;
#204 = VECTOR ( 'NONE', #218, 1000.000000000000000 ) ;
#205 = LOCAL_TIME ( 9, 8, 51.00000000000000000, #18 ) ;
#206 = DIRECTION ( 'NONE',  ( 0.000000000000000000, -1.000000000000000000, 0.000000000000000000 ) ) ;
#207 = ORIENTED_EDGE ( 'NONE', *, *, #260, .F. ) ;
#208 = CARTESIAN_POINT ( 'NONE',  ( 1.396592535537253342E-14, -0.7500000000000003331, 4.000000000000000000 ) ) ;
#209 = DIRECTION ( 'NONE',  ( 0.000000000000000000, 1.000000000000000000, 0.000000000000000000 ) ) ;
#210 = VECTOR ( 'NONE', #200, 1000.000000000000000 ) ;
#211 = EDGE_CURVE ( 'NONE', #76, #4, #130, .T. ) ;
#212 = LOCAL_TIME ( 9, 8, 51.00000000000000000, #249 ) ;
#213 = EDGE_CURVE ( 'NONE', #72, #231, #54, .T. ) ;
#214 =( NAMED_UNIT ( * ) PLANE_ANGLE_UNIT ( ) SI_UNIT ( $, .RADIAN. ) );
#215 = APPROVAL_ROLE ( '' ) ;
#216 = DIRECTION ( 'NONE',  ( 3.491481338843133355E-15, -1.276467311168695266E-16, 1.000000000000000000 ) ) ;
#217 = EDGE_LOOP ( 'NONE', ( #90, #233 ) ) ;
#218 = DIRECTION ( 'NONE',  ( -3.491481338843133355E-15, 1.224646799147353207E-16, -1.000000000000000000 ) ) ;
#219 = ORIENTED_EDGE ( 'NONE', *, *, #267, .F. ) ;
#220 = DIRECTION ( 'NONE',  ( 3.491481338843133355E-15, -1.276467311168695266E-16, 1.000000000000000000 ) ) ;
#221 = DIRECTION ( 'NONE',  ( 3.491481338843133355E-15, -1.276467311168695266E-16, 1.000000000000000000 ) ) ;
#222 = CC_DESIGN_PERSON_AND_ORGANIZATION_ASSIGNMENT ( #14, #273, ( #281 ) ) ;
#223 = CARTESIAN_POINT ( 'NONE',  ( -2.365277071545212056E-30, 6.302462986968517098E-32, -6.774422779326445547E-16 ) ) ;
#224 = LINE ( 'NONE', #201, #283 ) ;
#225 = AXIS2_PLACEMENT_3D ( 'NONE', #174, #39, #7 ) ;
#226 = ADVANCED_FACE ( 'NONE', ( #304 ), #340, .F. ) ;
#227 = ORIENTED_EDGE ( 'NONE', *, *, #164, .F. ) ;
#228 = VERTEX_POINT ( 'NONE', #327 ) ;
#229 = DIRECTION ( 'NONE',  ( 3.372511997194914833E-15, -0.2588190451025215166, 0.9659258262890679791 ) ) ;
#230 = ORIENTED_EDGE ( 'NONE', *, *, #67, .T. ) ;
#231 = VERTEX_POINT ( 'NONE', #208 ) ;
#232 = CARTESIAN_POINT ( 'NONE',  ( 1.036969957636410417E-13, 1.499999999999995559, 29.69999999999999574 ) ) ;
#233 = ORIENTED_EDGE ( 'NONE', *, *, #254, .F. ) ;
#234 = DIRECTION ( 'NONE',  ( -4.456761796588771413E-31, -1.000000000000000000, -1.276467311168695266E-16 ) ) ;
#235 = VECTOR ( 'NONE', #173, 1000.000000000000000 ) ;
#236 = CC_DESIGN_APPROVAL ( #196, ( #137 ) ) ;
#237 = DIRECTION ( 'NONE',  ( 3.491481338843133355E-15, -1.276467311168695266E-16, 1.000000000000000000 ) ) ;
#238 = AXIS2_PLACEMENT_3D ( 'NONE', #127, #357, #55 ) ;
#239 = PERSON_AND_ORGANIZATION_ROLE ( 'design_supplier' ) ;
#240 = LOCAL_TIME ( 9, 8, 51.00000000000000000, #58 ) ;
#241 = CARTESIAN_POINT ( 'NONE',  ( 1.396592535537253342E-14, -5.105869244674781062E-16, 4.000000000000000000 ) ) ;
#242 = CARTESIAN_POINT ( 'NONE',  ( 1.047444401652940007E-13, -3.673940397442059178E-15, 30.00000000000000000 ) ) ;
#243 = PERSON_AND_ORGANIZATION ( #185, #73 ) ;
#244 = APPROVAL_STATUS ( 'not_yet_approved' ) ;
#245 =( NAMED_UNIT ( * ) SI_UNIT ( $, .STERADIAN. ) SOLID_ANGLE_UNIT ( ) );
#246 = ADVANCED_FACE ( 'NONE', ( #94 ), #44, .T. ) ;
#247 = CONICAL_SURFACE ( 'NONE', #63, 1.199999999999999289, 0.7853981633974453924 ) ;
#248 = FACE_OUTER_BOUND ( 'NONE', #217, .T. ) ;
#249 = COORDINATED_UNIVERSAL_TIME_OFFSET ( 1, 0, .AHEAD. ) ;
#250 = MANIFOLD_SOLID_BREP ( 'Corps-Déplacer/Copier1[2]', #292 ) ;
#251 = CC_DESIGN_PERSON_AND_ORGANIZATION_ASSIGNMENT ( #252, #282, ( #137 ) ) ;
#252 = PERSON_AND_ORGANIZATION ( #185, #73 ) ;
#253 = AXIS2_PLACEMENT_3D ( 'NONE', #51, #135, #80 ) ;
#254 = EDGE_CURVE ( 'NONE', #228, #41, #24, .T. ) ;
#255 = CARTESIAN_POINT ( 'NONE',  ( 1.396592535537253342E-14, 1.124819836996389648E-32, 4.000000000000000000 ) ) ;
#256 = DATE_AND_TIME ( #306, #240 ) ;
#257 = CARTESIAN_POINT ( 'NONE',  ( -6.413803915257459741E-31, 2.249659577954773294E-32, -1.836986451539394062E-16 ) ) ;
#258 = ORIENTED_EDGE ( 'NONE', *, *, #213, .T. ) ;
#259 = CARTESIAN_POINT ( 'NONE',  ( 1.047444401652940007E-13, 1.199999999999995515, 30.00000000000000000 ) ) ;
#260 = EDGE_CURVE ( 'NONE', #72, #40, #269, .T. ) ;
#261 = VERTEX_POINT ( 'NONE', #232 ) ;
#262 = DIRECTION ( 'NONE',  ( -4.456761796588768785E-31, -1.000000000000000000, -1.276467311168695266E-16 ) ) ;
#263 = COORDINATED_UNIVERSAL_TIME_OFFSET ( 1, 0, .AHEAD. ) ;
#264 = DIRECTION ( 'NONE',  ( 3.491481338843133355E-15, -1.276467311168695266E-16, 1.000000000000000000 ) ) ;
#265 = VECTOR ( 'NONE', #62, 1000.000000000000000 ) ;
#266 = ORIENTED_EDGE ( 'NONE', *, *, #104, .F. ) ;
#267 = EDGE_CURVE ( 'NONE', #66, #82, #48, .T. ) ;
#268 = CARTESIAN_POINT ( 'NONE',  ( 6.371785521584724374E-14, 1.499999999999996669, 6.799038105676637578 ) ) ;
#269 = LINE ( 'NONE', #325, #132 ) ;
#270 = ORIENTED_EDGE ( 'NONE', *, *, #267, .T. ) ;
#271 = EDGE_CURVE ( 'NONE', #261, #76, #30, .T. ) ;
#272 = AXIS2_PLACEMENT_3D ( 'NONE', #115, #86, #316 ) ;
#273 = PERSON_AND_ORGANIZATION_ROLE ( 'classification_officer' ) ;
#274 = APPLICATION_PROTOCOL_DEFINITION ( 'international standard', 'config_control_design', 1994, #305 ) ;
#275 = DIRECTION ( 'NONE',  ( -4.456761796588768785E-31, -1.000000000000000000, -1.276467311168695266E-16 ) ) ;
#276 = SHAPE_DEFINITION_REPRESENTATION ( #16, #99 ) ;
#277 = ADVANCED_FACE ( 'NONE', ( #181 ), #118, .T. ) ;
#278 = ORIENTED_EDGE ( 'NONE', *, *, #143, .T. ) ;
#279 = AXIS2_PLACEMENT_3D ( 'NONE', #301, #221, #337 ) ;
#280 = ORIENTED_EDGE ( 'NONE', *, *, #182, .T. ) ;
#281 = SECURITY_CLASSIFICATION ( '', '', #75 ) ;
#282 = PERSON_AND_ORGANIZATION_ROLE ( 'creator' ) ;
#283 = VECTOR ( 'NONE', #229, 1000.000000000000114 ) ;
#284 = DIRECTION ( 'NONE',  ( -3.491481338843133355E-15, 1.224646799147353207E-16, -1.000000000000000000 ) ) ;
#285 = ORIENTED_EDGE ( 'NONE', *, *, #211, .T. ) ;
#286 = CARTESIAN_POINT ( 'NONE',  ( -9.756411057599815134E-31, -0.7499999999999997780, -2.794347186982961582E-16 ) ) ;
#287 = EDGE_LOOP ( 'NONE', ( #348, #230, #180, #61 ) ) ;
#288 = CYLINDRICAL_SURFACE ( 'NONE', #317, 1.499999999999997335 ) ;
#289 = AXIS2_PLACEMENT_3D ( 'NONE', #294, #349, #322 ) ;
#290 = VERTEX_POINT ( 'NONE', #64 ) ;
#291 = PRODUCT_RELATED_PRODUCT_CATEGORY ( 'detail', '', ( #183 ) ) ;
#292 = CLOSED_SHELL ( 'NONE', ( #144, #312, #246, #189 ) ) ;
#293 = CARTESIAN_POINT ( 'NONE',  ( 9.184850993605115157E-17, 0.7499999999999997780, -8.796462202299225046E-17 ) ) ;
#294 = CARTESIAN_POINT ( 'NONE',  ( 1.047444401652940007E-13, -3.673940397442059178E-15, 30.00000000000000000 ) ) ;
#295 = LINE ( 'NONE', #46, #235 ) ;
#296 = DATE_AND_TIME ( #329, #212 ) ;
#297 = CARTESIAN_POINT ( 'NONE',  ( 1.047444401652940007E-13, 1.199999999999995515, 30.00000000000000000 ) ) ;
#298 = AXIS2_PLACEMENT_3D ( 'NONE', #242, #43, #209 ) ;
#299 = DESIGN_CONTEXT ( 'detailed design', #305, 'design' ) ;
#300 = LINE ( 'NONE', #293, #195 ) ;
#301 = CARTESIAN_POINT ( 'NONE',  ( 1.396592535537253342E-14, -5.105869244674781062E-16, 4.000000000000000000 ) ) ;
#302 = COORDINATED_UNIVERSAL_TIME_OFFSET ( 1, 0, .AHEAD. ) ;
#303 = CC_DESIGN_PERSON_AND_ORGANIZATION_ASSIGNMENT ( #352, #184, ( #183 ) ) ;
#304 = FACE_OUTER_BOUND ( 'NONE', #34, .T. ) ;
#305 = APPLICATION_CONTEXT ( 'configuration controlled 3d designs of mechanical parts and assemblies' ) ;
#306 = CALENDAR_DATE ( 2023, 31, 3 ) ;
#307 = EDGE_CURVE ( 'NONE', #261, #40, #295, .T. ) ;
#308 = EDGE_CURVE ( 'NONE', #76, #261, #167, .T. ) ;
#309 = APPROVAL_DATE_TIME ( #256, #196 ) ;
#310 = APPROVAL_ROLE ( '' ) ;
#311 = DIRECTION ( 'NONE',  ( 3.491481338843133355E-15, -1.224646799147353207E-16, 1.000000000000000000 ) ) ;
#312 = ADVANCED_FACE ( 'NONE', ( #151 ), #3, .T. ) ;
#313 = CARTESIAN_POINT ( 'NONE',  ( 1.048913977811916904E-13, -1.200000000000002842, 30.00000000000000000 ) ) ;
#314 = ORIENTED_EDGE ( 'NONE', *, *, #213, .F. ) ;
#315 = LINE ( 'NONE', #313, #265 ) ;
#316 = DIRECTION ( 'NONE',  ( -4.275831445896958607E-31, -1.000000000000000000, -1.224646799147353207E-16 ) ) ;
#317 = AXIS2_PLACEMENT_3D ( 'NONE', #111, #169, #109 ) ;
#318 = AXIS2_PLACEMENT_3D ( 'NONE', #338, #333, #78 ) ;
#319 = ORIENTED_EDGE ( 'NONE', *, *, #307, .F. ) ;
#320 = CC_DESIGN_DATE_AND_TIME_ASSIGNMENT ( #321, #150, ( #137 ) ) ;
#321 = DATE_AND_TIME ( #12, #25 ) ;
#322 = DIRECTION ( 'NONE',  ( 0.000000000000000000, 1.000000000000000000, 0.000000000000000000 ) ) ;
#323 = ADVANCED_FACE ( 'NONE', ( #37 ), #138, .T. ) ;
#324 = ORIENTED_EDGE ( 'NONE', *, *, #182, .F. ) ;
#325 = CARTESIAN_POINT ( 'NONE',  ( 7.982202601608797470E-14, 5.749999999999997335, 22.66025403784432868 ) ) ;
#326 = CARTESIAN_POINT ( 'NONE',  ( 7.074811187622316494E-15, 0.7499999999999992228, 4.000000000000000000 ) ) ;
#327 = CARTESIAN_POINT ( 'NONE',  ( 1.043860452823524111E-13, -1.200000000000002842, 30.00000000000000000 ) ) ;
#328 = CIRCLE ( 'NONE', #128, 0.7499999999999997780 ) ;
#329 = CALENDAR_DATE ( 2023, 31, 3 ) ;
#330 = DIRECTION ( 'NONE',  ( 3.491481338843133355E-15, -1.276467311168695266E-16, 1.000000000000000000 ) ) ;
#331 = DIRECTION ( 'NONE',  ( -3.491481338843133355E-15, 1.276467311168695266E-16, -1.000000000000000000 ) ) ;
#332 = ORIENTED_EDGE ( 'NONE', *, *, #354, .T. ) ;
#333 = DIRECTION ( 'NONE',  ( 0.000000000000000000, 0.000000000000000000, 1.000000000000000000 ) ) ;
#334 = DATE_AND_TIME ( #100, #160 ) ;
#335 = CC_DESIGN_APPROVAL ( #162, ( #339 ) ) ;
#336 = MECHANICAL_CONTEXT ( 'NONE', #136, 'mechanical' ) ;
#337 = DIRECTION ( 'NONE',  ( 0.000000000000000000, -1.000000000000000000, 0.000000000000000000 ) ) ;
#338 = CARTESIAN_POINT ( 'NONE',  ( 0.000000000000000000, 0.000000000000000000, 0.000000000000000000 ) ) ;
#339 = PRODUCT_DEFINITION_FORMATION_WITH_SPECIFIED_SOURCE ( 'ANY', '', #183, .NOT_KNOWN. ) ;
#340 = PLANE ( 'NONE',  #187 ) ;
#341 = AXIS2_PLACEMENT_3D ( 'NONE', #257, #23, #29 ) ;
#342 = CIRCLE ( 'NONE', #298, 1.199999999999999289 ) ;
#343 = ADVANCED_FACE ( 'NONE', ( #22 ), #188, .T. ) ;
#344 = EDGE_LOOP ( 'NONE', ( #227, #50, #15, #112 ) ) ;
#345 = ORIENTED_EDGE ( 'NONE', *, *, #164, .T. ) ;
#346 = CARTESIAN_POINT ( 'NONE',  ( 1.396592535537253342E-14, -5.105869244674781062E-16, 4.000000000000000000 ) ) ;
#347 = VECTOR ( 'NONE', #358, 1000.000000000000114 ) ;
#348 = ORIENTED_EDGE ( 'NONE', *, *, #194, .T. ) ;
#349 = DIRECTION ( 'NONE',  ( -3.491481338843133355E-15, 1.224646799147353207E-16, -1.000000000000000000 ) ) ;
#350 = CONICAL_SURFACE ( 'NONE', #79, 5.750000000000000000, 0.2617993877991501850 ) ;
#351 = ORIENTED_EDGE ( 'NONE', *, *, #5, .T. ) ;
#352 = PERSON_AND_ORGANIZATION ( #185, #73 ) ;
#353 = APPROVAL_STATUS ( 'not_yet_approved' ) ;
#354 = EDGE_CURVE ( 'NONE', #231, #72, #68, .T. ) ;
#355 = FACE_OUTER_BOUND ( 'NONE', #6, .T. ) ;
#356 = AXIS2_PLACEMENT_3D ( 'NONE', #142, #264, #125 ) ;
#357 = DIRECTION ( 'NONE',  ( -3.491481338843133355E-15, 1.224646799147353207E-16, -1.000000000000000000 ) ) ;
#358 = DIRECTION ( 'NONE',  ( -2.468850131082271655E-15, 0.7071067811865455743, -0.7071067811865493491 ) ) ;
#359 = AXIS2_PLACEMENT_3D ( 'NONE', #223, #129, #262 ) ;
#360 = CC_DESIGN_APPROVAL ( #153, ( #281 ) ) ;
#361 = DIRECTION ( 'NONE',  ( -3.491481338843133355E-15, 1.224646799147353207E-16, -1.000000000000000000 ) ) ;
#362 = DIRECTION ( 'NONE',  ( -4.275831445896958607E-31, -1.000000000000000000, -1.224646799147353207E-16 ) ) ;
#363 = ADVANCED_FACE ( 'NONE', ( #193 ), #350, .T. ) ;
ENDSEC;
END-ISO-10303-21;
