ISO-10303-21;
HEADER;
FILE_DESCRIPTION (( 'STEP AP203' ),
    '1' );
FILE_NAME ('372720.step',
    '2023-03-31T07:08:50',
    ( '' ),
    ( '' ),
    'SwSTEP 2.0',
    'SolidWorks 2022',
    '' );
FILE_SCHEMA (( 'CONFIG_CONTROL_DESIGN' ));
ENDSEC;

DATA;
#1 = CIRCLE ( 'NONE', #355, 1.500000000000000888 ) ;
#2 = CARTESIAN_POINT ( 'NONE',  ( 1.711210157156467508E-14, 0.4999999999999991673, 2.999999999999999112 ) ) ;
#3 = CARTESIAN_POINT ( 'NONE',  ( 1.316288464743861212E-13, -4.616918432785521081E-15, 37.69999999999999574 ) ) ;
#4 = MANIFOLD_SOLID_BREP ( 'Corps-Déplacer/Copier1[1]', #360 ) ;
#5 = ORIENTED_EDGE ( 'NONE', *, *, #353, .F. ) ;
#6 = EDGE_CURVE ( 'NONE', #157, #60, #306, .T. ) ;
#7 = CARTESIAN_POINT ( 'NONE',  ( 1.316288464743861212E-13, 1.499999999999996447, 37.69999999999999574 ) ) ;
#8 = ORIENTED_EDGE ( 'NONE', *, *, #308, .T. ) ;
#9 =( GEOMETRIC_REPRESENTATION_CONTEXT ( 3 ) GLOBAL_UNCERTAINTY_ASSIGNED_CONTEXT ( ( #193 ) ) GLOBAL_UNIT_ASSIGNED_CONTEXT ( ( #85, #64, #143 ) ) REPRESENTATION_CONTEXT ( 'NONE', 'WORKASPACE' ) );
#10 = DIRECTION ( 'NONE',  ( 0.000000000000000000, -1.000000000000000000, 0.000000000000000000 ) ) ;
#11 = AXIS2_PLACEMENT_3D ( 'NONE', #234, #231, #81 ) ;
#12 = CARTESIAN_POINT ( 'NONE',  ( 7.562637276773508268E-14, -2.764860623091801885E-15, 21.66025403784432513 ) ) ;
#13 = EDGE_LOOP ( 'NONE', ( #324, #46 ) ) ;
#14 = VERTEX_POINT ( 'NONE', #321 ) ;
#15 = DIRECTION ( 'NONE',  ( -3.491481338843133355E-15, 1.276467311168695266E-16, -1.000000000000000000 ) ) ;
#16 = CALENDAR_DATE ( 2023, 31, 3 ) ;
#17 = DIRECTION ( 'NONE',  ( 0.000000000000000000, 1.000000000000000000, 0.000000000000000000 ) ) ;
#18 = CIRCLE ( 'NONE', #214, 1.200000000000001066 ) ;
#19 = COORDINATED_UNIVERSAL_TIME_OFFSET ( 1, 0, .AHEAD. ) ;
#20 = DIRECTION ( 'NONE',  ( 3.404208188709233130E-15, 0.2588190451025214056, 0.9659258262890680902 ) ) ;
#21 = DIRECTION ( 'NONE',  ( 0.000000000000000000, 0.000000000000000000, 1.000000000000000000 ) ) ;
#22 = ORIENTED_EDGE ( 'NONE', *, *, #119, .T. ) ;
#23 = CARTESIAN_POINT ( 'NONE',  ( 1.326762908760390423E-13, 1.199999999999996403, 38.00000000000000000 ) ) ;
#24 = DATE_AND_TIME ( #184, #56 ) ;
#25 = CARTESIAN_POINT ( 'NONE',  ( 6.413747168845430903E-31, 1.499999999999998224, 1.836970198721027715E-16 ) ) ;
#26 = APPROVAL_PERSON_ORGANIZATION ( #307, #71, #57 ) ;
#27 = CARTESIAN_POINT ( 'NONE',  ( 1.326762908760390423E-13, -4.653657836759941941E-15, 38.00000000000000000 ) ) ;
#28 = DIRECTION ( 'NONE',  ( -3.491481338843133355E-15, 1.224646799147353207E-16, -1.000000000000000000 ) ) ;
#29 = ORIENTED_EDGE ( 'NONE', *, *, #216, .F. ) ;
#30 = AXIS2_PLACEMENT_3D ( 'NONE', #154, #294, #212 ) ;
#31 = ORIENTED_EDGE ( 'NONE', *, *, #309, .T. ) ;
#32 = DIRECTION ( 'NONE',  ( 3.491481338843133355E-15, -1.276467311168695266E-16, 1.000000000000000000 ) ) ;
#33 = ORIENTED_EDGE ( 'NONE', *, *, #342, .F. ) ;
#34 = ADVANCED_BREP_SHAPE_REPRESENTATION ( '372720', ( #4, #248, #244 ), #9 ) ;
#35 = PLANE ( 'NONE',  #42 ) ;
#36 = EDGE_LOOP ( 'NONE', ( #151, #76, #39, #59 ) ) ;
#37 = DIRECTION ( 'NONE',  ( 3.491481338843133355E-15, -1.224646799147353207E-16, 1.000000000000000000 ) ) ;
#38 = DIRECTION ( 'NONE',  ( -3.491481338843133355E-15, 1.224646799147353207E-16, -1.000000000000000000 ) ) ;
#39 = ORIENTED_EDGE ( 'NONE', *, *, #144, .F. ) ;
#40 = VERTEX_POINT ( 'NONE', #65 ) ;
#41 = VECTOR ( 'NONE', #346, 1000.000000000000000 ) ;
#42 = AXIS2_PLACEMENT_3D ( 'NONE', #285, #28, #348 ) ;
#43 = DIRECTION ( 'NONE',  ( 3.491481338843133355E-15, -1.276467311168695266E-16, 1.000000000000000000 ) ) ;
#44 = FACE_OUTER_BOUND ( 'NONE', #13, .T. ) ;
#45 = DIRECTION ( 'NONE',  ( 3.491481338843133355E-15, -1.276467311168695266E-16, 1.000000000000000000 ) ) ;
#46 = ORIENTED_EDGE ( 'NONE', *, *, #6, .F. ) ;
#47 = FACE_OUTER_BOUND ( 'NONE', #196, .T. ) ;
#48 = ORIENTED_EDGE ( 'NONE', *, *, #255, .T. ) ;
#49 = VECTOR ( 'NONE', #258, 1000.000000000000000 ) ;
#50 = PERSON_AND_ORGANIZATION ( #164, #334 ) ;
#51 = CARTESIAN_POINT ( 'NONE',  ( 5.298454348222064452E-15, 0.4999999999999991673, 2.999999999999999112 ) ) ;
#52 = LINE ( 'NONE', #313, #49 ) ;
#53 = AXIS2_PLACEMENT_3D ( 'NONE', #295, #45, #327 ) ;
#54 = PERSON_AND_ORGANIZATION ( #164, #334 ) ;
#55 = APPLICATION_CONTEXT ( 'configuration controlled 3d designs of mechanical parts and assemblies' ) ;
#56 = LOCAL_TIME ( 9, 8, 50.00000000000000000, #279 ) ;
#57 = APPROVAL_ROLE ( '' ) ;
#58 = DIRECTION ( 'NONE',  ( 3.491481338843133355E-15, -1.276467311168695266E-16, 1.000000000000000000 ) ) ;
#59 = ORIENTED_EDGE ( 'NONE', *, *, #161, .F. ) ;
#60 = VERTEX_POINT ( 'NONE', #316 ) ;
#61 = ORIENTED_EDGE ( 'NONE', *, *, #92, .T. ) ;
#62 = DIRECTION ( 'NONE',  ( -4.275831445896958607E-31, -1.000000000000000000, -1.224646799147353207E-16 ) ) ;
#63 = CONICAL_SURFACE ( 'NONE', #80, 1.200000000000001066, 0.7853981633974453924 ) ;
#64 =( NAMED_UNIT ( * ) PLANE_ANGLE_UNIT ( ) SI_UNIT ( $, .RADIAN. ) );
#65 = CARTESIAN_POINT ( 'NONE',  ( 7.775053514045041899E-14, -1.499999999999999112, 6.732050807568855433 ) ) ;
#66 = ORIENTED_EDGE ( 'NONE', *, *, #161, .T. ) ;
#67 = ADVANCED_FACE ( 'NONE', ( #117 ), #35, .F. ) ;
#68 = PRODUCT ( '372720', '372720', '', ( #356 ) ) ;
#69 = DIRECTION ( 'NONE',  ( 3.491481338843133355E-15, -1.276467311168695266E-16, 1.000000000000000000 ) ) ;
#70 = DATE_TIME_ROLE ( 'creation_date' ) ;
#71 = APPROVAL ( #253, 'UNSPECIFIED' ) ;
#72 = VECTOR ( 'NONE', #206, 1000.000000000000114 ) ;
#73 = DIRECTION ( 'NONE',  ( -4.456761796588773165E-31, -1.000000000000000000, -1.276467311168694033E-16 ) ) ;
#74 = DIRECTION ( 'NONE',  ( 3.491481338843133355E-15, -1.276467311168695266E-16, 1.000000000000000000 ) ) ;
#75 = APPROVAL_DATE_TIME ( #24, #198 ) ;
#76 = ORIENTED_EDGE ( 'NONE', *, *, #342, .T. ) ;
#77 = LOCAL_TIME ( 9, 8, 50.00000000000000000, #265 ) ;
#78 = CONICAL_SURFACE ( 'NONE', #176, 1.200000000000001066, 0.7853981633974453924 ) ;
#79 = DIRECTION ( 'NONE',  ( -2.468850131082271655E-15, 0.7071067811865455743, -0.7071067811865493491 ) ) ;
#80 = AXIS2_PLACEMENT_3D ( 'NONE', #126, #296, #17 ) ;
#81 = DIRECTION ( 'NONE',  ( -4.456761796588773165E-31, -1.000000000000000000, -1.276467311168694033E-16 ) ) ;
#82 = DIRECTION ( 'NONE',  ( -3.491481338843133355E-15, 1.224646799147353207E-16, -1.000000000000000000 ) ) ;
#83 = CC_DESIGN_DATE_AND_TIME_ASSIGNMENT ( #281, #312, ( #179 ) ) ;
#84 = CARTESIAN_POINT ( 'NONE',  ( 7.562637276773508268E-14, -5.500000000000002665, 21.66025403784432513 ) ) ;
#85 =( LENGTH_UNIT ( ) NAMED_UNIT ( * ) SI_UNIT ( .MILLI., .METRE. ) );
#86 = DIRECTION ( 'NONE',  ( 3.491481338843133355E-15, -1.276467311168695266E-16, 1.000000000000000000 ) ) ;
#87 = AXIS2_PLACEMENT_3D ( 'NONE', #358, #74, #163 ) ;
#88 = EDGE_LOOP ( 'NONE', ( #205, #291, #174, #118 ) ) ;
#89 = VERTEX_POINT ( 'NONE', #287 ) ;
#90 = VERTEX_POINT ( 'NONE', #7 ) ;
#91 = EDGE_LOOP ( 'NONE', ( #232, #357, #195, #29 ) ) ;
#92 = EDGE_CURVE ( 'NONE', #14, #121, #105, .T. ) ;
#93 = EDGE_LOOP ( 'NONE', ( #343, #120 ) ) ;
#94 = CARTESIAN_POINT ( 'NONE',  ( 1.836970198721021306E-16, -1.499999999999998224, -1.836970198721033878E-16 ) ) ;
#95 = CYLINDRICAL_SURFACE ( 'NONE', #320, 1.499999999999998224 ) ;
#96 = DATE_AND_TIME ( #224, #124 ) ;
#97 = LINE ( 'NONE', #299, #283 ) ;
#98 = PERSON_AND_ORGANIZATION ( #164, #334 ) ;
#99 = ADVANCED_FACE ( 'NONE', ( #290 ), #78, .T. ) ;
#100 = CARTESIAN_POINT ( 'NONE',  ( 1.316288464743861212E-13, -4.616918432785521081E-15, 37.69999999999999574 ) ) ;
#101 = ORIENTED_EDGE ( 'NONE', *, *, #133, .F. ) ;
#102 = ADVANCED_FACE ( 'NONE', ( #268 ), #129, .T. ) ;
#103 = PERSON_AND_ORGANIZATION_ROLE ( 'classification_officer' ) ;
#104 = AXIS2_PLACEMENT_3D ( 'NONE', #221, #169, #73 ) ;
#105 = CIRCLE ( 'NONE', #11, 0.4999999999999993339 ) ;
#106 = DIRECTION ( 'NONE',  ( -3.491481338843133355E-15, 1.224646799147353207E-16, -1.000000000000000000 ) ) ;
#107 = CARTESIAN_POINT ( 'NONE',  ( 0.000000000000000000, 0.000000000000000000, 0.000000000000000000 ) ) ;
#108 = AXIS2_PLACEMENT_3D ( 'NONE', #286, #58, #130 ) ;
#109 = CC_DESIGN_PERSON_AND_ORGANIZATION_ASSIGNMENT ( #251, #352, ( #139 ) ) ;
#110 = DIRECTION ( 'NONE',  ( 0.000000000000000000, 1.000000000000000000, 0.000000000000000000 ) ) ;
#111 = APPLICATION_CONTEXT ( 'configuration controlled 3d designs of mechanical parts and assemblies' ) ;
#112 = DIRECTION ( 'NONE',  ( 0.000000000000000000, -1.000000000000000000, 0.000000000000000000 ) ) ;
#113 = CC_DESIGN_PERSON_AND_ORGANIZATION_ASSIGNMENT ( #186, #188, ( #68 ) ) ;
#114 = ORIENTED_EDGE ( 'NONE', *, *, #277, .F. ) ;
#115 = CYLINDRICAL_SURFACE ( 'NONE', #53, 0.4999999999999994449 ) ;
#116 = EDGE_LOOP ( 'NONE', ( #317, #168 ) ) ;
#117 = FACE_OUTER_BOUND ( 'NONE', #93, .T. ) ;
#118 = ORIENTED_EDGE ( 'NONE', *, *, #309, .F. ) ;
#119 = EDGE_CURVE ( 'NONE', #60, #40, #344, .T. ) ;
#120 = ORIENTED_EDGE ( 'NONE', *, *, #187, .F. ) ;
#121 = VERTEX_POINT ( 'NONE', #332 ) ;
#122 = ADVANCED_FACE ( 'NONE', ( #213 ), #63, .T. ) ;
#123 = CARTESIAN_POINT ( 'NONE',  ( 2.350482976677050504E-14, -8.593242792988461758E-16, 6.732050807568855433 ) ) ;
#124 = LOCAL_TIME ( 9, 8, 50.00000000000000000, #125 ) ;
#125 = COORDINATED_UNIVERSAL_TIME_OFFSET ( 1, 0, .AHEAD. ) ;
#126 = CARTESIAN_POINT ( 'NONE',  ( 1.326762908760390423E-13, -4.653657836759941941E-15, 38.00000000000000000 ) ) ;
#127 = APPROVAL_STATUS ( 'not_yet_approved' ) ;
#128 = AXIS2_PLACEMENT_3D ( 'NONE', #27, #288, #361 ) ;
#129 = CONICAL_SURFACE ( 'NONE', #135, 5.500000000000000000, 0.2617993877991502405 ) ;
#130 = DIRECTION ( 'NONE',  ( 0.000000000000000000, -1.000000000000000000, 0.000000000000000000 ) ) ;
#131 = PERSON_AND_ORGANIZATION ( #164, #334 ) ;
#132 = LINE ( 'NONE', #227, #289 ) ;
#133 = EDGE_CURVE ( 'NONE', #157, #249, #97, .T. ) ;
#134 = CONICAL_SURFACE ( 'NONE', #87, 5.500000000000000000, 0.2617993877991502405 ) ;
#135 = AXIS2_PLACEMENT_3D ( 'NONE', #12, #140, #112 ) ;
#136 = ADVANCED_FACE ( 'NONE', ( #328 ), #95, .T. ) ;
#137 = DIRECTION ( 'NONE',  ( 0.000000000000000000, -1.000000000000000000, 0.000000000000000000 ) ) ;
#138 = ADVANCED_FACE ( 'NONE', ( #293 ), #155, .T. ) ;
#139 = PRODUCT_DEFINITION_FORMATION_WITH_SPECIFIED_SOURCE ( 'ANY', '', #68, .NOT_KNOWN. ) ;
#140 = DIRECTION ( 'NONE',  ( 3.491481338843133355E-15, -1.276467311168695266E-16, 1.000000000000000000 ) ) ;
#141 = CARTESIAN_POINT ( 'NONE',  ( 1.047444401652939691E-14, -8.673617379884056180E-16, 2.999999999999999112 ) ) ;
#142 = EDGE_LOOP ( 'NONE', ( #101, #263, #22, #8 ) ) ;
#143 =( NAMED_UNIT ( * ) SI_UNIT ( $, .STERADIAN. ) SOLID_ANGLE_UNIT ( ) );
#144 = EDGE_CURVE ( 'NONE', #249, #40, #149, .T. ) ;
#145 = ADVANCED_FACE ( 'NONE', ( #47 ), #223, .T. ) ;
#146 = ORIENTED_EDGE ( 'NONE', *, *, #255, .F. ) ;
#147 = SHAPE_DEFINITION_REPRESENTATION ( #183, #34 ) ;
#148 = DIRECTION ( 'NONE',  ( 0.000000000000000000, 1.000000000000000000, 0.000000000000000000 ) ) ;
#149 = CIRCLE ( 'NONE', #274, 1.499999999999998224 ) ;
#150 = APPROVAL_DATE_TIME ( #323, #71 ) ;
#151 = ORIENTED_EDGE ( 'NONE', *, *, #215, .T. ) ;
#152 = AXIS2_PLACEMENT_3D ( 'NONE', #237, #86, #259 ) ;
#153 = EDGE_LOOP ( 'NONE', ( #269, #114 ) ) ;
#154 = CARTESIAN_POINT ( 'NONE',  ( -6.413811575962160563E-31, 2.249662264968272623E-32, -1.836988645652424251E-16 ) ) ;
#155 = CYLINDRICAL_SURFACE ( 'NONE', #229, 0.4999999999999994449 ) ;
#156 = CC_DESIGN_PERSON_AND_ORGANIZATION_ASSIGNMENT ( #337, #103, ( #179 ) ) ;
#157 = VERTEX_POINT ( 'NONE', #2 ) ;
#158 = CARTESIAN_POINT ( 'NONE',  ( -6.413839710158237013E-31, 0.000000000000000000, -1.836996703606440502E-16 ) ) ;
#159 = CC_DESIGN_PERSON_AND_ORGANIZATION_ASSIGNMENT ( #50, #276, ( #252 ) ) ;
#160 = LINE ( 'NONE', #23, #278 ) ;
#161 = EDGE_CURVE ( 'NONE', #90, #249, #300, .T. ) ;
#162 = CC_DESIGN_SECURITY_CLASSIFICATION ( #179, ( #139 ) ) ;
#163 = DIRECTION ( 'NONE',  ( 0.000000000000000000, -1.000000000000000000, 0.000000000000000000 ) ) ;
#164 = PERSON ( 'UNSPECIFIED', 'UNSPECIFIED', 'UNSPECIFIED', ('UNSPECIFIED'), ('UNSPECIFIED'), ('UNSPECIFIED') ) ;
#165 = LOCAL_TIME ( 9, 8, 50.00000000000000000, #19 ) ;
#166 = ORIENTED_EDGE ( 'NONE', *, *, #270, .F. ) ;
#167 = PLANE ( 'NONE',  #254 ) ;
#168 = ORIENTED_EDGE ( 'NONE', *, *, #353, .T. ) ;
#169 = DIRECTION ( 'NONE',  ( 3.491481338843133355E-15, -1.276467311168695266E-16, 1.000000000000000000 ) ) ;
#170 = AXIS2_PLACEMENT_3D ( 'NONE', #207, #15, #266 ) ;
#171 = FACE_OUTER_BOUND ( 'NONE', #153, .T. ) ;
#172 = VERTEX_POINT ( 'NONE', #204 ) ;
#173 = CARTESIAN_POINT ( 'NONE',  ( 1.047444401652939691E-14, -8.673617379884056180E-16, 2.999999999999999112 ) ) ;
#174 = ORIENTED_EDGE ( 'NONE', *, *, #216, .T. ) ;
#175 = DIRECTION ( 'NONE',  ( 4.275831445896958607E-31, 1.000000000000000000, 1.224646799147353207E-16 ) ) ;
#176 = AXIS2_PLACEMENT_3D ( 'NONE', #326, #38, #148 ) ;
#177 = ORIENTED_EDGE ( 'NONE', *, *, #133, .T. ) ;
#178 = DIRECTION ( 'NONE',  ( -3.491481338843133355E-15, 1.224646799147353207E-16, -1.000000000000000000 ) ) ;
#179 = SECURITY_CLASSIFICATION ( '', '', #305 ) ;
#180 = DIRECTION ( 'NONE',  ( -3.552713678800500929E-14, -1.000000000000000000, 0.000000000000000000 ) ) ;
#181 = FACE_OUTER_BOUND ( 'NONE', #203, .T. ) ;
#182 = EDGE_CURVE ( 'NONE', #14, #89, #132, .T. ) ;
#183 = PRODUCT_DEFINITION_SHAPE ( 'NONE', 'NONE',  #252 ) ;
#184 = CALENDAR_DATE ( 2023, 31, 3 ) ;
#185 = APPROVAL_PERSON_ORGANIZATION ( #54, #197, #217 ) ;
#186 = PERSON_AND_ORGANIZATION ( #164, #334 ) ;
#187 = EDGE_CURVE ( 'NONE', #172, #235, #18, .T. ) ;
#188 = PERSON_AND_ORGANIZATION_ROLE ( 'design_owner' ) ;
#189 = CARTESIAN_POINT ( 'NONE',  ( 7.756683812057836675E-14, 1.499999999999997335, 6.732050807568855433 ) ) ;
#190 = APPROVAL_STATUS ( 'not_yet_approved' ) ;
#191 = EDGE_CURVE ( 'NONE', #172, #211, #340, .T. ) ;
#192 = DATE_AND_TIME ( #333, #165 ) ;
#193 = UNCERTAINTY_MEASURE_WITH_UNIT (LENGTH_MEASURE( 1.000000000000000082E-05 ), #85, 'distance_accuracy_value', 'NONE');
#194 = VECTOR ( 'NONE', #260, 1000.000000000000000 ) ;
#195 = ORIENTED_EDGE ( 'NONE', *, *, #215, .F. ) ;
#196 = EDGE_LOOP ( 'NONE', ( #33, #31, #66, #349 ) ) ;
#197 = APPROVAL ( #190, 'UNSPECIFIED' ) ;
#198 = APPROVAL ( #127, 'UNSPECIFIED' ) ;
#199 = CARTESIAN_POINT ( 'NONE',  ( 1.326762908760390423E-13, 1.199999999999996403, 38.00000000000000000 ) ) ;
#200 = CIRCLE ( 'NONE', #282, 0.4999999999999995559 ) ;
#201 = DESIGN_CONTEXT ( 'detailed design', #55, 'design' ) ;
#202 = DIRECTION ( 'NONE',  ( 3.491481338843133355E-15, -1.276467311168695266E-16, 1.000000000000000000 ) ) ;
#203 = EDGE_LOOP ( 'NONE', ( #61, #48, #166, #236 ) ) ;
#204 = CARTESIAN_POINT ( 'NONE',  ( 1.323178959930974653E-13, -1.200000000000005507, 38.00000000000000000 ) ) ;
#205 = ORIENTED_EDGE ( 'NONE', *, *, #191, .F. ) ;
#206 = DIRECTION ( 'NONE',  ( 3.372511997194914833E-15, -0.2588190451025215721, 0.9659258262890679791 ) ) ;
#207 = CARTESIAN_POINT ( 'NONE',  ( 2.350482976677050504E-14, -8.593242792988461758E-16, 6.732050807568855433 ) ) ;
#208 = LOCAL_TIME ( 9, 8, 50.00000000000000000, #257 ) ;
#209 = VERTEX_POINT ( 'NONE', #51 ) ;
#210 = ORIENTED_EDGE ( 'NONE', *, *, #119, .F. ) ;
#211 = VERTEX_POINT ( 'NONE', #315 ) ;
#212 = DIRECTION ( 'NONE',  ( -4.275831445896958607E-31, -1.000000000000000000, -1.224646799147353207E-16 ) ) ;
#213 = FACE_OUTER_BOUND ( 'NONE', #91, .T. ) ;
#214 = AXIS2_PLACEMENT_3D ( 'NONE', #256, #82, #264 ) ;
#215 = EDGE_CURVE ( 'NONE', #90, #211, #1, .T. ) ;
#216 = EDGE_CURVE ( 'NONE', #235, #90, #160, .T. ) ;
#217 = APPROVAL_ROLE ( '' ) ;
#218 = CARTESIAN_POINT ( 'NONE',  ( 0.000000000000000000, 0.000000000000000000, 0.000000000000000000 ) ) ;
#219 = APPROVAL_PERSON_ORGANIZATION ( #131, #198, #302 ) ;
#220 = PERSON_AND_ORGANIZATION_ROLE ( 'design_supplier' ) ;
#221 = CARTESIAN_POINT ( 'NONE',  ( -3.215920101957309332E-30, 9.412369403235646117E-32, -9.210761249615819590E-16 ) ) ;
#222 = APPLICATION_PROTOCOL_DEFINITION ( 'international standard', 'config_control_design', 1994, #55 ) ;
#223 = CYLINDRICAL_SURFACE ( 'NONE', #239, 1.499999999999998224 ) ;
#224 = CALENDAR_DATE ( 2023, 31, 3 ) ;
#225 = CC_DESIGN_PERSON_AND_ORGANIZATION_ASSIGNMENT ( #98, #220, ( #139 ) ) ;
#226 = AXIS2_PLACEMENT_3D ( 'NONE', #173, #37, #243 ) ;
#227 = CARTESIAN_POINT ( 'NONE',  ( -8.642220608452619216E-31, -0.4999999999999994449, -2.475230359190787889E-16 ) ) ;
#228 = DIRECTION ( 'NONE',  ( -3.491481338843133355E-15, 1.224646799147353207E-16, -1.000000000000000000 ) ) ;
#229 = AXIS2_PLACEMENT_3D ( 'NONE', #158, #43, #271 ) ;
#230 = EDGE_CURVE ( 'NONE', #235, #172, #297, .T. ) ;
#231 = DIRECTION ( 'NONE',  ( 3.491481338843133355E-15, -1.276467311168695266E-16, 1.000000000000000000 ) ) ;
#232 = ORIENTED_EDGE ( 'NONE', *, *, #230, .T. ) ;
#233 = DIRECTION ( 'NONE',  ( 3.491481338843133355E-15, -1.224646799147353207E-16, 1.000000000000000000 ) ) ;
#234 = CARTESIAN_POINT ( 'NONE',  ( -3.215920101957309332E-30, 9.412369403235646117E-32, -9.210761249615819590E-16 ) ) ;
#235 = VERTEX_POINT ( 'NONE', #199 ) ;
#236 = ORIENTED_EDGE ( 'NONE', *, *, #182, .F. ) ;
#237 = CARTESIAN_POINT ( 'NONE',  ( 1.047444401652939691E-14, -3.829401933506084810E-16, 2.999999999999999112 ) ) ;
#238 = PLANE ( 'NONE',  #30 ) ;
#239 = AXIS2_PLACEMENT_3D ( 'NONE', #107, #106, #362 ) ;
#240 = CLOSED_SHELL ( 'NONE', ( #363, #273, #138, #314 ) ) ;
#241 = EDGE_LOOP ( 'NONE', ( #310, #177, #280, #210 ) ) ;
#242 = EDGE_LOOP ( 'NONE', ( #146, #339, #345, #5 ) ) ;
#243 = DIRECTION ( 'NONE',  ( -4.275831445896958607E-31, -1.000000000000000000, -1.224646799147353207E-16 ) ) ;
#244 = AXIS2_PLACEMENT_3D ( 'NONE', #218, #21, #245 ) ;
#245 = DIRECTION ( 'NONE',  ( 1.000000000000000000, 0.000000000000000000, 0.000000000000000000 ) ) ;
#246 = DIRECTION ( 'NONE',  ( -3.491481338843133355E-15, 1.224646799147353207E-16, -1.000000000000000000 ) ) ;
#247 = CIRCLE ( 'NONE', #267, 0.4999999999999995559 ) ;
#248 = MANIFOLD_SOLID_BREP ( 'Corps-Déplacer/Copier1[2]', #240 ) ;
#249 = VERTEX_POINT ( 'NONE', #189 ) ;
#250 = FACE_OUTER_BOUND ( 'NONE', #116, .T. ) ;
#251 = PERSON_AND_ORGANIZATION ( #164, #334 ) ;
#252 = PRODUCT_DEFINITION ( 'UNKNOWN', '', #139, #201 ) ;
#253 = APPROVAL_STATUS ( 'not_yet_approved' ) ;
#254 = AXIS2_PLACEMENT_3D ( 'NONE', #141, #233, #62 ) ;
#255 = EDGE_CURVE ( 'NONE', #121, #209, #52, .T. ) ;
#256 = CARTESIAN_POINT ( 'NONE',  ( 1.326762908760390423E-13, -4.653657836759941941E-15, 38.00000000000000000 ) ) ;
#257 = COORDINATED_UNIVERSAL_TIME_OFFSET ( 1, 0, .AHEAD. ) ;
#258 = DIRECTION ( 'NONE',  ( 3.491481338843133355E-15, -1.276467311168695266E-16, 1.000000000000000000 ) ) ;
#259 = DIRECTION ( 'NONE',  ( 0.000000000000000000, -1.000000000000000000, 0.000000000000000000 ) ) ;
#260 = DIRECTION ( 'NONE',  ( -2.382254525458723780E-15, -0.7071067811865453523, -0.7071067811865496822 ) ) ;
#261 = CIRCLE ( 'NONE', #108, 0.4999999999999995559 ) ;
#262 = EDGE_CURVE ( 'NONE', #60, #157, #261, .T. ) ;
#263 = ORIENTED_EDGE ( 'NONE', *, *, #6, .T. ) ;
#264 = DIRECTION ( 'NONE',  ( 0.000000000000000000, 1.000000000000000000, 0.000000000000000000 ) ) ;
#265 = COORDINATED_UNIVERSAL_TIME_OFFSET ( 1, 0, .AHEAD. ) ;
#266 = DIRECTION ( 'NONE',  ( 0.000000000000000000, -1.000000000000000000, 0.000000000000000000 ) ) ;
#267 = AXIS2_PLACEMENT_3D ( 'NONE', #331, #69, #10 ) ;
#268 = FACE_OUTER_BOUND ( 'NONE', #142, .T. ) ;
#269 = ORIENTED_EDGE ( 'NONE', *, *, #92, .F. ) ;
#270 = EDGE_CURVE ( 'NONE', #89, #209, #200, .T. ) ;
#271 = DIRECTION ( 'NONE',  ( -4.456761796588768785E-31, -1.000000000000000000, -1.276467311168695759E-16 ) ) ;
#272 = PLANE ( 'NONE',  #226 ) ;
#273 = ADVANCED_FACE ( 'NONE', ( #250 ), #167, .T. ) ;
#274 = AXIS2_PLACEMENT_3D ( 'NONE', #123, #275, #180 ) ;
#275 = DIRECTION ( 'NONE',  ( -3.491481338843133355E-15, 1.276467311168695266E-16, -1.000000000000000000 ) ) ;
#276 = PERSON_AND_ORGANIZATION_ROLE ( 'creator' ) ;
#277 = EDGE_CURVE ( 'NONE', #121, #14, #359, .T. ) ;
#278 = VECTOR ( 'NONE', #79, 1000.000000000000114 ) ;
#279 = COORDINATED_UNIVERSAL_TIME_OFFSET ( 1, 0, .AHEAD. ) ;
#280 = ORIENTED_EDGE ( 'NONE', *, *, #144, .T. ) ;
#281 = DATE_AND_TIME ( #311, #208 ) ;
#282 = AXIS2_PLACEMENT_3D ( 'NONE', #318, #32, #137 ) ;
#283 = VECTOR ( 'NONE', #20, 1000.000000000000000 ) ;
#284 = DIRECTION ( 'NONE',  ( -3.491481338843133355E-15, 1.224646799147353207E-16, -1.000000000000000000 ) ) ;
#285 = CARTESIAN_POINT ( 'NONE',  ( 1.326762908760390423E-13, 8.998558695971084067E-33, 38.00000000000000000 ) ) ;
#286 = CARTESIAN_POINT ( 'NONE',  ( 1.047444401652939691E-14, -3.829401933506084810E-16, 2.999999999999999112 ) ) ;
#287 = CARTESIAN_POINT ( 'NONE',  ( 1.047444401652939691E-14, -0.5000000000000000000, 2.999999999999999112 ) ) ;
#288 = DIRECTION ( 'NONE',  ( -3.491481338843133355E-15, 1.224646799147353207E-16, -1.000000000000000000 ) ) ;
#289 = VECTOR ( 'NONE', #202, 1000.000000000000000 ) ;
#290 = FACE_OUTER_BOUND ( 'NONE', #88, .T. ) ;
#291 = ORIENTED_EDGE ( 'NONE', *, *, #187, .T. ) ;
#292 = VECTOR ( 'NONE', #228, 1000.000000000000000 ) ;
#293 = FACE_OUTER_BOUND ( 'NONE', #242, .T. ) ;
#294 = DIRECTION ( 'NONE',  ( 3.491481338843133355E-15, -1.224646799147353207E-16, 1.000000000000000000 ) ) ;
#295 = CARTESIAN_POINT ( 'NONE',  ( -6.413839710158237013E-31, 0.000000000000000000, -1.836996703606440502E-16 ) ) ;
#296 = DIRECTION ( 'NONE',  ( -3.491481338843133355E-15, 1.224646799147353207E-16, -1.000000000000000000 ) ) ;
#297 = CIRCLE ( 'NONE', #128, 1.200000000000001066 ) ;
#298 = APPROVAL_DATE_TIME ( #96, #197 ) ;
#299 = CARTESIAN_POINT ( 'NONE',  ( 7.629992850726613862E-14, 5.499999999999997335, 21.66025403784432513 ) ) ;
#300 = LINE ( 'NONE', #25, #292 ) ;
#301 = ADVANCED_FACE ( 'NONE', ( #336 ), #134, .T. ) ;
#302 = APPROVAL_ROLE ( '' ) ;
#303 = CARTESIAN_POINT ( 'NONE',  ( 1.328232484919367446E-13, -1.200000000000005507, 38.00000000000000000 ) ) ;
#304 = CIRCLE ( 'NONE', #347, 1.500000000000000888 ) ;
#305 = SECURITY_CLASSIFICATION_LEVEL ( 'unclassified' ) ;
#306 = CIRCLE ( 'NONE', #152, 0.4999999999999995559 ) ;
#307 = PERSON_AND_ORGANIZATION ( #164, #334 ) ;
#308 = EDGE_CURVE ( 'NONE', #40, #249, #330, .T. ) ;
#309 = EDGE_CURVE ( 'NONE', #211, #90, #304, .T. ) ;
#310 = ORIENTED_EDGE ( 'NONE', *, *, #262, .T. ) ;
#311 = CALENDAR_DATE ( 2023, 31, 3 ) ;
#312 = DATE_TIME_ROLE ( 'classification_date' ) ;
#313 = CARTESIAN_POINT ( 'NONE',  ( 6.123233995736717965E-17, 0.4999999999999994449, -1.198763048022095828E-16 ) ) ;
#314 = ADVANCED_FACE ( 'NONE', ( #171 ), #238, .F. ) ;
#315 = CARTESIAN_POINT ( 'NONE',  ( 7.775053514045025490E-14, -1.500000000000005773, 37.69999999999999574 ) ) ;
#316 = CARTESIAN_POINT ( 'NONE',  ( 1.047444401652939691E-14, -0.5000000000000000000, 2.999999999999999112 ) ) ;
#317 = ORIENTED_EDGE ( 'NONE', *, *, #270, .T. ) ;
#318 = CARTESIAN_POINT ( 'NONE',  ( 1.047444401652939691E-14, -3.829401933506084810E-16, 2.999999999999999112 ) ) ;
#319 = PRODUCT_RELATED_PRODUCT_CATEGORY ( 'detail', '', ( #68 ) ) ;
#320 = AXIS2_PLACEMENT_3D ( 'NONE', #354, #246, #175 ) ;
#321 = CARTESIAN_POINT ( 'NONE',  ( -3.438758191786747465E-30, -0.4999999999999993339, -9.848994905200165004E-16 ) ) ;
#322 = CC_DESIGN_DATE_AND_TIME_ASSIGNMENT ( #192, #70, ( #252 ) ) ;
#323 = DATE_AND_TIME ( #16, #77 ) ;
#324 = ORIENTED_EDGE ( 'NONE', *, *, #262, .F. ) ;
#325 = ADVANCED_FACE ( 'NONE', ( #44 ), #272, .F. ) ;
#326 = CARTESIAN_POINT ( 'NONE',  ( 1.326762908760390423E-13, -4.653657836759941941E-15, 38.00000000000000000 ) ) ;
#327 = DIRECTION ( 'NONE',  ( -4.456761796588768785E-31, -1.000000000000000000, -1.276467311168695759E-16 ) ) ;
#328 = FACE_OUTER_BOUND ( 'NONE', #36, .T. ) ;
#329 = DIRECTION ( 'NONE',  ( 0.000000000000000000, 1.000000000000000000, 0.000000000000000000 ) ) ;
#330 = CIRCLE ( 'NONE', #170, 1.499999999999998224 ) ;
#331 = CARTESIAN_POINT ( 'NONE',  ( 1.047444401652939691E-14, -3.829401933506084810E-16, 2.999999999999999112 ) ) ;
#332 = CARTESIAN_POINT ( 'NONE',  ( 5.298454348222066818E-15, 0.4999999999999993339, -8.572527594031657586E-16 ) ) ;
#333 = CALENDAR_DATE ( 2023, 31, 3 ) ;
#334 = ORGANIZATION ( 'UNSPECIFIED', 'UNSPECIFIED', '' ) ;
#335 = APPLICATION_PROTOCOL_DEFINITION ( 'international standard', 'config_control_design', 1994, #111 ) ;
#336 = FACE_OUTER_BOUND ( 'NONE', #241, .T. ) ;
#337 = PERSON_AND_ORGANIZATION ( #164, #334 ) ;
#338 = CC_DESIGN_APPROVAL ( #71, ( #179 ) ) ;
#339 = ORIENTED_EDGE ( 'NONE', *, *, #277, .T. ) ;
#340 = LINE ( 'NONE', #303, #194 ) ;
#341 = CC_DESIGN_APPROVAL ( #197, ( #252 ) ) ;
#342 = EDGE_CURVE ( 'NONE', #211, #40, #350, .T. ) ;
#343 = ORIENTED_EDGE ( 'NONE', *, *, #230, .F. ) ;
#344 = LINE ( 'NONE', #84, #72 ) ;
#345 = ORIENTED_EDGE ( 'NONE', *, *, #182, .T. ) ;
#346 = DIRECTION ( 'NONE',  ( -3.491481338843133355E-15, 1.224646799147353207E-16, -1.000000000000000000 ) ) ;
#347 = AXIS2_PLACEMENT_3D ( 'NONE', #3, #178, #329 ) ;
#348 = DIRECTION ( 'NONE',  ( 4.275831445896958607E-31, 1.000000000000000000, 1.224646799147353207E-16 ) ) ;
#349 = ORIENTED_EDGE ( 'NONE', *, *, #308, .F. ) ;
#350 = LINE ( 'NONE', #94, #41 ) ;
#351 = CC_DESIGN_APPROVAL ( #198, ( #139 ) ) ;
#352 = PERSON_AND_ORGANIZATION_ROLE ( 'creator' ) ;
#353 = EDGE_CURVE ( 'NONE', #209, #89, #247, .T. ) ;
#354 = CARTESIAN_POINT ( 'NONE',  ( 0.000000000000000000, 0.000000000000000000, 0.000000000000000000 ) ) ;
#355 = AXIS2_PLACEMENT_3D ( 'NONE', #100, #284, #110 ) ;
#356 = MECHANICAL_CONTEXT ( 'NONE', #111, 'mechanical' ) ;
#357 = ORIENTED_EDGE ( 'NONE', *, *, #191, .T. ) ;
#358 = CARTESIAN_POINT ( 'NONE',  ( 7.562637276773508268E-14, -2.764860623091801885E-15, 21.66025403784432513 ) ) ;
#359 = CIRCLE ( 'NONE', #104, 0.4999999999999993339 ) ;
#360 = CLOSED_SHELL ( 'NONE', ( #301, #122, #136, #145, #99, #67, #102, #325 ) ) ;
#361 = DIRECTION ( 'NONE',  ( 0.000000000000000000, 1.000000000000000000, 0.000000000000000000 ) ) ;
#362 = DIRECTION ( 'NONE',  ( 4.275831445896958607E-31, 1.000000000000000000, 1.224646799147353207E-16 ) ) ;
#363 = ADVANCED_FACE ( 'NONE', ( #181 ), #115, .T. ) ;
ENDSEC;
END-ISO-10303-21;
