ISO-10303-21;
HEADER;
FILE_DESCRIPTION (( 'STEP AP203' ),
    '1' );
FILE_NAME ('372719.step',
    '2023-03-31T07:08:50',
    ( '' ),
    ( '' ),
    'SwSTEP 2.0',
    'SolidWorks 2022',
    '' );
FILE_SCHEMA (( 'CONFIG_CONTROL_DESIGN' ));
ENDSEC;

DATA;
#1 = MECHANICAL_CONTEXT ( 'NONE', #122, 'mechanical' ) ;
#2 = ORIENTED_EDGE ( 'NONE', *, *, #139, .T. ) ;
#3 = DIRECTION ( 'NONE',  ( 3.491481338843133355E-15, -1.276467311168695266E-16, 1.000000000000000000 ) ) ;
#4 = ADVANCED_FACE ( 'NONE', ( #137 ), #249, .T. ) ;
#5 = FACE_OUTER_BOUND ( 'NONE', #87, .T. ) ;
#6 = ORIENTED_EDGE ( 'NONE', *, *, #291, .F. ) ;
#7 = DIRECTION ( 'NONE',  ( -3.491481338843133355E-15, 1.224646799147353207E-16, -1.000000000000000000 ) ) ;
#8 = DIRECTION ( 'NONE',  ( -2.468850131082257849E-15, 0.7071067811865496822, -0.7071067811865453523 ) ) ;
#9 = ORIENTED_EDGE ( 'NONE', *, *, #163, .T. ) ;
#10 = AXIS2_PLACEMENT_3D ( 'NONE', #26, #325, #24 ) ;
#11 = LINE ( 'NONE', #345, #342 ) ;
#12 = LINE ( 'NONE', #46, #223 ) ;
#13 = APPROVAL_DATE_TIME ( #290, #302 ) ;
#14 = ORIENTED_EDGE ( 'NONE', *, *, #291, .T. ) ;
#15 = CARTESIAN_POINT ( 'NONE',  ( 6.123233995736717965E-17, 0.4999999999999994449, -1.198763048022095828E-16 ) ) ;
#16 = DIRECTION ( 'NONE',  ( 3.491481338843133355E-15, -1.224646799147353207E-16, 1.000000000000000000 ) ) ;
#17 = CARTESIAN_POINT ( 'NONE',  ( 1.043860452823524237E-13, -1.200000000000003064, 30.00000000000000000 ) ) ;
#18 = CC_DESIGN_APPROVAL ( #180, ( #326 ) ) ;
#19 = VERTEX_POINT ( 'NONE', #55 ) ;
#20 = DIRECTION ( 'NONE',  ( -4.456761796588768785E-31, -1.000000000000000000, -1.276467311168695759E-16 ) ) ;
#21 = PERSON_AND_ORGANIZATION_ROLE ( 'design_supplier' ) ;
#22 = CC_DESIGN_APPROVAL ( #241, ( #56 ) ) ;
#23 = CIRCLE ( 'NONE', #57, 1.199999999999999512 ) ;
#24 = DIRECTION ( 'NONE',  ( -2.664535259100375697E-14, -1.000000000000000000, 0.000000000000000000 ) ) ;
#25 = APPROVAL_ROLE ( '' ) ;
#26 = CARTESIAN_POINT ( 'NONE',  ( 2.350482976677050504E-14, -8.593242792988461758E-16, 6.732050807568855433 ) ) ;
#27 = DIRECTION ( 'NONE',  ( 0.000000000000000000, 1.000000000000000000, 0.000000000000000000 ) ) ;
#28 = AXIS2_PLACEMENT_3D ( 'NONE', #284, #252, #292 ) ;
#29 = ORIENTED_EDGE ( 'NONE', *, *, #298, .F. ) ;
#30 = CARTESIAN_POINT ( 'NONE',  ( 1.047444401652939691E-14, -3.829401933506084810E-16, 2.999999999999999112 ) ) ;
#31 = ORIENTED_EDGE ( 'NONE', *, *, #123, .F. ) ;
#32 = DATE_TIME_ROLE ( 'classification_date' ) ;
#33 = DIRECTION ( 'NONE',  ( -3.491481338843133355E-15, 1.224646799147353207E-16, -1.000000000000000000 ) ) ;
#34 = VECTOR ( 'NONE', #294, 1000.000000000000114 ) ;
#35 = COORDINATED_UNIVERSAL_TIME_OFFSET ( 1, 0, .AHEAD. ) ;
#36 = EDGE_CURVE ( 'NONE', #62, #19, #23, .T. ) ;
#37 = APPLICATION_CONTEXT ( 'configuration controlled 3d designs of mechanical parts and assemblies' ) ;
#38 = CARTESIAN_POINT ( 'NONE',  ( 1.047444401652940007E-13, 1.199999999999995737, 30.00000000000000000 ) ) ;
#39 = ORIENTED_EDGE ( 'NONE', *, *, #139, .F. ) ;
#40 = DIRECTION ( 'NONE',  ( -3.491481338843133355E-15, 1.224646799147353207E-16, -1.000000000000000000 ) ) ;
#41 = DIRECTION ( 'NONE',  ( 0.000000000000000000, 1.000000000000000000, 0.000000000000000000 ) ) ;
#42 = AXIS2_PLACEMENT_3D ( 'NONE', #339, #194, #257 ) ;
#43 = AXIS2_PLACEMENT_3D ( 'NONE', #82, #179, #88 ) ;
#44 = CARTESIAN_POINT ( 'NONE',  ( 6.360091276520583333E-14, 1.499999999999996891, 6.732050807568855433 ) ) ;
#45 = EDGE_LOOP ( 'NONE', ( #31, #200, #262, #84 ) ) ;
#46 = CARTESIAN_POINT ( 'NONE',  ( 6.413747168845428276E-31, 1.499999999999997558, 1.836970198721026976E-16 ) ) ;
#47 = EDGE_CURVE ( 'NONE', #253, #77, #238, .T. ) ;
#48 = FACE_OUTER_BOUND ( 'NONE', #138, .T. ) ;
#49 = AXIS2_PLACEMENT_3D ( 'NONE', #320, #16, #128 ) ;
#50 = CALENDAR_DATE ( 2023, 31, 3 ) ;
#51 = APPLICATION_PROTOCOL_DEFINITION ( 'international standard', 'config_control_design', 1994, #122 ) ;
#52 = AXIS2_PLACEMENT_3D ( 'NONE', #83, #3, #246 ) ;
#53 = VERTEX_POINT ( 'NONE', #259 ) ;
#54 = VERTEX_POINT ( 'NONE', #347 ) ;
#55 = CARTESIAN_POINT ( 'NONE',  ( 1.047444401652940007E-13, 1.199999999999995737, 30.00000000000000000 ) ) ;
#56 = PRODUCT_DEFINITION_FORMATION_WITH_SPECIFIED_SOURCE ( 'ANY', '', #229, .NOT_KNOWN. ) ;
#57 = AXIS2_PLACEMENT_3D ( 'NONE', #103, #58, #105 ) ;
#58 = DIRECTION ( 'NONE',  ( -3.491481338843133355E-15, 1.224646799147353207E-16, -1.000000000000000000 ) ) ;
#59 = DIRECTION ( 'NONE',  ( -3.491481338843133355E-15, 1.276467311168695266E-16, -1.000000000000000000 ) ) ;
#60 = PERSON_AND_ORGANIZATION ( #112, #170 ) ;
#61 = FACE_OUTER_BOUND ( 'NONE', #277, .T. ) ;
#62 = VERTEX_POINT ( 'NONE', #17 ) ;
#63 = LINE ( 'NONE', #15, #161 ) ;
#64 = LINE ( 'NONE', #38, #255 ) ;
#65 = ORIENTED_EDGE ( 'NONE', *, *, #298, .T. ) ;
#66 = DIRECTION ( 'NONE',  ( 3.404208188709233130E-15, 0.2588190451025214056, 0.9659258262890680902 ) ) ;
#67 = CC_DESIGN_DATE_AND_TIME_ASSIGNMENT ( #104, #32, ( #287 ) ) ;
#68 = DIRECTION ( 'NONE',  ( 3.491481338843133355E-15, -1.276467311168695266E-16, 1.000000000000000000 ) ) ;
#69 = CLOSED_SHELL ( 'NONE', ( #316, #301, #213, #352 ) ) ;
#70 = ORIENTED_EDGE ( 'NONE', *, *, #341, .F. ) ;
#71 = CARTESIAN_POINT ( 'NONE',  ( -3.438758191786747465E-30, -0.4999999999999993339, -9.848994905200165004E-16 ) ) ;
#72 = AXIS2_PLACEMENT_3D ( 'NONE', #351, #268, #158 ) ;
#73 = VECTOR ( 'NONE', #276, 1000.000000000000114 ) ;
#74 = DIRECTION ( 'NONE',  ( -3.491481338843133355E-15, 1.224646799147353207E-16, -1.000000000000000000 ) ) ;
#75 = SECURITY_CLASSIFICATION_LEVEL ( 'unclassified' ) ;
#76 = APPROVAL_PERSON_ORGANIZATION ( #162, #241, #25 ) ;
#77 = VERTEX_POINT ( 'NONE', #44 ) ;
#78 = EDGE_CURVE ( 'NONE', #181, #53, #271, .T. ) ;
#79 = DIRECTION ( 'NONE',  ( 0.000000000000000000, 1.000000000000000000, 0.000000000000000000 ) ) ;
#80 = COORDINATED_UNIVERSAL_TIME_OFFSET ( 1, 0, .AHEAD. ) ;
#81 = DIRECTION ( 'NONE',  ( 3.491481338843133355E-15, -1.276467311168695266E-16, 1.000000000000000000 ) ) ;
#82 = CARTESIAN_POINT ( 'NONE',  ( 7.562637276773508268E-14, -2.764860623091801885E-15, 21.66025403784432513 ) ) ;
#83 = CARTESIAN_POINT ( 'NONE',  ( 1.047444401652939691E-14, -3.829401933506084810E-16, 2.999999999999999112 ) ) ;
#84 = ORIENTED_EDGE ( 'NONE', *, *, #226, .F. ) ;
#85 = AXIS2_PLACEMENT_3D ( 'NONE', #211, #59, #168 ) ;
#86 = FACE_OUTER_BOUND ( 'NONE', #101, .T. ) ;
#87 = EDGE_LOOP ( 'NONE', ( #70, #318, #169, #360 ) ) ;
#88 = DIRECTION ( 'NONE',  ( 0.000000000000000000, -1.000000000000000000, 0.000000000000000000 ) ) ;
#89 = ADVANCED_FACE ( 'NONE', ( #319 ), #348, .T. ) ;
#90 = PRODUCT_DEFINITION_SHAPE ( 'NONE', 'NONE',  #326 ) ;
#91 = EDGE_CURVE ( 'NONE', #181, #77, #254, .T. ) ;
#92 = EDGE_LOOP ( 'NONE', ( #14, #144, #225, #282 ) ) ;
#93 = CARTESIAN_POINT ( 'NONE',  ( -6.413839710158237013E-31, 0.000000000000000000, -1.836996703606440502E-16 ) ) ;
#94 = LOCAL_TIME ( 9, 8, 50.00000000000000000, #236 ) ;
#95 = EDGE_CURVE ( 'NONE', #117, #150, #235, .T. ) ;
#96 = APPLICATION_PROTOCOL_DEFINITION ( 'international standard', 'config_control_design', 1994, #37 ) ;
#97 = FACE_OUTER_BOUND ( 'NONE', #332, .T. ) ;
#98 = CC_DESIGN_PERSON_AND_ORGANIZATION_ASSIGNMENT ( #186, #329, ( #229 ) ) ;
#99 = EDGE_CURVE ( 'NONE', #54, #77, #12, .T. ) ;
#100 = CARTESIAN_POINT ( 'NONE',  ( 1.047444401652940007E-13, -3.673940397442059178E-15, 30.00000000000000000 ) ) ;
#101 = EDGE_LOOP ( 'NONE', ( #190, #65, #39, #220 ) ) ;
#102 = DIRECTION ( 'NONE',  ( 3.491481338843133355E-15, -1.276467311168695266E-16, 1.000000000000000000 ) ) ;
#103 = CARTESIAN_POINT ( 'NONE',  ( 1.047444401652940007E-13, -3.673940397442059178E-15, 30.00000000000000000 ) ) ;
#104 = DATE_AND_TIME ( #245, #94 ) ;
#105 = DIRECTION ( 'NONE',  ( 0.000000000000000000, 1.000000000000000000, 0.000000000000000000 ) ) ;
#106 = APPROVAL_STATUS ( 'not_yet_approved' ) ;
#107 = CC_DESIGN_APPROVAL ( #302, ( #287 ) ) ;
#108 = APPROVAL_DATE_TIME ( #363, #180 ) ;
#109 = DIRECTION ( 'NONE',  ( 3.491481338843133355E-15, -1.224646799147353207E-16, 1.000000000000000000 ) ) ;
#110 = CC_DESIGN_PERSON_AND_ORGANIZATION_ASSIGNMENT ( #362, #273, ( #287 ) ) ;
#111 = ORIENTED_EDGE ( 'NONE', *, *, #123, .T. ) ;
#112 = PERSON ( 'UNSPECIFIED', 'UNSPECIFIED', 'UNSPECIFIED', ('UNSPECIFIED'), ('UNSPECIFIED'), ('UNSPECIFIED') ) ;
#113 = VERTEX_POINT ( 'NONE', #121 ) ;
#114 = CARTESIAN_POINT ( 'NONE',  ( 5.298454348222066818E-15, 0.4999999999999993339, -8.572527594031657586E-16 ) ) ;
#115 = CARTESIAN_POINT ( 'NONE',  ( 6.378460978507788557E-14, -1.499999999999998446, 6.732050807568855433 ) ) ;
#116 = AXIS2_PLACEMENT_3D ( 'NONE', #256, #33, #79 ) ;
#117 = VERTEX_POINT ( 'NONE', #114 ) ;
#118 = PRODUCT_RELATED_PRODUCT_CATEGORY ( 'detail', '', ( #229 ) ) ;
#119 = AXIS2_PLACEMENT_3D ( 'NONE', #129, #267, #156 ) ;
#120 = CARTESIAN_POINT ( 'NONE',  ( 1.047444401652940007E-13, -3.673940397442059178E-15, 30.00000000000000000 ) ) ;
#121 = CARTESIAN_POINT ( 'NONE',  ( 6.378460978507780984E-14, -1.500000000000003109, 29.69999999999999929 ) ) ;
#122 = APPLICATION_CONTEXT ( 'configuration controlled 3d designs of mechanical parts and assemblies' ) ;
#123 = EDGE_CURVE ( 'NONE', #117, #153, #63, .T. ) ;
#124 = FACE_OUTER_BOUND ( 'NONE', #172, .T. ) ;
#125 = DIRECTION ( 'NONE',  ( 3.491481338843133355E-15, -1.276467311168695266E-16, 1.000000000000000000 ) ) ;
#126 = ORIENTED_EDGE ( 'NONE', *, *, #99, .T. ) ;
#127 = AXIS2_PLACEMENT_3D ( 'NONE', #214, #274, #315 ) ;
#128 = DIRECTION ( 'NONE',  ( -4.275831445896958607E-31, -1.000000000000000000, -1.224646799147353207E-16 ) ) ;
#129 = CARTESIAN_POINT ( 'NONE',  ( 0.000000000000000000, 0.000000000000000000, 0.000000000000000000 ) ) ;
#130 = ADVANCED_FACE ( 'NONE', ( #152 ), #171, .F. ) ;
#131 = DATE_AND_TIME ( #50, #154 ) ;
#132 = CARTESIAN_POINT ( 'NONE',  ( 1.036969957636410543E-13, -3.637200993467639107E-15, 29.69999999999999929 ) ) ;
#133 = PERSON_AND_ORGANIZATION ( #112, #170 ) ;
#134 = ADVANCED_FACE ( 'NONE', ( #97 ), #203, .T. ) ;
#135 = ORIENTED_EDGE ( 'NONE', *, *, #163, .F. ) ;
#136 = CIRCLE ( 'NONE', #42, 1.499999999999999334 ) ;
#137 = FACE_OUTER_BOUND ( 'NONE', #244, .T. ) ;
#138 = EDGE_LOOP ( 'NONE', ( #344, #111, #247, #286 ) ) ;
#139 = EDGE_CURVE ( 'NONE', #77, #253, #328, .T. ) ;
#140 = PERSON_AND_ORGANIZATION_ROLE ( 'creator' ) ;
#141 = CARTESIAN_POINT ( 'NONE',  ( 1.047444401652939691E-14, -8.673617379884056180E-16, 2.999999999999999112 ) ) ;
#142 = VERTEX_POINT ( 'NONE', #264 ) ;
#143 = DIRECTION ( 'NONE',  ( 1.000000000000000000, 0.000000000000000000, 0.000000000000000000 ) ) ;
#144 = ORIENTED_EDGE ( 'NONE', *, *, #341, .T. ) ;
#145 = EDGE_CURVE ( 'NONE', #54, #113, #331, .T. ) ;
#146 = CC_DESIGN_PERSON_AND_ORGANIZATION_ASSIGNMENT ( #215, #333, ( #326 ) ) ;
#147 = ORIENTED_EDGE ( 'NONE', *, *, #159, .F. ) ;
#148 = DIRECTION ( 'NONE',  ( 4.275831445896959482E-31, 1.000000000000000000, 1.224646799147353207E-16 ) ) ;
#149 = AXIS2_PLACEMENT_3D ( 'NONE', #343, #283, #224 ) ;
#150 = VERTEX_POINT ( 'NONE', #71 ) ;
#151 = CARTESIAN_POINT ( 'NONE',  ( 1.048913977811916904E-13, -1.200000000000003064, 30.00000000000000000 ) ) ;
#152 = FACE_OUTER_BOUND ( 'NONE', #350, .T. ) ;
#153 = VERTEX_POINT ( 'NONE', #358 ) ;
#154 = LOCAL_TIME ( 9, 8, 50.00000000000000000, #80 ) ;
#155 = CARTESIAN_POINT ( 'NONE',  ( -6.413839710158237013E-31, 0.000000000000000000, -1.836996703606440502E-16 ) ) ;
#156 = DIRECTION ( 'NONE',  ( 4.275831445896959482E-31, 1.000000000000000000, 1.224646799147353207E-16 ) ) ;
#157 = APPROVAL_DATE_TIME ( #250, #241 ) ;
#158 = DIRECTION ( 'NONE',  ( -4.275831445896958607E-31, -1.000000000000000000, -1.224646799147353207E-16 ) ) ;
#159 = EDGE_CURVE ( 'NONE', #53, #181, #336, .T. ) ;
#160 = APPROVAL_PERSON_ORGANIZATION ( #60, #180, #192 ) ;
#161 = VECTOR ( 'NONE', #125, 1000.000000000000000 ) ;
#162 = PERSON_AND_ORGANIZATION ( #112, #170 ) ;
#163 = EDGE_CURVE ( 'NONE', #53, #253, #210, .T. ) ;
#164 = AXIS2_PLACEMENT_3D ( 'NONE', #120, #323, #41 ) ;
#165 = DIRECTION ( 'NONE',  ( 0.000000000000000000, -1.000000000000000000, 0.000000000000000000 ) ) ;
#166 = ORIENTED_EDGE ( 'NONE', *, *, #308, .T. ) ;
#167 = CARTESIAN_POINT ( 'NONE',  ( -8.642220608452619216E-31, -0.4999999999999994449, -2.475230359190787889E-16 ) ) ;
#168 = DIRECTION ( 'NONE',  ( 0.000000000000000000, -1.000000000000000000, 0.000000000000000000 ) ) ;
#169 = ORIENTED_EDGE ( 'NONE', *, *, #260, .T. ) ;
#170 = ORGANIZATION ( 'UNSPECIFIED', 'UNSPECIFIED', '' ) ;
#171 = PLANE ( 'NONE',  #72 ) ;
#172 = EDGE_LOOP ( 'NONE', ( #240, #251 ) ) ;
#173 = ADVANCED_FACE ( 'NONE', ( #303 ), #230, .T. ) ;
#174 = LOCAL_TIME ( 9, 8, 50.00000000000000000, #35 ) ;
#175 = ORIENTED_EDGE ( 'NONE', *, *, #187, .T. ) ;
#176 = CALENDAR_DATE ( 2023, 31, 3 ) ;
#177 = CC_DESIGN_SECURITY_CLASSIFICATION ( #287, ( #56 ) ) ;
#178 = DIRECTION ( 'NONE',  ( 3.491481338843133355E-15, -1.276467311168695266E-16, 1.000000000000000000 ) ) ;
#179 = DIRECTION ( 'NONE',  ( 3.491481338843133355E-15, -1.276467311168695266E-16, 1.000000000000000000 ) ) ;
#180 = APPROVAL ( #204, 'UNSPECIFIED' ) ;
#181 = VERTEX_POINT ( 'NONE', #239 ) ;
#182 = CARTESIAN_POINT ( 'NONE',  ( 1.047444401652939691E-14, -3.829401933506084810E-16, 2.999999999999999112 ) ) ;
#183 = LOCAL_TIME ( 9, 8, 50.00000000000000000, #278 ) ;
#184 = VECTOR ( 'NONE', #66, 1000.000000000000000 ) ;
#185 = CC_DESIGN_PERSON_AND_ORGANIZATION_ASSIGNMENT ( #307, #140, ( #56 ) ) ;
#186 = PERSON_AND_ORGANIZATION ( #112, #170 ) ;
#187 = EDGE_CURVE ( 'NONE', #142, #153, #355, .T. ) ;
#188 = AXIS2_PLACEMENT_3D ( 'NONE', #155, #178, #20 ) ;
#189 = DIRECTION ( 'NONE',  ( 0.000000000000000000, -1.000000000000000000, 0.000000000000000000 ) ) ;
#190 = ORIENTED_EDGE ( 'NONE', *, *, #145, .T. ) ;
#191 = AXIS2_PLACEMENT_3D ( 'NONE', #93, #340, #217 ) ;
#192 = APPROVAL_ROLE ( '' ) ;
#193 = CALENDAR_DATE ( 2023, 31, 3 ) ;
#194 = DIRECTION ( 'NONE',  ( -3.491481338843133355E-15, 1.224646799147353207E-16, -1.000000000000000000 ) ) ;
#195 = ORIENTED_EDGE ( 'NONE', *, *, #91, .T. ) ;
#196 = EDGE_LOOP ( 'NONE', ( #6, #233 ) ) ;
#197 = COORDINATED_UNIVERSAL_TIME_OFFSET ( 1, 0, .AHEAD. ) ;
#198 = CYLINDRICAL_SURFACE ( 'NONE', #188, 0.4999999999999994449 ) ;
#199 = AXIS2_PLACEMENT_3D ( 'NONE', #30, #102, #165 ) ;
#200 = ORIENTED_EDGE ( 'NONE', *, *, #95, .T. ) ;
#201 = ADVANCED_FACE ( 'NONE', ( #5 ), #261, .T. ) ;
#202 = CIRCLE ( 'NONE', #52, 0.4999999999999995559 ) ;
#203 = CYLINDRICAL_SURFACE ( 'NONE', #119, 1.499999999999997558 ) ;
#204 = APPROVAL_STATUS ( 'not_yet_approved' ) ;
#205 = CARTESIAN_POINT ( 'NONE',  ( 0.000000000000000000, 0.000000000000000000, 0.000000000000000000 ) ) ;
#206 = DIRECTION ( 'NONE',  ( 3.491481338843133355E-15, -1.276467311168695266E-16, 1.000000000000000000 ) ) ;
#207 = ORIENTED_EDGE ( 'NONE', *, *, #47, .F. ) ;
#208 = APPROVAL_STATUS ( 'not_yet_approved' ) ;
#209 = ADVANCED_FACE ( 'NONE', ( #218 ), #281, .F. ) ;
#210 = LINE ( 'NONE', #334, #73 ) ;
#211 = CARTESIAN_POINT ( 'NONE',  ( 2.350482976677050504E-14, -8.593242792988461758E-16, 6.732050807568855433 ) ) ;
#212 = APPROVAL_PERSON_ORGANIZATION ( #357, #302, #321 ) ;
#213 = ADVANCED_FACE ( 'NONE', ( #346 ), #312, .T. ) ;
#214 = CARTESIAN_POINT ( 'NONE',  ( -3.215920101957309332E-30, 9.412369403235646117E-32, -9.210761249615819590E-16 ) ) ;
#215 = PERSON_AND_ORGANIZATION ( #112, #170 ) ;
#216 = DIRECTION ( 'NONE',  ( -4.275831445896958607E-31, -1.000000000000000000, -1.224646799147353207E-16 ) ) ;
#217 = DIRECTION ( 'NONE',  ( -4.456761796588768785E-31, -1.000000000000000000, -1.276467311168695759E-16 ) ) ;
#218 = FACE_OUTER_BOUND ( 'NONE', #196, .T. ) ;
#219 = LINE ( 'NONE', #167, #279 ) ;
#220 = ORIENTED_EDGE ( 'NONE', *, *, #99, .F. ) ;
#221 = DIRECTION ( 'NONE',  ( -4.456761796588773165E-31, -1.000000000000000000, -1.276467311168694033E-16 ) ) ;
#222 = SHAPE_DEFINITION_REPRESENTATION ( #90, #272 ) ;
#223 = VECTOR ( 'NONE', #7, 1000.000000000000000 ) ;
#224 = DIRECTION ( 'NONE',  ( 4.275831445896958607E-31, 1.000000000000000000, 1.224646799147353207E-16 ) ) ;
#225 = ORIENTED_EDGE ( 'NONE', *, *, #145, .F. ) ;
#226 = EDGE_CURVE ( 'NONE', #153, #142, #202, .T. ) ;
#227 = EDGE_CURVE ( 'NONE', #150, #142, #219, .T. ) ;
#228 = MANIFOLD_SOLID_BREP ( 'Corps-Déplacer/Copier1[2]', #69 ) ;
#229 = PRODUCT ( '372719', '372719', '', ( #1 ) ) ;
#230 = CONICAL_SURFACE ( 'NONE', #322, 1.199999999999999512, 0.7853981633974511656 ) ;
#231 = AXIS2_PLACEMENT_3D ( 'NONE', #182, #206, #293 ) ;
#232 =( LENGTH_UNIT ( ) NAMED_UNIT ( * ) SI_UNIT ( .MILLI., .METRE. ) );
#233 = ORIENTED_EDGE ( 'NONE', *, *, #36, .F. ) ;
#234 = AXIS2_PLACEMENT_3D ( 'NONE', #141, #109, #216 ) ;
#235 = CIRCLE ( 'NONE', #300, 0.4999999999999993339 ) ;
#236 = COORDINATED_UNIVERSAL_TIME_OFFSET ( 1, 0, .AHEAD. ) ;
#237 = DIRECTION ( 'NONE',  ( -3.491481338843133355E-15, 1.224646799147353207E-16, -1.000000000000000000 ) ) ;
#238 = CIRCLE ( 'NONE', #85, 1.499999999999997558 ) ;
#239 = CARTESIAN_POINT ( 'NONE',  ( 1.711210157156467508E-14, 0.4999999999999991673, 2.999999999999999112 ) ) ;
#240 = ORIENTED_EDGE ( 'NONE', *, *, #248, .F. ) ;
#241 = APPROVAL ( #208, 'UNSPECIFIED' ) ;
#242 = CALENDAR_DATE ( 2023, 31, 3 ) ;
#243 = ORIENTED_EDGE ( 'NONE', *, *, #78, .F. ) ;
#244 = EDGE_LOOP ( 'NONE', ( #269, #314, #9, #313 ) ) ;
#245 = CALENDAR_DATE ( 2023, 31, 3 ) ;
#246 = DIRECTION ( 'NONE',  ( 0.000000000000000000, -1.000000000000000000, 0.000000000000000000 ) ) ;
#247 = ORIENTED_EDGE ( 'NONE', *, *, #187, .F. ) ;
#248 = EDGE_CURVE ( 'NONE', #150, #117, #270, .T. ) ;
#249 = CONICAL_SURFACE ( 'NONE', #280, 5.500000000000000000, 0.2617993877991502405 ) ;
#250 = DATE_AND_TIME ( #242, #183 ) ;
#251 = ORIENTED_EDGE ( 'NONE', *, *, #95, .F. ) ;
#252 = DIRECTION ( 'NONE',  ( 3.491481338843133355E-15, -1.276467311168695266E-16, 1.000000000000000000 ) ) ;
#253 = VERTEX_POINT ( 'NONE', #115 ) ;
#254 = LINE ( 'NONE', #289, #184 ) ;
#255 = VECTOR ( 'NONE', #8, 1000.000000000000000 ) ;
#256 = CARTESIAN_POINT ( 'NONE',  ( 1.047444401652940007E-13, -3.673940397442059178E-15, 30.00000000000000000 ) ) ;
#257 = DIRECTION ( 'NONE',  ( 0.000000000000000000, 1.000000000000000000, 0.000000000000000000 ) ) ;
#258 = CARTESIAN_POINT ( 'NONE',  ( -3.215920101957309332E-30, 9.412369403235646117E-32, -9.210761249615819590E-16 ) ) ;
#259 = CARTESIAN_POINT ( 'NONE',  ( 1.047444401652939691E-14, -0.5000000000000000000, 2.999999999999999112 ) ) ;
#260 = EDGE_CURVE ( 'NONE', #19, #54, #64, .T. ) ;
#261 = CONICAL_SURFACE ( 'NONE', #164, 1.199999999999999512, 0.7853981633974511656 ) ;
#262 = ORIENTED_EDGE ( 'NONE', *, *, #227, .T. ) ;
#263 = PLANE ( 'NONE',  #49 ) ;
#264 = CARTESIAN_POINT ( 'NONE',  ( 1.047444401652939691E-14, -0.5000000000000000000, 2.999999999999999112 ) ) ;
#265 = ADVANCED_FACE ( 'NONE', ( #86 ), #317, .T. ) ;
#266 = LOCAL_TIME ( 9, 8, 50.00000000000000000, #197 ) ;
#267 = DIRECTION ( 'NONE',  ( -3.491481338843133355E-15, 1.224646799147353207E-16, -1.000000000000000000 ) ) ;
#268 = DIRECTION ( 'NONE',  ( 3.491481338843133355E-15, -1.224646799147353207E-16, 1.000000000000000000 ) ) ;
#269 = ORIENTED_EDGE ( 'NONE', *, *, #91, .F. ) ;
#270 = CIRCLE ( 'NONE', #127, 0.4999999999999993339 ) ;
#271 = CIRCLE ( 'NONE', #28, 0.4999999999999995559 ) ;
#272 = ADVANCED_BREP_SHAPE_REPRESENTATION ( '372719', ( #359, #228, #337 ), #327 ) ;
#273 = PERSON_AND_ORGANIZATION_ROLE ( 'classification_officer' ) ;
#274 = DIRECTION ( 'NONE',  ( 3.491481338843133355E-15, -1.276467311168695266E-16, 1.000000000000000000 ) ) ;
#275 = PLANE ( 'NONE',  #234 ) ;
#276 = DIRECTION ( 'NONE',  ( 3.372511997194914833E-15, -0.2588190451025215721, 0.9659258262890679791 ) ) ;
#277 = EDGE_LOOP ( 'NONE', ( #175, #304 ) ) ;
#278 = COORDINATED_UNIVERSAL_TIME_OFFSET ( 1, 0, .AHEAD. ) ;
#279 = VECTOR ( 'NONE', #81, 1000.000000000000000 ) ;
#280 = AXIS2_PLACEMENT_3D ( 'NONE', #306, #309, #189 ) ;
#281 = PLANE ( 'NONE',  #149 ) ;
#282 = ORIENTED_EDGE ( 'NONE', *, *, #260, .F. ) ;
#283 = DIRECTION ( 'NONE',  ( -3.491481338843133355E-15, 1.224646799147353207E-16, -1.000000000000000000 ) ) ;
#284 = CARTESIAN_POINT ( 'NONE',  ( 1.047444401652939691E-14, -3.829401933506084810E-16, 2.999999999999999112 ) ) ;
#285 = CARTESIAN_POINT ( 'NONE',  ( 0.000000000000000000, 0.000000000000000000, 0.000000000000000000 ) ) ;
#286 = ORIENTED_EDGE ( 'NONE', *, *, #227, .F. ) ;
#287 = SECURITY_CLASSIFICATION ( '', '', #75 ) ;
#288 = AXIS2_PLACEMENT_3D ( 'NONE', #132, #237, #349 ) ;
#289 = CARTESIAN_POINT ( 'NONE',  ( 7.629992850726613862E-14, 5.499999999999997335, 21.66025403784432513 ) ) ;
#290 = DATE_AND_TIME ( #176, #266 ) ;
#291 = EDGE_CURVE ( 'NONE', #19, #62, #295, .T. ) ;
#292 = DIRECTION ( 'NONE',  ( 0.000000000000000000, -1.000000000000000000, 0.000000000000000000 ) ) ;
#293 = DIRECTION ( 'NONE',  ( 0.000000000000000000, -1.000000000000000000, 0.000000000000000000 ) ) ;
#294 = DIRECTION ( 'NONE',  ( -2.382254525458708792E-15, -0.7071067811865493491, -0.7071067811865455743 ) ) ;
#295 = CIRCLE ( 'NONE', #116, 1.199999999999999512 ) ;
#296 = DESIGN_CONTEXT ( 'detailed design', #37, 'design' ) ;
#297 =( NAMED_UNIT ( * ) SI_UNIT ( $, .STERADIAN. ) SOLID_ANGLE_UNIT ( ) );
#298 = EDGE_CURVE ( 'NONE', #113, #253, #11, .T. ) ;
#299 = DATE_TIME_ROLE ( 'creation_date' ) ;
#300 = AXIS2_PLACEMENT_3D ( 'NONE', #258, #68, #221 ) ;
#301 = ADVANCED_FACE ( 'NONE', ( #61 ), #275, .T. ) ;
#302 = APPROVAL ( #106, 'UNSPECIFIED' ) ;
#303 = FACE_OUTER_BOUND ( 'NONE', #92, .T. ) ;
#304 = ORIENTED_EDGE ( 'NONE', *, *, #226, .T. ) ;
#305 = EDGE_LOOP ( 'NONE', ( #361, #195, #2, #135 ) ) ;
#306 = CARTESIAN_POINT ( 'NONE',  ( 7.562637276773508268E-14, -2.764860623091801885E-15, 21.66025403784432513 ) ) ;
#307 = PERSON_AND_ORGANIZATION ( #112, #170 ) ;
#308 = EDGE_CURVE ( 'NONE', #113, #54, #136, .T. ) ;
#309 = DIRECTION ( 'NONE',  ( 3.491481338843133355E-15, -1.276467311168695266E-16, 1.000000000000000000 ) ) ;
#310 = DIRECTION ( 'NONE',  ( 0.000000000000000000, 0.000000000000000000, 1.000000000000000000 ) ) ;
#311 = DIRECTION ( 'NONE',  ( -3.491481338843133355E-15, 1.224646799147353207E-16, -1.000000000000000000 ) ) ;
#312 = CYLINDRICAL_SURFACE ( 'NONE', #191, 0.4999999999999994449 ) ;
#313 = ORIENTED_EDGE ( 'NONE', *, *, #47, .T. ) ;
#314 = ORIENTED_EDGE ( 'NONE', *, *, #78, .T. ) ;
#315 = DIRECTION ( 'NONE',  ( -4.456761796588773165E-31, -1.000000000000000000, -1.276467311168694033E-16 ) ) ;
#316 = ADVANCED_FACE ( 'NONE', ( #48 ), #198, .T. ) ;
#317 = CYLINDRICAL_SURFACE ( 'NONE', #335, 1.499999999999997558 ) ;
#318 = ORIENTED_EDGE ( 'NONE', *, *, #36, .T. ) ;
#319 = FACE_OUTER_BOUND ( 'NONE', #305, .T. ) ;
#320 = CARTESIAN_POINT ( 'NONE',  ( -6.413798080740949357E-31, 2.249657531481865154E-32, -1.836984780467449341E-16 ) ) ;
#321 = APPROVAL_ROLE ( '' ) ;
#322 = AXIS2_PLACEMENT_3D ( 'NONE', #100, #74, #27 ) ;
#323 = DIRECTION ( 'NONE',  ( -3.491481338843133355E-15, 1.224646799147353207E-16, -1.000000000000000000 ) ) ;
#324 =( NAMED_UNIT ( * ) PLANE_ANGLE_UNIT ( ) SI_UNIT ( $, .RADIAN. ) );
#325 = DIRECTION ( 'NONE',  ( -3.491481338843133355E-15, 1.276467311168695266E-16, -1.000000000000000000 ) ) ;
#326 = PRODUCT_DEFINITION ( 'UNKNOWN', '', #56, #296 ) ;
#327 =( GEOMETRIC_REPRESENTATION_CONTEXT ( 3 ) GLOBAL_UNCERTAINTY_ASSIGNED_CONTEXT ( ( #330 ) ) GLOBAL_UNIT_ASSIGNED_CONTEXT ( ( #232, #324, #297 ) ) REPRESENTATION_CONTEXT ( 'NONE', 'WORKASPACE' ) );
#328 = CIRCLE ( 'NONE', #10, 1.499999999999997558 ) ;
#329 = PERSON_AND_ORGANIZATION_ROLE ( 'design_owner' ) ;
#330 = UNCERTAINTY_MEASURE_WITH_UNIT (LENGTH_MEASURE( 1.000000000000000082E-05 ), #232, 'distance_accuracy_value', 'NONE');
#331 = CIRCLE ( 'NONE', #288, 1.499999999999999334 ) ;
#332 = EDGE_LOOP ( 'NONE', ( #29, #166, #126, #207 ) ) ;
#333 = PERSON_AND_ORGANIZATION_ROLE ( 'creator' ) ;
#334 = CARTESIAN_POINT ( 'NONE',  ( 7.562637276773508268E-14, -5.500000000000002665, 21.66025403784432513 ) ) ;
#335 = AXIS2_PLACEMENT_3D ( 'NONE', #285, #40, #148 ) ;
#336 = CIRCLE ( 'NONE', #231, 0.4999999999999995559 ) ;
#337 = AXIS2_PLACEMENT_3D ( 'NONE', #205, #310, #143 ) ;
#338 = CC_DESIGN_PERSON_AND_ORGANIZATION_ASSIGNMENT ( #133, #21, ( #56 ) ) ;
#339 = CARTESIAN_POINT ( 'NONE',  ( 1.036969957636410543E-13, -3.637200993467639107E-15, 29.69999999999999929 ) ) ;
#340 = DIRECTION ( 'NONE',  ( 3.491481338843133355E-15, -1.276467311168695266E-16, 1.000000000000000000 ) ) ;
#341 = EDGE_CURVE ( 'NONE', #62, #113, #354, .T. ) ;
#342 = VECTOR ( 'NONE', #311, 1000.000000000000000 ) ;
#343 = CARTESIAN_POINT ( 'NONE',  ( 1.047444401652940007E-13, 8.998558695971085435E-33, 30.00000000000000000 ) ) ;
#344 = ORIENTED_EDGE ( 'NONE', *, *, #248, .T. ) ;
#345 = CARTESIAN_POINT ( 'NONE',  ( 1.836970198721020566E-16, -1.499999999999997558, -1.836970198721033139E-16 ) ) ;
#346 = FACE_OUTER_BOUND ( 'NONE', #45, .T. ) ;
#347 = CARTESIAN_POINT ( 'NONE',  ( 1.036969957636410543E-13, 1.499999999999995781, 29.69999999999999929 ) ) ;
#348 = CONICAL_SURFACE ( 'NONE', #43, 5.500000000000000000, 0.2617993877991502405 ) ;
#349 = DIRECTION ( 'NONE',  ( 0.000000000000000000, 1.000000000000000000, 0.000000000000000000 ) ) ;
#350 = EDGE_LOOP ( 'NONE', ( #147, #243 ) ) ;
#351 = CARTESIAN_POINT ( 'NONE',  ( 1.047444401652939691E-14, -8.673617379884056180E-16, 2.999999999999999112 ) ) ;
#352 = ADVANCED_FACE ( 'NONE', ( #124 ), #263, .F. ) ;
#353 = CC_DESIGN_DATE_AND_TIME_ASSIGNMENT ( #131, #299, ( #326 ) ) ;
#354 = LINE ( 'NONE', #151, #34 ) ;
#355 = CIRCLE ( 'NONE', #199, 0.4999999999999995559 ) ;
#356 = CLOSED_SHELL ( 'NONE', ( #89, #173, #265, #134, #201, #209, #4, #130 ) ) ;
#357 = PERSON_AND_ORGANIZATION ( #112, #170 ) ;
#358 = CARTESIAN_POINT ( 'NONE',  ( 5.298454348222064452E-15, 0.4999999999999991673, 2.999999999999999112 ) ) ;
#359 = MANIFOLD_SOLID_BREP ( 'Corps-Déplacer/Copier1[1]', #356 ) ;
#360 = ORIENTED_EDGE ( 'NONE', *, *, #308, .F. ) ;
#361 = ORIENTED_EDGE ( 'NONE', *, *, #159, .T. ) ;
#362 = PERSON_AND_ORGANIZATION ( #112, #170 ) ;
#363 = DATE_AND_TIME ( #193, #174 ) ;
ENDSEC;
END-ISO-10303-21;
