ISO-10303-21;
HEADER;
FILE_DESCRIPTION (( 'STEP AP203' ),
    '1' );
FILE_NAME ('372718.step',
    '2023-03-31T06:31:57',
    ( '' ),
    ( '' ),
    'SwSTEP 2.0',
    'SolidWorks 2022',
    '' );
FILE_SCHEMA (( 'CONFIG_CONTROL_DESIGN' ));
ENDSEC;

DATA;
#1 = ADVANCED_FACE ( 'NONE', ( #105 ), #50, .T. ) ;
#2 = ORIENTED_EDGE ( 'NONE', *, *, #73, .T. ) ;
#3 = VERTEX_POINT ( 'NONE', #193 ) ;
#4 = AXIS2_PLACEMENT_3D ( 'NONE', #63, #10, #65 ) ;
#5 = DIRECTION ( 'NONE',  ( -3.491481338843133355E-15, 1.224646799147353207E-16, -1.000000000000000000 ) ) ;
#6 = ORIENTED_EDGE ( 'NONE', *, *, #90, .F. ) ;
#7 = AXIS2_PLACEMENT_3D ( 'NONE', #93, #161, #121 ) ;
#8 = LINE ( 'NONE', #300, #76 ) ;
#9 = ORIENTED_EDGE ( 'NONE', *, *, #220, .T. ) ;
#10 = DIRECTION ( 'NONE',  ( -3.491481338843133355E-15, 1.224646799147353207E-16, -1.000000000000000000 ) ) ;
#11 = PERSON_AND_ORGANIZATION ( #125, #86 ) ;
#12 = CARTESIAN_POINT ( 'NONE',  ( 5.310700816213539860E-14, -5.999999999999987566, -1.347113723649755927E-15 ) ) ;
#13 = CIRCLE ( 'NONE', #187, 5.999999999999997335 ) ;
#14 = ORIENTED_EDGE ( 'NONE', *, *, #25, .F. ) ;
#15 = DATE_AND_TIME ( #232, #62 ) ;
#16 = CARTESIAN_POINT ( 'NONE',  ( 1.047444401652940007E-13, 5.999999999999987566, 30.00000000000000000 ) ) ;
#17 = APPROVAL_STATUS ( 'not_yet_approved' ) ;
#18 = DIRECTION ( 'NONE',  ( 4.275831445896958607E-31, 1.000000000000000000, 1.224646799147353207E-16 ) ) ;
#19 = CONICAL_SURFACE ( 'NONE', #22, 4.799999999999998046, 0.7853981633974511656 ) ;
#20 = PERSON_AND_ORGANIZATION_ROLE ( 'creator' ) ;
#21 = CYLINDRICAL_SURFACE ( 'NONE', #79, 5.999999999999994671 ) ;
#22 = AXIS2_PLACEMENT_3D ( 'NONE', #89, #198, #299 ) ;
#23 = EDGE_LOOP ( 'NONE', ( #157, #9, #290, #40 ) ) ;
#24 = DIRECTION ( 'NONE',  ( -3.491481338843133355E-15, 1.224646799147353207E-16, -1.000000000000000000 ) ) ;
#25 = EDGE_CURVE ( 'NONE', #183, #196, #258, .T. ) ;
#26 = CARTESIAN_POINT ( 'NONE',  ( 7.347880794884082265E-16, -5.999999999999989342, -7.347880794884131569E-16 ) ) ;
#27 = CARTESIAN_POINT ( 'NONE',  ( -2.137923559883790471E-30, 7.498826401578055612E-32, -6.123256441611598533E-16 ) ) ;
#28 = ORIENTED_EDGE ( 'NONE', *, *, #220, .F. ) ;
#29 = AXIS2_PLACEMENT_3D ( 'NONE', #275, #154, #274 ) ;
#30 = VECTOR ( 'NONE', #311, 1000.000000000000000 ) ;
#31 = PLANE ( 'NONE',  #235 ) ;
#32 = CYLINDRICAL_SURFACE ( 'NONE', #139, 5.999999999999989342 ) ;
#33 = MANIFOLD_SOLID_BREP ( 'Corps-Déplacer/Copier1[1]', #95 ) ;
#34 = ADVANCED_FACE ( 'NONE', ( #188 ), #292, .T. ) ;
#35 = DIRECTION ( 'NONE',  ( 0.000000000000000000, 1.000000000000000000, 0.000000000000000000 ) ) ;
#36 = MECHANICAL_CONTEXT ( 'NONE', #186, 'mechanical' ) ;
#37 = ADVANCED_FACE ( 'NONE', ( #295 ), #276, .T. ) ;
#38 = FACE_OUTER_BOUND ( 'NONE', #98, .T. ) ;
#39 = MANIFOLD_SOLID_BREP ( 'Corps-Déplacer/Copier1[2]', #58 ) ;
#40 = ORIENTED_EDGE ( 'NONE', *, *, #207, .F. ) ;
#41 = AXIS2_PLACEMENT_3D ( 'NONE', #289, #169, #103 ) ;
#42 = APPROVAL_DATE_TIME ( #262, #131 ) ;
#43 = EDGE_CURVE ( 'NONE', #249, #229, #246, .T. ) ;
#44 = PERSON_AND_ORGANIZATION ( #125, #86 ) ;
#45 = DIRECTION ( 'NONE',  ( 4.275831445896959482E-31, 1.000000000000000000, 1.224646799147353207E-16 ) ) ;
#46 = CC_DESIGN_APPROVAL ( #70, ( #180 ) ) ;
#47 = ORIENTED_EDGE ( 'NONE', *, *, #207, .T. ) ;
#48 = FACE_OUTER_BOUND ( 'NONE', #216, .T. ) ;
#49 = EDGE_CURVE ( 'NONE', #3, #288, #152, .T. ) ;
#50 = CYLINDRICAL_SURFACE ( 'NONE', #106, 5.999999999999994671 ) ;
#51 = ORIENTED_EDGE ( 'NONE', *, *, #309, .F. ) ;
#52 = CIRCLE ( 'NONE', #308, 4.799999999999998046 ) ;
#53 = CARTESIAN_POINT ( 'NONE',  ( 1.047444401652940007E-13, 5.999999999999987566, 30.00000000000000000 ) ) ;
#54 = EDGE_CURVE ( 'NONE', #3, #229, #8, .T. ) ;
#55 = CARTESIAN_POINT ( 'NONE',  ( 1.047444401652940007E-13, 4.499279347985561328E-32, 30.00000000000000000 ) ) ;
#56 = ORIENTED_EDGE ( 'NONE', *, *, #25, .T. ) ;
#57 = CARTESIAN_POINT ( 'NONE',  ( 2.778849275756844112E-13, -4.800000000000007816, 80.00000000000000000 ) ) ;
#58 = CLOSED_SHELL ( 'NONE', ( #211, #285, #163, #34 ) ) ;
#59 = EDGE_CURVE ( 'NONE', #196, #183, #160, .T. ) ;
#60 = CARTESIAN_POINT ( 'NONE',  ( 1.047444401652940007E-13, -3.673940397442059178E-15, 30.00000000000000000 ) ) ;
#61 = VECTOR ( 'NONE', #24, 1000.000000000000000 ) ;
#62 = LOCAL_TIME ( 8, 31, 57.00000000000000000, #132 ) ;
#63 = CARTESIAN_POINT ( 'NONE',  ( 1.047444401652940007E-13, -3.673940397442059178E-15, 30.00000000000000000 ) ) ;
#64 = DIRECTION ( 'NONE',  ( 1.000000000000000000, 0.000000000000000000, 0.000000000000000000 ) ) ;
#65 = DIRECTION ( 'NONE',  ( 0.000000000000000000, 1.000000000000000000, 0.000000000000000000 ) ) ;
#66 = CARTESIAN_POINT ( 'NONE',  ( 0.000000000000000000, 0.000000000000000000, 0.000000000000000000 ) ) ;
#67 = ORIENTED_EDGE ( 'NONE', *, *, #49, .T. ) ;
#68 = VECTOR ( 'NONE', #179, 1000.000000000000114 ) ;
#69 = CC_DESIGN_APPROVAL ( #189, ( #144 ) ) ;
#70 = APPROVAL ( #17, 'UNSPECIFIED' ) ;
#71 = CALENDAR_DATE ( 2023, 31, 3 ) ;
#72 = CARTESIAN_POINT ( 'NONE',  ( 0.000000000000000000, 0.000000000000000000, 0.000000000000000000 ) ) ;
#73 = EDGE_CURVE ( 'NONE', #248, #104, #225, .T. ) ;
#74 = PERSON_AND_ORGANIZATION ( #125, #86 ) ;
#75 = CARTESIAN_POINT ( 'NONE',  ( 2.793185071074506684E-13, 4.799999999999988276, 80.00000000000000000 ) ) ;
#76 = VECTOR ( 'NONE', #181, 1000.000000000000000 ) ;
#77 = AXIS2_PLACEMENT_3D ( 'NONE', #27, #5, #107 ) ;
#78 = EDGE_LOOP ( 'NONE', ( #14, #265 ) ) ;
#79 = AXIS2_PLACEMENT_3D ( 'NONE', #72, #263, #18 ) ;
#80 = DIRECTION ( 'NONE',  ( -3.491481338843133355E-15, 1.224646799147353207E-16, -1.000000000000000000 ) ) ;
#81 = ORIENTED_EDGE ( 'NONE', *, *, #43, .F. ) ;
#82 = EDGE_LOOP ( 'NONE', ( #56, #271, #268, #197 ) ) ;
#83 = UNCERTAINTY_MEASURE_WITH_UNIT (LENGTH_MEASURE( 1.000000000000000082E-05 ), #130, 'distance_accuracy_value', 'NONE');
#84 = EDGE_LOOP ( 'NONE', ( #2, #195 ) ) ;
#85 = AXIS2_PLACEMENT_3D ( 'NONE', #176, #202, #35 ) ;
#86 = ORGANIZATION ( 'UNSPECIFIED', 'UNSPECIFIED', '' ) ;
#87 = DIRECTION ( 'NONE',  ( -3.491481338843133355E-15, 1.224646799147353207E-16, -1.000000000000000000 ) ) ;
#88 = DIRECTION ( 'NONE',  ( 4.275831445896958607E-31, 1.000000000000000000, 1.224646799147353207E-16 ) ) ;
#89 = CARTESIAN_POINT ( 'NONE',  ( 2.793185071074506684E-13, -9.797174393178826052E-15, 80.00000000000000000 ) ) ;
#90 = EDGE_CURVE ( 'NONE', #234, #3, #222, .T. ) ;
#91 = DIRECTION ( 'NONE',  ( -3.491481338843133355E-15, 1.224646799147353207E-16, -1.000000000000000000 ) ) ;
#92 = CALENDAR_DATE ( 2023, 31, 3 ) ;
#93 = CARTESIAN_POINT ( 'NONE',  ( 2.793185071074506684E-13, -9.797174393178826052E-15, 80.00000000000000000 ) ) ;
#94 = CC_DESIGN_PERSON_AND_ORGANIZATION_ASSIGNMENT ( #44, #210, ( #180 ) ) ;
#95 = CLOSED_SHELL ( 'NONE', ( #37, #1, #260, #250, #109, #155 ) ) ;
#96 = PERSON_AND_ORGANIZATION ( #125, #86 ) ;
#97 = LOCAL_TIME ( 8, 31, 57.00000000000000000, #203 ) ;
#98 = EDGE_LOOP ( 'NONE', ( #194, #28 ) ) ;
#99 = APPROVAL_ROLE ( '' ) ;
#100 = DATE_AND_TIME ( #237, #137 ) ;
#101 = CARTESIAN_POINT ( 'NONE',  ( 2.751287295008389336E-13, -9.650216777281144190E-15, 78.80000000000001137 ) ) ;
#102 = DIRECTION ( 'NONE',  ( -3.491481338843133355E-15, 1.224646799147353207E-16, -1.000000000000000000 ) ) ;
#103 = DIRECTION ( 'NONE',  ( 0.000000000000000000, 1.000000000000000000, 0.000000000000000000 ) ) ;
#104 = VERTEX_POINT ( 'NONE', #12 ) ;
#105 = FACE_OUTER_BOUND ( 'NONE', #242, .T. ) ;
#106 = AXIS2_PLACEMENT_3D ( 'NONE', #122, #214, #239 ) ;
#107 = DIRECTION ( 'NONE',  ( 4.275831445896958607E-31, 1.000000000000000000, 1.224646799147353454E-16 ) ) ;
#108 = DESIGN_CONTEXT ( 'detailed design', #259, 'design' ) ;
#109 = ADVANCED_FACE ( 'NONE', ( #172 ), #19, .T. ) ;
#110 = PERSON_AND_ORGANIZATION ( #125, #86 ) ;
#111 = APPROVAL_ROLE ( '' ) ;
#112 = CC_DESIGN_SECURITY_CLASSIFICATION ( #204, ( #180 ) ) ;
#113 = APPROVAL_DATE_TIME ( #138, #189 ) ;
#114 = EDGE_CURVE ( 'NONE', #199, #288, #273, .T. ) ;
#115 = AXIS2_PLACEMENT_3D ( 'NONE', #191, #270, #142 ) ;
#116 = PERSON_AND_ORGANIZATION_ROLE ( 'classification_officer' ) ;
#117 = LINE ( 'NONE', #209, #30 ) ;
#118 = APPROVAL_ROLE ( '' ) ;
#119 = DIRECTION ( 'NONE',  ( -3.491481338843133355E-15, 1.224646799147353207E-16, -1.000000000000000000 ) ) ;
#120 = EDGE_LOOP ( 'NONE', ( #174, #135, #134, #51 ) ) ;
#121 = DIRECTION ( 'NONE',  ( 0.000000000000000000, 1.000000000000000000, 0.000000000000000000 ) ) ;
#122 = CARTESIAN_POINT ( 'NONE',  ( 0.000000000000000000, 0.000000000000000000, 0.000000000000000000 ) ) ;
#123 = ORIENTED_EDGE ( 'NONE', *, *, #114, .T. ) ;
#124 = EDGE_CURVE ( 'NONE', #229, #249, #165, .T. ) ;
#125 = PERSON ( 'UNSPECIFIED', 'UNSPECIFIED', 'UNSPECIFIED', ('UNSPECIFIED'), ('UNSPECIFIED'), ('UNSPECIFIED') ) ;
#126 = CARTESIAN_POINT ( 'NONE',  ( 2.793185071074506684E-13, 4.799999999999988276, 80.00000000000000000 ) ) ;
#127 = AXIS2_PLACEMENT_3D ( 'NONE', #150, #251, #200 ) ;
#128 = CARTESIAN_POINT ( 'NONE',  ( 0.000000000000000000, 0.000000000000000000, 0.000000000000000000 ) ) ;
#129 = PLANE ( 'NONE',  #286 ) ;
#130 =( LENGTH_UNIT ( ) NAMED_UNIT ( * ) SI_UNIT ( .MILLI., .METRE. ) );
#131 = APPROVAL ( #206, 'UNSPECIFIED' ) ;
#132 = COORDINATED_UNIVERSAL_TIME_OFFSET ( 1, 0, .AHEAD. ) ;
#133 = DIRECTION ( 'NONE',  ( 0.000000000000000000, 1.000000000000000000, 0.000000000000000000 ) ) ;
#134 = ORIENTED_EDGE ( 'NONE', *, *, #257, .T. ) ;
#135 = ORIENTED_EDGE ( 'NONE', *, *, #59, .T. ) ;
#136 = SHAPE_DEFINITION_REPRESENTATION ( #149, #170 ) ;
#137 = LOCAL_TIME ( 8, 31, 57.00000000000000000, #284 ) ;
#138 = DATE_AND_TIME ( #92, #97 ) ;
#139 = AXIS2_PLACEMENT_3D ( 'NONE', #128, #91, #45 ) ;
#140 = FACE_OUTER_BOUND ( 'NONE', #221, .T. ) ;
#141 = ORIENTED_EDGE ( 'NONE', *, *, #124, .F. ) ;
#142 = DIRECTION ( 'NONE',  ( -4.275831445896958607E-31, -1.000000000000000000, -1.224646799147353207E-16 ) ) ;
#143 = DIRECTION ( 'NONE',  ( -4.275831445896958607E-31, -1.000000000000000000, -1.224646799147353207E-16 ) ) ;
#144 = PRODUCT_DEFINITION ( 'UNKNOWN', '', #180, #108 ) ;
#145 = DIRECTION ( 'NONE',  ( -4.275831445896958607E-31, -1.000000000000000000, -1.224646799147353207E-16 ) ) ;
#146 = VECTOR ( 'NONE', #102, 1000.000000000000000 ) ;
#147 = CARTESIAN_POINT ( 'NONE',  ( 2.799063375710414274E-13, -4.800000000000007816, 80.00000000000000000 ) ) ;
#148 = FACE_OUTER_BOUND ( 'NONE', #84, .T. ) ;
#149 = PRODUCT_DEFINITION_SHAPE ( 'NONE', 'NONE',  #144 ) ;
#150 = CARTESIAN_POINT ( 'NONE',  ( 0.000000000000000000, 0.000000000000000000, 0.000000000000000000 ) ) ;
#151 = CC_DESIGN_PERSON_AND_ORGANIZATION_ASSIGNMENT ( #96, #20, ( #180 ) ) ;
#152 = CIRCLE ( 'NONE', #85, 5.999999999999997335 ) ;
#153 = LOCAL_TIME ( 8, 31, 57.00000000000000000, #281 ) ;
#154 = DIRECTION ( 'NONE',  ( -3.491481338843133355E-15, 1.224646799147353207E-16, -1.000000000000000000 ) ) ;
#155 = ADVANCED_FACE ( 'NONE', ( #38 ), #129, .F. ) ;
#156 = DIRECTION ( 'NONE',  ( -3.491481338843133355E-15, 1.224646799147353207E-16, -1.000000000000000000 ) ) ;
#157 = ORIENTED_EDGE ( 'NONE', *, *, #114, .F. ) ;
#158 = APPLICATION_PROTOCOL_DEFINITION ( 'international standard', 'config_control_design', 1994, #186 ) ;
#159 = ORIENTED_EDGE ( 'NONE', *, *, #54, .F. ) ;
#160 = CIRCLE ( 'NONE', #302, 5.999999999999991118 ) ;
#161 = DIRECTION ( 'NONE',  ( -3.491481338843133355E-15, 1.224646799147353207E-16, -1.000000000000000000 ) ) ;
#162 = APPROVAL_DATE_TIME ( #100, #70 ) ;
#163 = ADVANCED_FACE ( 'NONE', ( #228 ), #175, .T. ) ;
#164 = PERSON_AND_ORGANIZATION ( #125, #86 ) ;
#165 = CIRCLE ( 'NONE', #29, 5.999999999999991118 ) ;
#166 = CARTESIAN_POINT ( 'NONE',  ( 1.906713729125548149E-13, -5.999999999999994671, 30.00000000000000000 ) ) ;
#167 = DIRECTION ( 'NONE',  ( 0.000000000000000000, 1.000000000000000000, 0.000000000000000000 ) ) ;
#168 = CC_DESIGN_DATE_AND_TIME_ASSIGNMENT ( #15, #264, ( #204 ) ) ;
#169 = DIRECTION ( 'NONE',  ( -3.491481338843133355E-15, 1.224646799147353207E-16, -1.000000000000000000 ) ) ;
#170 = ADVANCED_BREP_SHAPE_REPRESENTATION ( '372718', ( #33, #39, #287 ), #253 ) ;
#171 = ORIENTED_EDGE ( 'NONE', *, *, #43, .T. ) ;
#172 = FACE_OUTER_BOUND ( 'NONE', #23, .T. ) ;
#173 = LINE ( 'NONE', #241, #61 ) ;
#174 = ORIENTED_EDGE ( 'NONE', *, *, #178, .F. ) ;
#175 = CYLINDRICAL_SURFACE ( 'NONE', #127, 5.999999999999989342 ) ;
#176 = CARTESIAN_POINT ( 'NONE',  ( 2.751287295008389336E-13, -9.650216777281144190E-15, 78.80000000000001137 ) ) ;
#177 =( NAMED_UNIT ( * ) PLANE_ANGLE_UNIT ( ) SI_UNIT ( $, .RADIAN. ) );
#178 = EDGE_CURVE ( 'NONE', #196, #104, #215, .T. ) ;
#179 = DIRECTION ( 'NONE',  ( -2.382254525458708792E-15, -0.7071067811865493491, -0.7071067811865455743 ) ) ;
#180 = PRODUCT_DEFINITION_FORMATION_WITH_SPECIFIED_SOURCE ( 'ANY', '', #261, .NOT_KNOWN. ) ;
#181 = DIRECTION ( 'NONE',  ( -3.491481338843133355E-15, 1.224646799147353207E-16, -1.000000000000000000 ) ) ;
#182 = PERSON_AND_ORGANIZATION ( #125, #86 ) ;
#183 = VERTEX_POINT ( 'NONE', #53 ) ;
#184 = CALENDAR_DATE ( 2023, 31, 3 ) ;
#185 = PERSON_AND_ORGANIZATION ( #125, #86 ) ;
#186 = APPLICATION_CONTEXT ( 'configuration controlled 3d designs of mechanical parts and assemblies' ) ;
#187 = AXIS2_PLACEMENT_3D ( 'NONE', #101, #80, #167 ) ;
#188 = FACE_OUTER_BOUND ( 'NONE', #78, .T. ) ;
#189 = APPROVAL ( #280, 'UNSPECIFIED' ) ;
#190 = LOCAL_TIME ( 8, 31, 57.00000000000000000, #312 ) ;
#191 = CARTESIAN_POINT ( 'NONE',  ( 1.047444401652940007E-13, 4.499279347985561328E-32, 30.00000000000000000 ) ) ;
#192 = CARTESIAN_POINT ( 'NONE',  ( 5.310700816213537335E-14, -5.999999999999995559, 30.00000000000000000 ) ) ;
#193 = CARTESIAN_POINT ( 'NONE',  ( 2.751287295008389336E-13, 5.999999999999987566, 78.80000000000001137 ) ) ;
#194 = ORIENTED_EDGE ( 'NONE', *, *, #217, .F. ) ;
#195 = ORIENTED_EDGE ( 'NONE', *, *, #309, .T. ) ;
#196 = VERTEX_POINT ( 'NONE', #192 ) ;
#197 = ORIENTED_EDGE ( 'NONE', *, *, #257, .F. ) ;
#198 = DIRECTION ( 'NONE',  ( -3.491481338843133355E-15, 1.224646799147353207E-16, -1.000000000000000000 ) ) ;
#199 = VERTEX_POINT ( 'NONE', #57 ) ;
#200 = DIRECTION ( 'NONE',  ( 4.275831445896959482E-31, 1.000000000000000000, 1.224646799147353207E-16 ) ) ;
#201 =( NAMED_UNIT ( * ) SI_UNIT ( $, .STERADIAN. ) SOLID_ANGLE_UNIT ( ) );
#202 = DIRECTION ( 'NONE',  ( -3.491481338843133355E-15, 1.224646799147353207E-16, -1.000000000000000000 ) ) ;
#203 = COORDINATED_UNIVERSAL_TIME_OFFSET ( 1, 0, .AHEAD. ) ;
#204 = SECURITY_CLASSIFICATION ( '', '', #310 ) ;
#205 = DIRECTION ( 'NONE',  ( -3.491481338843133355E-15, 1.224646799147353207E-16, -1.000000000000000000 ) ) ;
#206 = APPROVAL_STATUS ( 'not_yet_approved' ) ;
#207 = EDGE_CURVE ( 'NONE', #288, #3, #13, .T. ) ;
#208 = DATE_TIME_ROLE ( 'creation_date' ) ;
#209 = CARTESIAN_POINT ( 'NONE',  ( 2.565498867538170960E-30, 5.999999999999989342, 7.347880794884106917E-16 ) ) ;
#210 = PERSON_AND_ORGANIZATION_ROLE ( 'design_supplier' ) ;
#211 = ADVANCED_FACE ( 'NONE', ( #267 ), #32, .T. ) ;
#212 = EDGE_LOOP ( 'NONE', ( #294, #123, #313, #6 ) ) ;
#213 = APPROVAL_PERSON_ORGANIZATION ( #11, #189, #111 ) ;
#214 = DIRECTION ( 'NONE',  ( -3.491481338843133355E-15, 1.224646799147353207E-16, -1.000000000000000000 ) ) ;
#215 = LINE ( 'NONE', #26, #146 ) ;
#216 = EDGE_LOOP ( 'NONE', ( #303, #47, #297, #81 ) ) ;
#217 = EDGE_CURVE ( 'NONE', #234, #199, #238, .T. ) ;
#218 = CARTESIAN_POINT ( 'NONE',  ( -1.068961779941895236E-30, 3.749413200789027806E-32, -3.061628220805799266E-16 ) ) ;
#219 = AXIS2_PLACEMENT_3D ( 'NONE', #255, #156, #256 ) ;
#220 = EDGE_CURVE ( 'NONE', #199, #234, #52, .T. ) ;
#221 = EDGE_LOOP ( 'NONE', ( #283, #171 ) ) ;
#222 = LINE ( 'NONE', #126, #266 ) ;
#223 = CC_DESIGN_PERSON_AND_ORGANIZATION_ASSIGNMENT ( #185, #116, ( #204 ) ) ;
#224 = DIRECTION ( 'NONE',  ( 0.000000000000000000, 1.000000000000000000, 0.000000000000000000 ) ) ;
#225 = CIRCLE ( 'NONE', #219, 5.999999999999987566 ) ;
#226 = CARTESIAN_POINT ( 'NONE',  ( 2.793185071074506684E-13, 3.599423478388442932E-32, 80.00000000000000000 ) ) ;
#227 = PRODUCT_RELATED_PRODUCT_CATEGORY ( 'detail', '', ( #261 ) ) ;
#228 = FACE_OUTER_BOUND ( 'NONE', #120, .T. ) ;
#229 = VERTEX_POINT ( 'NONE', #16 ) ;
#230 = DIRECTION ( 'NONE',  ( -2.468850131082257849E-15, 0.7071067811865496822, -0.7071067811865453523 ) ) ;
#231 = AXIS2_PLACEMENT_3D ( 'NONE', #272, #252, #224 ) ;
#232 = CALENDAR_DATE ( 2023, 31, 3 ) ;
#233 = DATE_AND_TIME ( #184, #190 ) ;
#234 = VERTEX_POINT ( 'NONE', #75 ) ;
#235 = AXIS2_PLACEMENT_3D ( 'NONE', #218, #293, #143 ) ;
#236 = APPROVAL_PERSON_ORGANIZATION ( #182, #131, #99 ) ;
#237 = CALENDAR_DATE ( 2023, 31, 3 ) ;
#238 = CIRCLE ( 'NONE', #7, 4.799999999999998046 ) ;
#239 = DIRECTION ( 'NONE',  ( 4.275831445896958607E-31, 1.000000000000000000, 1.224646799147353207E-16 ) ) ;
#240 = PLANE ( 'NONE',  #115 ) ;
#241 = CARTESIAN_POINT ( 'NONE',  ( 7.347880794884087196E-16, -5.999999999999994671, -7.347880794884138472E-16 ) ) ;
#242 = EDGE_LOOP ( 'NONE', ( #67, #243, #141, #159 ) ) ;
#243 = ORIENTED_EDGE ( 'NONE', *, *, #279, .T. ) ;
#244 = DIRECTION ( 'NONE',  ( 3.491481338843133355E-15, -1.224646799147353207E-16, 1.000000000000000000 ) ) ;
#245 = CARTESIAN_POINT ( 'NONE',  ( 1.906713729125547897E-13, -6.000000000000007105, 78.80000000000001137 ) ) ;
#246 = CIRCLE ( 'NONE', #4, 5.999999999999991118 ) ;
#247 = CC_DESIGN_APPROVAL ( #131, ( #204 ) ) ;
#248 = VERTEX_POINT ( 'NONE', #307 ) ;
#249 = VERTEX_POINT ( 'NONE', #166 ) ;
#250 = ADVANCED_FACE ( 'NONE', ( #48 ), #21, .T. ) ;
#251 = DIRECTION ( 'NONE',  ( -3.491481338843133355E-15, 1.224646799147353207E-16, -1.000000000000000000 ) ) ;
#252 = DIRECTION ( 'NONE',  ( -3.491481338843133355E-15, 1.224646799147353207E-16, -1.000000000000000000 ) ) ;
#253 =( GEOMETRIC_REPRESENTATION_CONTEXT ( 3 ) GLOBAL_UNCERTAINTY_ASSIGNED_CONTEXT ( ( #83 ) ) GLOBAL_UNIT_ASSIGNED_CONTEXT ( ( #130, #177, #201 ) ) REPRESENTATION_CONTEXT ( 'NONE', 'WORKASPACE' ) );
#254 = CC_DESIGN_PERSON_AND_ORGANIZATION_ASSIGNMENT ( #110, #301, ( #261 ) ) ;
#255 = CARTESIAN_POINT ( 'NONE',  ( -2.137923559883790471E-30, 7.498826401578055612E-32, -6.123256441611598533E-16 ) ) ;
#256 = DIRECTION ( 'NONE',  ( 4.275831445896958607E-31, 1.000000000000000000, 1.224646799147353454E-16 ) ) ;
#257 = EDGE_CURVE ( 'NONE', #183, #248, #117, .T. ) ;
#258 = CIRCLE ( 'NONE', #41, 5.999999999999991118 ) ;
#259 = APPLICATION_CONTEXT ( 'configuration controlled 3d designs of mechanical parts and assemblies' ) ;
#260 = ADVANCED_FACE ( 'NONE', ( #140 ), #240, .F. ) ;
#261 = PRODUCT ( '372718', '372718', '', ( #36 ) ) ;
#262 = DATE_AND_TIME ( #71, #153 ) ;
#263 = DIRECTION ( 'NONE',  ( -3.491481338843133355E-15, 1.224646799147353207E-16, -1.000000000000000000 ) ) ;
#264 = DATE_TIME_ROLE ( 'classification_date' ) ;
#265 = ORIENTED_EDGE ( 'NONE', *, *, #59, .F. ) ;
#266 = VECTOR ( 'NONE', #230, 1000.000000000000000 ) ;
#267 = FACE_OUTER_BOUND ( 'NONE', #82, .T. ) ;
#268 = ORIENTED_EDGE ( 'NONE', *, *, #73, .F. ) ;
#269 = APPROVAL_PERSON_ORGANIZATION ( #74, #70, #118 ) ;
#270 = DIRECTION ( 'NONE',  ( 3.491481338843133355E-15, -1.224646799147353207E-16, 1.000000000000000000 ) ) ;
#271 = ORIENTED_EDGE ( 'NONE', *, *, #178, .T. ) ;
#272 = CARTESIAN_POINT ( 'NONE',  ( 2.793185071074506684E-13, -9.797174393178826052E-15, 80.00000000000000000 ) ) ;
#273 = LINE ( 'NONE', #147, #68 ) ;
#274 = DIRECTION ( 'NONE',  ( 0.000000000000000000, 1.000000000000000000, 0.000000000000000000 ) ) ;
#275 = CARTESIAN_POINT ( 'NONE',  ( 1.047444401652940007E-13, -3.673940397442059178E-15, 30.00000000000000000 ) ) ;
#276 = CONICAL_SURFACE ( 'NONE', #231, 4.799999999999998046, 0.7853981633974511656 ) ;
#277 = DIRECTION ( 'NONE',  ( 0.000000000000000000, 0.000000000000000000, 1.000000000000000000 ) ) ;
#278 = DIRECTION ( 'NONE',  ( 0.000000000000000000, 1.000000000000000000, 0.000000000000000000 ) ) ;
#279 = EDGE_CURVE ( 'NONE', #288, #249, #173, .T. ) ;
#280 = APPROVAL_STATUS ( 'not_yet_approved' ) ;
#281 = COORDINATED_UNIVERSAL_TIME_OFFSET ( 1, 0, .AHEAD. ) ;
#282 = CARTESIAN_POINT ( 'NONE',  ( 2.793185071074506684E-13, -9.797174393178826052E-15, 80.00000000000000000 ) ) ;
#283 = ORIENTED_EDGE ( 'NONE', *, *, #124, .T. ) ;
#284 = COORDINATED_UNIVERSAL_TIME_OFFSET ( 1, 0, .AHEAD. ) ;
#285 = ADVANCED_FACE ( 'NONE', ( #148 ), #31, .F. ) ;
#286 = AXIS2_PLACEMENT_3D ( 'NONE', #226, #87, #88 ) ;
#287 = AXIS2_PLACEMENT_3D ( 'NONE', #66, #277, #64 ) ;
#288 = VERTEX_POINT ( 'NONE', #245 ) ;
#289 = CARTESIAN_POINT ( 'NONE',  ( 1.047444401652940007E-13, -3.673940397442059178E-15, 30.00000000000000000 ) ) ;
#290 = ORIENTED_EDGE ( 'NONE', *, *, #90, .T. ) ;
#291 = CIRCLE ( 'NONE', #77, 5.999999999999987566 ) ;
#292 = PLANE ( 'NONE',  #298 ) ;
#293 = DIRECTION ( 'NONE',  ( 3.491481338843133355E-15, -1.224646799147353207E-16, 1.000000000000000000 ) ) ;
#294 = ORIENTED_EDGE ( 'NONE', *, *, #217, .T. ) ;
#295 = FACE_OUTER_BOUND ( 'NONE', #212, .T. ) ;
#296 = CC_DESIGN_PERSON_AND_ORGANIZATION_ASSIGNMENT ( #164, #306, ( #144 ) ) ;
#297 = ORIENTED_EDGE ( 'NONE', *, *, #54, .T. ) ;
#298 = AXIS2_PLACEMENT_3D ( 'NONE', #55, #244, #145 ) ;
#299 = DIRECTION ( 'NONE',  ( 0.000000000000000000, 1.000000000000000000, 0.000000000000000000 ) ) ;
#300 = CARTESIAN_POINT ( 'NONE',  ( 2.565498867538173062E-30, 5.999999999999994671, 7.347880794884112834E-16 ) ) ;
#301 = PERSON_AND_ORGANIZATION_ROLE ( 'design_owner' ) ;
#302 = AXIS2_PLACEMENT_3D ( 'NONE', #60, #205, #278 ) ;
#303 = ORIENTED_EDGE ( 'NONE', *, *, #279, .F. ) ;
#304 = CC_DESIGN_DATE_AND_TIME_ASSIGNMENT ( #233, #208, ( #144 ) ) ;
#305 = APPLICATION_PROTOCOL_DEFINITION ( 'international standard', 'config_control_design', 1994, #259 ) ;
#306 = PERSON_AND_ORGANIZATION_ROLE ( 'creator' ) ;
#307 = CARTESIAN_POINT ( 'NONE',  ( 4.275753076543793505E-31, 5.999999999999987566, 1.224624353272506412E-16 ) ) ;
#308 = AXIS2_PLACEMENT_3D ( 'NONE', #282, #119, #133 ) ;
#309 = EDGE_CURVE ( 'NONE', #104, #248, #291, .T. ) ;
#310 = SECURITY_CLASSIFICATION_LEVEL ( 'unclassified' ) ;
#311 = DIRECTION ( 'NONE',  ( -3.491481338843133355E-15, 1.224646799147353207E-16, -1.000000000000000000 ) ) ;
#312 = COORDINATED_UNIVERSAL_TIME_OFFSET ( 1, 0, .AHEAD. ) ;
#313 = ORIENTED_EDGE ( 'NONE', *, *, #49, .F. ) ;
ENDSEC;
END-ISO-10303-21;
