ISO-10303-21;
HEADER;
FILE_DESCRIPTION (( 'STEP AP203' ),
    '1' );
FILE_NAME ('372717.step',
    '2023-03-31T06:31:57',
    ( '' ),
    ( '' ),
    'SwSTEP 2.0',
    'SolidWorks 2022',
    '' );
FILE_SCHEMA (( 'CONFIG_CONTROL_DESIGN' ));
ENDSEC;

DATA;
#1 = PRODUCT_RELATED_PRODUCT_CATEGORY ( 'detail', '', ( #164 ) ) ;
#2 = CARTESIAN_POINT ( 'NONE',  ( 1.396592535537253342E-13, 4.999999999999990230, 40.00000000000000000 ) ) ;
#3 = ADVANCED_FACE ( 'NONE', ( #267 ), #68, .T. ) ;
#4 = FACE_OUTER_BOUND ( 'NONE', #57, .T. ) ;
#5 = AXIS2_PLACEMENT_3D ( 'NONE', #204, #188, #272 ) ;
#6 = CC_DESIGN_PERSON_AND_ORGANIZATION_ASSIGNMENT ( #308, #22, ( #138 ) ) ;
#7 = PERSON ( 'UNSPECIFIED', 'UNSPECIFIED', 'UNSPECIFIED', ('UNSPECIFIED'), ('UNSPECIFIED'), ('UNSPECIFIED') ) ;
#8 = DIRECTION ( 'NONE',  ( 0.000000000000000000, 1.000000000000000000, 0.000000000000000000 ) ) ;
#9 = CARTESIAN_POINT ( 'NONE',  ( 6.123233995736736700E-16, -4.999999999999992895, -6.123233995736778115E-16 ) ) ;
#10 = DIRECTION ( 'NONE',  ( -3.491481338843133355E-15, 1.224646799147353207E-16, -1.000000000000000000 ) ) ;
#11 = CC_DESIGN_DATE_AND_TIME_ASSIGNMENT ( #130, #215, ( #227 ) ) ;
#12 = DIRECTION ( 'NONE',  ( -3.491481338843133355E-15, 1.224646799147353207E-16, -1.000000000000000000 ) ) ;
#13 = CARTESIAN_POINT ( 'NONE',  ( -1.710335747680887179E-30, 5.999050247132936168E-32, -4.898596273888690270E-16 ) ) ;
#14 = CONICAL_SURFACE ( 'NONE', #191, 4.000000000000003553, 0.7853981633974479459 ) ;
#15 = CC_DESIGN_DATE_AND_TIME_ASSIGNMENT ( #236, #211, ( #138 ) ) ;
#16 = CARTESIAN_POINT ( 'NONE',  ( 3.456566525454702148E-13, 4.999999999999991118, 99.00000000000000000 ) ) ;
#17 = COORDINATED_UNIVERSAL_TIME_OFFSET ( 1, 0, .AHEAD. ) ;
#18 = ORIENTED_EDGE ( 'NONE', *, *, #213, .F. ) ;
#19 = FACE_OUTER_BOUND ( 'NONE', #51, .T. ) ;
#20 = EDGE_CURVE ( 'NONE', #49, #276, #41, .T. ) ;
#21 = ORIENTED_EDGE ( 'NONE', *, *, #160, .F. ) ;
#22 = PERSON_AND_ORGANIZATION_ROLE ( 'creator' ) ;
#23 = ORIENTED_EDGE ( 'NONE', *, *, #160, .T. ) ;
#24 = AXIS2_PLACEMENT_3D ( 'NONE', #207, #60, #225 ) ;
#25 = PERSON_AND_ORGANIZATION_ROLE ( 'design_supplier' ) ;
#26 = VERTEX_POINT ( 'NONE', #2 ) ;
#27 = VECTOR ( 'NONE', #232, 1000.000000000000000 ) ;
#28 = PLANE ( 'NONE',  #103 ) ;
#29 = CARTESIAN_POINT ( 'NONE',  ( 3.456566525454702148E-13, -1.212400331155879702E-14, 99.00000000000000000 ) ) ;
#30 = EDGE_LOOP ( 'NONE', ( #18, #235, #99, #221 ) ) ;
#31 = CARTESIAN_POINT ( 'NONE',  ( 3.496379926039722761E-13, -4.000000000000015987, 100.0000000000000000 ) ) ;
#32 = DIRECTION ( 'NONE',  ( -3.491481338843133355E-15, 1.224646799147353207E-16, -1.000000000000000000 ) ) ;
#33 = CIRCLE ( 'NONE', #293, 4.999999999999990230 ) ;
#34 = DIRECTION ( 'NONE',  ( 4.275831445896958607E-31, 1.000000000000000000, 1.224646799147353207E-16 ) ) ;
#35 = CIRCLE ( 'NONE', #230, 4.999999999999995559 ) ;
#36 = DIRECTION ( 'NONE',  ( 4.275831445896958607E-31, 1.000000000000000000, 1.224646799147353207E-16 ) ) ;
#37 = VERTEX_POINT ( 'NONE', #91 ) ;
#38 = CARTESIAN_POINT ( 'NONE',  ( 0.000000000000000000, 0.000000000000000000, 0.000000000000000000 ) ) ;
#39 = CC_DESIGN_APPROVAL ( #126, ( #269 ) ) ;
#40 = ADVANCED_FACE ( 'NONE', ( #281 ), #14, .T. ) ;
#41 = CIRCLE ( 'NONE', #222, 4.999999999999995559 ) ;
#42 = CYLINDRICAL_SURFACE ( 'NONE', #5, 4.999999999999992895 ) ;
#43 = LINE ( 'NONE', #137, #248 ) ;
#44 = PRODUCT_DEFINITION_SHAPE ( 'NONE', 'NONE',  #138 ) ;
#45 = CARTESIAN_POINT ( 'NONE',  ( 0.000000000000000000, 0.000000000000000000, 0.000000000000000000 ) ) ;
#46 = CARTESIAN_POINT ( 'NONE',  ( -8.551678738404435896E-31, 2.999525123566468084E-32, -2.449298136944345135E-16 ) ) ;
#47 = PERSON_AND_ORGANIZATION ( #7, #106 ) ;
#48 = MECHANICAL_CONTEXT ( 'NONE', #80, 'mechanical' ) ;
#49 = VERTEX_POINT ( 'NONE', #107 ) ;
#50 = EDGE_LOOP ( 'NONE', ( #65, #112, #23, #102 ) ) ;
#51 = EDGE_LOOP ( 'NONE', ( #202, #165 ) ) ;
#52 = APPROVAL ( #194, 'UNSPECIFIED' ) ;
#53 = CIRCLE ( 'NONE', #156, 4.000000000000003553 ) ;
#54 = ORIENTED_EDGE ( 'NONE', *, *, #75, .F. ) ;
#55 = EDGE_CURVE ( 'NONE', #266, #49, #185, .T. ) ;
#56 = DIRECTION ( 'NONE',  ( 4.275831445896958607E-31, 1.000000000000000000, 1.224646799147353207E-16 ) ) ;
#57 = EDGE_LOOP ( 'NONE', ( #54, #120 ) ) ;
#58 = CIRCLE ( 'NONE', #101, 4.000000000000003553 ) ;
#59 = FACE_OUTER_BOUND ( 'NONE', #199, .T. ) ;
#60 = DIRECTION ( 'NONE',  ( 3.491481338843133355E-15, -1.224646799147353207E-16, 1.000000000000000000 ) ) ;
#61 = DIRECTION ( 'NONE',  ( 0.000000000000000000, 1.000000000000000000, 0.000000000000000000 ) ) ;
#62 = CYLINDRICAL_SURFACE ( 'NONE', #234, 4.999999999999999112 ) ;
#63 = AXIS2_PLACEMENT_3D ( 'NONE', #13, #246, #34 ) ;
#64 = ORIENTED_EDGE ( 'NONE', *, *, #213, .T. ) ;
#65 = ORIENTED_EDGE ( 'NONE', *, *, #55, .F. ) ;
#66 = AXIS2_PLACEMENT_3D ( 'NONE', #297, #32, #8 ) ;
#67 = CARTESIAN_POINT ( 'NONE',  ( 3.456566525454702148E-13, -1.212400331155879702E-14, 99.00000000000000000 ) ) ;
#68 = CYLINDRICAL_SURFACE ( 'NONE', #302, 4.999999999999999112 ) ;
#69 = EDGE_LOOP ( 'NONE', ( #141, #117, #100, #93 ) ) ;
#70 = EDGE_CURVE ( 'NONE', #26, #119, #43, .T. ) ;
#71 = PERSON_AND_ORGANIZATION_ROLE ( 'creator' ) ;
#72 = VERTEX_POINT ( 'NONE', #16 ) ;
#73 = CONICAL_SURFACE ( 'NONE', #66, 4.000000000000003553, 0.7853981633974479459 ) ;
#74 = CC_DESIGN_SECURITY_CLASSIFICATION ( #227, ( #269 ) ) ;
#75 = EDGE_CURVE ( 'NONE', #26, #37, #35, .T. ) ;
#76 = AXIS2_PLACEMENT_3D ( 'NONE', #46, #287, #310 ) ;
#77 = ORIENTED_EDGE ( 'NONE', *, *, #244, .F. ) ;
#78 = ORIENTED_EDGE ( 'NONE', *, *, #291, .F. ) ;
#79 = APPROVAL_STATUS ( 'not_yet_approved' ) ;
#80 = APPLICATION_CONTEXT ( 'configuration controlled 3d designs of mechanical parts and assemblies' ) ;
#81 = SHAPE_DEFINITION_REPRESENTATION ( #44, #132 ) ;
#82 = CARTESIAN_POINT ( 'NONE',  ( 1.396592535537253342E-13, -4.898587196589413026E-15, 40.00000000000000000 ) ) ;
#83 = CARTESIAN_POINT ( 'NONE',  ( 3.491481338843133355E-13, 2.999519565323699889E-32, 100.0000000000000000 ) ) ;
#84 = DIRECTION ( 'NONE',  ( 4.275831445896958607E-31, 1.000000000000000000, 1.224646799147353207E-16 ) ) ;
#85 = UNCERTAINTY_MEASURE_WITH_UNIT (LENGTH_MEASURE( 1.000000000000000082E-05 ), #251, 'distance_accuracy_value', 'NONE');
#86 = CARTESIAN_POINT ( 'NONE',  ( 3.491481338843133355E-13, -1.224646799147353217E-14, 100.0000000000000000 ) ) ;
#87 = DIRECTION ( 'NONE',  ( 0.000000000000000000, 1.000000000000000000, 0.000000000000000000 ) ) ;
#88 = EDGE_LOOP ( 'NONE', ( #270, #309, #239, #174 ) ) ;
#89 = AXIS2_PLACEMENT_3D ( 'NONE', #83, #217, #56 ) ;
#90 = DIRECTION ( 'NONE',  ( 4.275831445896958607E-31, 1.000000000000000000, 1.224646799147353207E-16 ) ) ;
#91 = CARTESIAN_POINT ( 'NONE',  ( 7.044195017643625449E-14, -5.000000000000000888, 40.00000000000000000 ) ) ;
#92 = DIRECTION ( 'NONE',  ( 0.000000000000000000, 1.000000000000000000, 0.000000000000000000 ) ) ;
#93 = ORIENTED_EDGE ( 'NONE', *, *, #250, .F. ) ;
#94 = CC_DESIGN_APPROVAL ( #52, ( #138 ) ) ;
#95 = CALENDAR_DATE ( 2023, 31, 3 ) ;
#96 = FACE_OUTER_BOUND ( 'NONE', #122, .T. ) ;
#97 = APPROVAL_DATE_TIME ( #192, #126 ) ;
#98 = COORDINATED_UNIVERSAL_TIME_OFFSET ( 1, 0, .AHEAD. ) ;
#99 = ORIENTED_EDGE ( 'NONE', *, *, #70, .T. ) ;
#100 = ORIENTED_EDGE ( 'NONE', *, *, #255, .F. ) ;
#101 = AXIS2_PLACEMENT_3D ( 'NONE', #86, #108, #92 ) ;
#102 = ORIENTED_EDGE ( 'NONE', *, *, #20, .F. ) ;
#103 = AXIS2_PLACEMENT_3D ( 'NONE', #274, #131, #127 ) ;
#104 = CYLINDRICAL_SURFACE ( 'NONE', #109, 4.999999999999992895 ) ;
#105 = APPROVAL ( #79, 'UNSPECIFIED' ) ;
#106 = ORGANIZATION ( 'UNSPECIFIED', 'UNSPECIFIED', '' ) ;
#107 = CARTESIAN_POINT ( 'NONE',  ( 2.432702764491713998E-13, -5.000000000000000888, 40.00000000000000000 ) ) ;
#108 = DIRECTION ( 'NONE',  ( -3.491481338843133355E-15, 1.224646799147353207E-16, -1.000000000000000000 ) ) ;
#109 = AXIS2_PLACEMENT_3D ( 'NONE', #298, #158, #36 ) ;
#110 = CARTESIAN_POINT ( 'NONE',  ( 1.396592535537253342E-13, -4.898587196589413026E-15, 40.00000000000000000 ) ) ;
#111 = ADVANCED_FACE ( 'NONE', ( #96 ), #146, .F. ) ;
#112 = ORIENTED_EDGE ( 'NONE', *, *, #155, .T. ) ;
#113 = PLANE ( 'NONE',  #24 ) ;
#114 = EDGE_CURVE ( 'NONE', #37, #26, #115, .T. ) ;
#115 = CIRCLE ( 'NONE', #123, 4.999999999999995559 ) ;
#116 = PERSON_AND_ORGANIZATION ( #7, #106 ) ;
#117 = ORIENTED_EDGE ( 'NONE', *, *, #229, .T. ) ;
#118 = SECURITY_CLASSIFICATION_LEVEL ( 'unclassified' ) ;
#119 = VERTEX_POINT ( 'NONE', #121 ) ;
#120 = ORIENTED_EDGE ( 'NONE', *, *, #114, .F. ) ;
#121 = CARTESIAN_POINT ( 'NONE',  ( 4.275799752675880954E-31, 4.999999999999990230, 1.224637721848063933E-16 ) ) ;
#122 = EDGE_LOOP ( 'NONE', ( #175, #299 ) ) ;
#123 = AXIS2_PLACEMENT_3D ( 'NONE', #263, #145, #265 ) ;
#124 = CARTESIAN_POINT ( 'NONE',  ( 0.000000000000000000, 0.000000000000000000, 0.000000000000000000 ) ) ;
#125 = DIRECTION ( 'NONE',  ( -3.491481338843133355E-15, 1.224646799147353207E-16, -1.000000000000000000 ) ) ;
#126 = APPROVAL ( #292, 'UNSPECIFIED' ) ;
#127 = DIRECTION ( 'NONE',  ( -4.275831445896958607E-31, -1.000000000000000000, -1.224646799147353207E-16 ) ) ;
#128 = DIRECTION ( 'NONE',  ( -3.491481338843133355E-15, 1.224646799147353207E-16, -1.000000000000000000 ) ) ;
#129 = CIRCLE ( 'NONE', #171, 5.000000000000003553 ) ;
#130 = DATE_AND_TIME ( #238, #161 ) ;
#131 = DIRECTION ( 'NONE',  ( 3.491481338843133355E-15, -1.224646799147353207E-16, 1.000000000000000000 ) ) ;
#132 = ADVANCED_BREP_SHAPE_REPRESENTATION ( '372717', ( #279, #179, #286 ), #214 ) ;
#133 = APPROVAL_PERSON_ORGANIZATION ( #116, #126, #231 ) ;
#134 = ORIENTED_EDGE ( 'NONE', *, *, #282, .F. ) ;
#135 = CLOSED_SHELL ( 'NONE', ( #271, #177, #162, #3, #40, #223 ) ) ;
#136 = CARTESIAN_POINT ( 'NONE',  ( 1.396592535537253342E-13, 4.999999999999990230, 40.00000000000000000 ) ) ;
#137 = CARTESIAN_POINT ( 'NONE',  ( 2.137915722948476326E-30, 4.999999999999992895, 6.123233995736757408E-16 ) ) ;
#138 = PRODUCT_DEFINITION ( 'UNKNOWN', '', #269, #243 ) ;
#139 = DIRECTION ( 'NONE',  ( -3.491481338843133355E-15, 1.224646799147353207E-16, -1.000000000000000000 ) ) ;
#140 = COORDINATED_UNIVERSAL_TIME_OFFSET ( 1, 0, .AHEAD. ) ;
#141 = ORIENTED_EDGE ( 'NONE', *, *, #312, .T. ) ;
#142 = CARTESIAN_POINT ( 'NONE',  ( 2.137915722948478778E-30, 4.999999999999999112, 6.123233995736765296E-16 ) ) ;
#143 = APPLICATION_PROTOCOL_DEFINITION ( 'international standard', 'config_control_design', 1994, #173 ) ;
#144 = PERSON_AND_ORGANIZATION ( #7, #106 ) ;
#145 = DIRECTION ( 'NONE',  ( -3.491481338843133355E-15, 1.224646799147353207E-16, -1.000000000000000000 ) ) ;
#146 = PLANE ( 'NONE',  #76 ) ;
#147 = VERTEX_POINT ( 'NONE', #176 ) ;
#148 = APPROVAL_PERSON_ORGANIZATION ( #144, #52, #305 ) ;
#149 = PERSON_AND_ORGANIZATION_ROLE ( 'classification_officer' ) ;
#150 = CC_DESIGN_APPROVAL ( #105, ( #227 ) ) ;
#151 = COORDINATED_UNIVERSAL_TIME_OFFSET ( 1, 0, .AHEAD. ) ;
#152 = ORIENTED_EDGE ( 'NONE', *, *, #312, .F. ) ;
#153 = LINE ( 'NONE', #154, #201 ) ;
#154 = CARTESIAN_POINT ( 'NONE',  ( 3.491481338843133355E-13, 3.999999999999991562, 100.0000000000000000 ) ) ;
#155 = EDGE_CURVE ( 'NONE', #266, #72, #195, .T. ) ;
#156 = AXIS2_PLACEMENT_3D ( 'NONE', #159, #10, #203 ) ;
#157 = DATE_AND_TIME ( #241, #301 ) ;
#158 = DIRECTION ( 'NONE',  ( -3.491481338843133355E-15, 1.224646799147353207E-16, -1.000000000000000000 ) ) ;
#159 = CARTESIAN_POINT ( 'NONE',  ( 3.491481338843133355E-13, -1.224646799147353217E-14, 100.0000000000000000 ) ) ;
#160 = EDGE_CURVE ( 'NONE', #72, #276, #258, .T. ) ;
#161 = LOCAL_TIME ( 8, 31, 57.00000000000000000, #240 ) ;
#162 = ADVANCED_FACE ( 'NONE', ( #19 ), #113, .F. ) ;
#163 =( NAMED_UNIT ( * ) SI_UNIT ( $, .STERADIAN. ) SOLID_ANGLE_UNIT ( ) );
#164 = PRODUCT ( '372717', '372717', '', ( #48 ) ) ;
#165 = ORIENTED_EDGE ( 'NONE', *, *, #20, .T. ) ;
#166 = DIRECTION ( 'NONE',  ( 0.000000000000000000, 1.000000000000000000, 0.000000000000000000 ) ) ;
#167 = CALENDAR_DATE ( 2023, 31, 3 ) ;
#168 = DIRECTION ( 'NONE',  ( -3.491481338843133355E-15, 1.224646799147353207E-16, -1.000000000000000000 ) ) ;
#169 = PERSON_AND_ORGANIZATION ( #7, #106 ) ;
#170 = DIRECTION ( 'NONE',  ( 0.000000000000000000, 1.000000000000000000, 0.000000000000000000 ) ) ;
#171 = AXIS2_PLACEMENT_3D ( 'NONE', #29, #181, #245 ) ;
#172 = ORIENTED_EDGE ( 'NONE', *, *, #70, .F. ) ;
#173 = APPLICATION_CONTEXT ( 'configuration controlled 3d designs of mechanical parts and assemblies' ) ;
#174 = ORIENTED_EDGE ( 'NONE', *, *, #155, .F. ) ;
#175 = ORIENTED_EDGE ( 'NONE', *, *, #282, .T. ) ;
#176 = CARTESIAN_POINT ( 'NONE',  ( 3.491481338843133355E-13, 3.999999999999991562, 100.0000000000000000 ) ) ;
#177 = ADVANCED_FACE ( 'NONE', ( #277 ), #62, .T. ) ;
#178 = LOCAL_TIME ( 8, 31, 57.00000000000000000, #17 ) ;
#179 = MANIFOLD_SOLID_BREP ( 'Corps-Déplacer/Copier1[2]', #189 ) ;
#180 = PERSON_AND_ORGANIZATION ( #7, #106 ) ;
#181 = DIRECTION ( 'NONE',  ( -3.491481338843133355E-15, 1.224646799147353207E-16, -1.000000000000000000 ) ) ;
#182 = APPROVAL_PERSON_ORGANIZATION ( #180, #105, #268 ) ;
#183 = DIRECTION ( 'NONE',  ( -3.491481338843133355E-15, 1.224646799147353207E-16, -1.000000000000000000 ) ) ;
#184 = CARTESIAN_POINT ( 'NONE',  ( 3.479534842745080959E-13, -4.000000000000015987, 100.0000000000000000 ) ) ;
#185 = LINE ( 'NONE', #278, #208 ) ;
#186 = FACE_OUTER_BOUND ( 'NONE', #260, .T. ) ;
#187 = EDGE_CURVE ( 'NONE', #216, #119, #275, .T. ) ;
#188 = DIRECTION ( 'NONE',  ( -3.491481338843133355E-15, 1.224646799147353207E-16, -1.000000000000000000 ) ) ;
#189 = CLOSED_SHELL ( 'NONE', ( #247, #111, #273, #212 ) ) ;
#190 = DIRECTION ( 'NONE',  ( -2.382254525458717469E-15, -0.7071067811865471286, -0.7071067811865479058 ) ) ;
#191 = AXIS2_PLACEMENT_3D ( 'NONE', #284, #303, #87 ) ;
#192 = DATE_AND_TIME ( #95, #178 ) ;
#193 = PERSON_AND_ORGANIZATION ( #7, #106 ) ;
#194 = APPROVAL_STATUS ( 'not_yet_approved' ) ;
#195 = CIRCLE ( 'NONE', #300, 5.000000000000003553 ) ;
#196 = PLANE ( 'NONE',  #89 ) ;
#197 = CC_DESIGN_PERSON_AND_ORGANIZATION_ASSIGNMENT ( #193, #71, ( #269 ) ) ;
#198 = FACE_OUTER_BOUND ( 'NONE', #69, .T. ) ;
#199 = EDGE_LOOP ( 'NONE', ( #152, #78 ) ) ;
#200 = FACE_OUTER_BOUND ( 'NONE', #30, .T. ) ;
#201 = VECTOR ( 'NONE', #242, 999.9999999999998863 ) ;
#202 = ORIENTED_EDGE ( 'NONE', *, *, #244, .T. ) ;
#203 = DIRECTION ( 'NONE',  ( 0.000000000000000000, 1.000000000000000000, 0.000000000000000000 ) ) ;
#204 = CARTESIAN_POINT ( 'NONE',  ( 0.000000000000000000, 0.000000000000000000, 0.000000000000000000 ) ) ;
#205 = DIRECTION ( 'NONE',  ( -3.491481338843133355E-15, 1.224646799147353207E-16, -1.000000000000000000 ) ) ;
#206 = APPROVAL_DATE_TIME ( #233, #52 ) ;
#207 = CARTESIAN_POINT ( 'NONE',  ( 1.396592535537253342E-13, 3.749399456654633072E-32, 40.00000000000000000 ) ) ;
#208 = VECTOR ( 'NONE', #12, 1000.000000000000000 ) ;
#209 = PERSON_AND_ORGANIZATION_ROLE ( 'design_owner' ) ;
#210 = ORIENTED_EDGE ( 'NONE', *, *, #55, .T. ) ;
#211 = DATE_TIME_ROLE ( 'creation_date' ) ;
#212 = ADVANCED_FACE ( 'NONE', ( #4 ), #28, .T. ) ;
#213 = EDGE_CURVE ( 'NONE', #37, #216, #218, .T. ) ;
#214 =( GEOMETRIC_REPRESENTATION_CONTEXT ( 3 ) GLOBAL_UNCERTAINTY_ASSIGNED_CONTEXT ( ( #85 ) ) GLOBAL_UNIT_ASSIGNED_CONTEXT ( ( #251, #283, #163 ) ) REPRESENTATION_CONTEXT ( 'NONE', 'WORKASPACE' ) );
#215 = DATE_TIME_ROLE ( 'classification_date' ) ;
#216 = VERTEX_POINT ( 'NONE', #295 ) ;
#217 = DIRECTION ( 'NONE',  ( -3.491481338843133355E-15, 1.224646799147353207E-16, -1.000000000000000000 ) ) ;
#218 = LINE ( 'NONE', #9, #313 ) ;
#219 = CARTESIAN_POINT ( 'NONE',  ( 2.432702764491712988E-13, -5.000000000000015987, 99.00000000000000000 ) ) ;
#220 = DIRECTION ( 'NONE',  ( 0.000000000000000000, 1.000000000000000000, 0.000000000000000000 ) ) ;
#221 = ORIENTED_EDGE ( 'NONE', *, *, #187, .F. ) ;
#222 = AXIS2_PLACEMENT_3D ( 'NONE', #82, #128, #220 ) ;
#223 = ADVANCED_FACE ( 'NONE', ( #59 ), #196, .F. ) ;
#224 = LINE ( 'NONE', #31, #264 ) ;
#225 = DIRECTION ( 'NONE',  ( -4.275831445896958607E-31, -1.000000000000000000, -1.224646799147353207E-16 ) ) ;
#226 = LOCAL_TIME ( 8, 31, 57.00000000000000000, #98 ) ;
#227 = SECURITY_CLASSIFICATION ( '', '', #118 ) ;
#228 = CARTESIAN_POINT ( 'NONE',  ( 1.396592535537253342E-13, -4.898587196589413026E-15, 40.00000000000000000 ) ) ;
#229 = EDGE_CURVE ( 'NONE', #288, #266, #224, .T. ) ;
#230 = AXIS2_PLACEMENT_3D ( 'NONE', #110, #205, #170 ) ;
#231 = APPROVAL_ROLE ( '' ) ;
#232 = DIRECTION ( 'NONE',  ( -3.491481338843133355E-15, 1.224646799147353207E-16, -1.000000000000000000 ) ) ;
#233 = DATE_AND_TIME ( #289, #226 ) ;
#234 = AXIS2_PLACEMENT_3D ( 'NONE', #38, #296, #84 ) ;
#235 = ORIENTED_EDGE ( 'NONE', *, *, #114, .T. ) ;
#236 = DATE_AND_TIME ( #167, #307 ) ;
#237 = CC_DESIGN_PERSON_AND_ORGANIZATION_ASSIGNMENT ( #47, #209, ( #164 ) ) ;
#238 = CALENDAR_DATE ( 2023, 31, 3 ) ;
#239 = ORIENTED_EDGE ( 'NONE', *, *, #250, .T. ) ;
#240 = COORDINATED_UNIVERSAL_TIME_OFFSET ( 1, 0, .AHEAD. ) ;
#241 = CALENDAR_DATE ( 2023, 31, 3 ) ;
#242 = DIRECTION ( 'NONE',  ( -2.468850131082266527E-15, 0.7071067811865473507, -0.7071067811865477948 ) ) ;
#243 = DESIGN_CONTEXT ( 'detailed design', #173, 'design' ) ;
#244 = EDGE_CURVE ( 'NONE', #276, #49, #280, .T. ) ;
#245 = DIRECTION ( 'NONE',  ( 0.000000000000000000, 1.000000000000000000, 0.000000000000000000 ) ) ;
#246 = DIRECTION ( 'NONE',  ( -3.491481338843133355E-15, 1.224646799147353207E-16, -1.000000000000000000 ) ) ;
#247 = ADVANCED_FACE ( 'NONE', ( #186 ), #42, .T. ) ;
#248 = VECTOR ( 'NONE', #253, 1000.000000000000000 ) ;
#249 = APPROVAL_DATE_TIME ( #157, #105 ) ;
#250 = EDGE_CURVE ( 'NONE', #147, #72, #153, .T. ) ;
#251 =( LENGTH_UNIT ( ) NAMED_UNIT ( * ) SI_UNIT ( .MILLI., .METRE. ) );
#252 = CC_DESIGN_PERSON_AND_ORGANIZATION_ASSIGNMENT ( #311, #149, ( #227 ) ) ;
#253 = DIRECTION ( 'NONE',  ( -3.491481338843133355E-15, 1.224646799147353207E-16, -1.000000000000000000 ) ) ;
#254 = APPLICATION_PROTOCOL_DEFINITION ( 'international standard', 'config_control_design', 1994, #80 ) ;
#255 = EDGE_CURVE ( 'NONE', #72, #266, #129, .T. ) ;
#256 = AXIS2_PLACEMENT_3D ( 'NONE', #228, #183, #61 ) ;
#257 = CC_DESIGN_PERSON_AND_ORGANIZATION_ASSIGNMENT ( #169, #25, ( #269 ) ) ;
#258 = LINE ( 'NONE', #142, #27 ) ;
#259 = DIRECTION ( 'NONE',  ( 0.000000000000000000, 0.000000000000000000, 1.000000000000000000 ) ) ;
#260 = EDGE_LOOP ( 'NONE', ( #294, #64, #134, #172 ) ) ;
#261 = DIRECTION ( 'NONE',  ( 4.275831445896958607E-31, 1.000000000000000000, 1.224646799147353207E-16 ) ) ;
#262 = DIRECTION ( 'NONE',  ( 1.000000000000000000, 0.000000000000000000, 0.000000000000000000 ) ) ;
#263 = CARTESIAN_POINT ( 'NONE',  ( 1.396592535537253342E-13, -4.898587196589413026E-15, 40.00000000000000000 ) ) ;
#264 = VECTOR ( 'NONE', #190, 1000.000000000000000 ) ;
#265 = DIRECTION ( 'NONE',  ( 0.000000000000000000, 1.000000000000000000, 0.000000000000000000 ) ) ;
#266 = VERTEX_POINT ( 'NONE', #219 ) ;
#267 = FACE_OUTER_BOUND ( 'NONE', #50, .T. ) ;
#268 = APPROVAL_ROLE ( '' ) ;
#269 = PRODUCT_DEFINITION_FORMATION_WITH_SPECIFIED_SOURCE ( 'ANY', '', #164, .NOT_KNOWN. ) ;
#270 = ORIENTED_EDGE ( 'NONE', *, *, #229, .F. ) ;
#271 = ADVANCED_FACE ( 'NONE', ( #198 ), #73, .T. ) ;
#272 = DIRECTION ( 'NONE',  ( 4.275831445896958607E-31, 1.000000000000000000, 1.224646799147353207E-16 ) ) ;
#273 = ADVANCED_FACE ( 'NONE', ( #200 ), #104, .T. ) ;
#274 = CARTESIAN_POINT ( 'NONE',  ( 1.396592535537253342E-13, 3.749399456654633072E-32, 40.00000000000000000 ) ) ;
#275 = CIRCLE ( 'NONE', #63, 4.999999999999990230 ) ;
#276 = VERTEX_POINT ( 'NONE', #136 ) ;
#277 = FACE_OUTER_BOUND ( 'NONE', #290, .T. ) ;
#278 = CARTESIAN_POINT ( 'NONE',  ( 6.123233995736743603E-16, -4.999999999999999112, -6.123233995736786004E-16 ) ) ;
#279 = MANIFOLD_SOLID_BREP ( 'Corps-Déplacer/Copier1[1]', #135 ) ;
#280 = CIRCLE ( 'NONE', #256, 4.999999999999995559 ) ;
#281 = FACE_OUTER_BOUND ( 'NONE', #88, .T. ) ;
#282 = EDGE_CURVE ( 'NONE', #119, #216, #33, .T. ) ;
#283 =( NAMED_UNIT ( * ) PLANE_ANGLE_UNIT ( ) SI_UNIT ( $, .RADIAN. ) );
#284 = CARTESIAN_POINT ( 'NONE',  ( 3.491481338843133355E-13, -1.224646799147353217E-14, 100.0000000000000000 ) ) ;
#285 = DIRECTION ( 'NONE',  ( -3.491481338843133355E-15, 1.224646799147353207E-16, -1.000000000000000000 ) ) ;
#286 = AXIS2_PLACEMENT_3D ( 'NONE', #45, #259, #262 ) ;
#287 = DIRECTION ( 'NONE',  ( 3.491481338843133355E-15, -1.224646799147353207E-16, 1.000000000000000000 ) ) ;
#288 = VERTEX_POINT ( 'NONE', #184 ) ;
#289 = CALENDAR_DATE ( 2023, 31, 3 ) ;
#290 = EDGE_LOOP ( 'NONE', ( #306, #210, #77, #21 ) ) ;
#291 = EDGE_CURVE ( 'NONE', #288, #147, #53, .T. ) ;
#292 = APPROVAL_STATUS ( 'not_yet_approved' ) ;
#293 = AXIS2_PLACEMENT_3D ( 'NONE', #304, #285, #90 ) ;
#294 = ORIENTED_EDGE ( 'NONE', *, *, #75, .T. ) ;
#295 = CARTESIAN_POINT ( 'NONE',  ( 7.044195017643630498E-14, -4.999999999999990230, -1.102183026962790399E-15 ) ) ;
#296 = DIRECTION ( 'NONE',  ( -3.491481338843133355E-15, 1.224646799147353207E-16, -1.000000000000000000 ) ) ;
#297 = CARTESIAN_POINT ( 'NONE',  ( 3.491481338843133355E-13, -1.224646799147353217E-14, 100.0000000000000000 ) ) ;
#298 = CARTESIAN_POINT ( 'NONE',  ( 0.000000000000000000, 0.000000000000000000, 0.000000000000000000 ) ) ;
#299 = ORIENTED_EDGE ( 'NONE', *, *, #187, .T. ) ;
#300 = AXIS2_PLACEMENT_3D ( 'NONE', #67, #139, #166 ) ;
#301 = LOCAL_TIME ( 8, 31, 57.00000000000000000, #151 ) ;
#302 = AXIS2_PLACEMENT_3D ( 'NONE', #124, #168, #261 ) ;
#303 = DIRECTION ( 'NONE',  ( -3.491481338843133355E-15, 1.224646799147353207E-16, -1.000000000000000000 ) ) ;
#304 = CARTESIAN_POINT ( 'NONE',  ( -1.710335747680887179E-30, 5.999050247132936168E-32, -4.898596273888690270E-16 ) ) ;
#305 = APPROVAL_ROLE ( '' ) ;
#306 = ORIENTED_EDGE ( 'NONE', *, *, #255, .T. ) ;
#307 = LOCAL_TIME ( 8, 31, 57.00000000000000000, #140 ) ;
#308 = PERSON_AND_ORGANIZATION ( #7, #106 ) ;
#309 = ORIENTED_EDGE ( 'NONE', *, *, #291, .T. ) ;
#310 = DIRECTION ( 'NONE',  ( -4.275831445896958607E-31, -1.000000000000000000, -1.224646799147353207E-16 ) ) ;
#311 = PERSON_AND_ORGANIZATION ( #7, #106 ) ;
#312 = EDGE_CURVE ( 'NONE', #147, #288, #58, .T. ) ;
#313 = VECTOR ( 'NONE', #125, 1000.000000000000000 ) ;
ENDSEC;
END-ISO-10303-21;
