ISO-10303-21;
HEADER;
FILE_DESCRIPTION (( 'STEP AP203' ),
    '1' );
FILE_NAME ('372716.step',
    '2023-03-31T06:31:56',
    ( '' ),
    ( '' ),
    'SwSTEP 2.0',
    'SolidWorks 2022',
    '' );
FILE_SCHEMA (( 'CONFIG_CONTROL_DESIGN' ));
ENDSEC;

DATA;
#1 = DIRECTION ( 'NONE',  ( 4.275831445896959482E-31, 1.000000000000000000, 1.224646799147353207E-16 ) ) ;
#2 = ADVANCED_FACE ( 'NONE', ( #170 ), #103, .T. ) ;
#3 = VERTEX_POINT ( 'NONE', #238 ) ;
#4 = PRODUCT ( '372716', '372716', '', ( #188 ) ) ;
#5 = CIRCLE ( 'NONE', #175, 4.999999999999994671 ) ;
#6 = ORIENTED_EDGE ( 'NONE', *, *, #303, .F. ) ;
#7 = ORIENTED_EDGE ( 'NONE', *, *, #58, .T. ) ;
#8 = DESIGN_CONTEXT ( 'detailed design', #280, 'design' ) ;
#9 = ADVANCED_FACE ( 'NONE', ( #22 ), #261, .F. ) ;
#10 = CARTESIAN_POINT ( 'NONE',  ( 1.047444401652940007E-13, 3.749399456654635261E-32, 30.00000000000000000 ) ) ;
#11 = PRODUCT_DEFINITION ( 'UNKNOWN', '', #83, #8 ) ;
#12 = DIRECTION ( 'NONE',  ( -2.382254525458736402E-15, -0.7071067811865419106, -0.7071067811865531239 ) ) ;
#13 = DIRECTION ( 'NONE',  ( -4.275831445896958607E-31, -1.000000000000000000, -1.224646799147353207E-16 ) ) ;
#14 = MANIFOLD_SOLID_BREP ( 'Corps-Déplacer/Copier1[1]', #202 ) ;
#15 = CARTESIAN_POINT ( 'NONE',  ( 1.047444401652940007E-13, 4.999999999999991118, 30.00000000000000000 ) ) ;
#16 = PERSON_AND_ORGANIZATION_ROLE ( 'design_supplier' ) ;
#17 = DIRECTION ( 'NONE',  ( -3.491481338843133355E-15, 1.224646799147353207E-16, -1.000000000000000000 ) ) ;
#18 = COORDINATED_UNIVERSAL_TIME_OFFSET ( 1, 0, .AHEAD. ) ;
#19 = EDGE_CURVE ( 'NONE', #53, #171, #54, .T. ) ;
#20 = CARTESIAN_POINT ( 'NONE',  ( 1.047444401652940007E-13, -3.673940397442059178E-15, 30.00000000000000000 ) ) ;
#21 = AXIS2_PLACEMENT_3D ( 'NONE', #203, #46, #307 ) ;
#22 = FACE_OUTER_BOUND ( 'NONE', #268, .T. ) ;
#23 = EDGE_LOOP ( 'NONE', ( #129, #76 ) ) ;
#24 = DIRECTION ( 'NONE',  ( -3.491481338843133355E-15, 1.224646799147353207E-16, -1.000000000000000000 ) ) ;
#25 = VERTEX_POINT ( 'NONE', #77 ) ;
#26 = SECURITY_CLASSIFICATION ( '', '', #47 ) ;
#27 = EDGE_LOOP ( 'NONE', ( #138, #166 ) ) ;
#28 = PERSON_AND_ORGANIZATION_ROLE ( 'design_owner' ) ;
#29 = CC_DESIGN_PERSON_AND_ORGANIZATION_ASSIGNMENT ( #176, #28, ( #4 ) ) ;
#30 = AXIS2_PLACEMENT_3D ( 'NONE', #305, #278, #66 ) ;
#31 = EDGE_CURVE ( 'NONE', #273, #149, #168, .T. ) ;
#32 = CLOSED_SHELL ( 'NONE', ( #270, #125, #276, #67 ) ) ;
#33 = FACE_OUTER_BOUND ( 'NONE', #81, .T. ) ;
#34 = DIRECTION ( 'NONE',  ( -3.491481338843133355E-15, 1.224646799147353207E-16, -1.000000000000000000 ) ) ;
#35 = CYLINDRICAL_SURFACE ( 'NONE', #153, 4.999999999999998224 ) ;
#36 = VECTOR ( 'NONE', #12, 1000.000000000000000 ) ;
#37 = EDGE_LOOP ( 'NONE', ( #128, #79, #7, #80 ) ) ;
#38 = PERSON_AND_ORGANIZATION ( #216, #73 ) ;
#39 = EDGE_CURVE ( 'NONE', #102, #101, #108, .T. ) ;
#40 = CARTESIAN_POINT ( 'NONE',  ( 0.000000000000000000, 0.000000000000000000, 0.000000000000000000 ) ) ;
#41 = PRODUCT_RELATED_PRODUCT_CATEGORY ( 'detail', '', ( #4 ) ) ;
#42 = CARTESIAN_POINT ( 'NONE',  ( 2.137915722948475975E-30, 4.999999999999992006, 6.123233995736756422E-16 ) ) ;
#43 = PERSON_AND_ORGANIZATION_ROLE ( 'creator' ) ;
#44 = DIRECTION ( 'NONE',  ( -3.491481338843133355E-15, 1.224646799147353207E-16, -1.000000000000000000 ) ) ;
#45 = CIRCLE ( 'NONE', #296, 5.000000000000001776 ) ;
#46 = DIRECTION ( 'NONE',  ( -3.491481338843133355E-15, 1.224646799147353207E-16, -1.000000000000000000 ) ) ;
#47 = SECURITY_CLASSIFICATION_LEVEL ( 'unclassified' ) ;
#48 = EDGE_CURVE ( 'NONE', #191, #171, #190, .T. ) ;
#49 = CYLINDRICAL_SURFACE ( 'NONE', #30, 4.999999999999992006 ) ;
#50 = CARTESIAN_POINT ( 'NONE',  ( 1.821693530194164588E-13, -5.000000000000009770, 73.99999999999998579 ) ) ;
#51 = CC_DESIGN_SECURITY_CLASSIFICATION ( #26, ( #83 ) ) ;
#52 = ORIENTED_EDGE ( 'NONE', *, *, #174, .F. ) ;
#53 = VERTEX_POINT ( 'NONE', #61 ) ;
#54 = LINE ( 'NONE', #236, #113 ) ;
#55 = APPLICATION_PROTOCOL_DEFINITION ( 'international standard', 'config_control_design', 1994, #219 ) ;
#56 = ORIENTED_EDGE ( 'NONE', *, *, #112, .T. ) ;
#57 = CIRCLE ( 'NONE', #167, 4.999999999999994671 ) ;
#58 = EDGE_CURVE ( 'NONE', #101, #25, #154, .T. ) ;
#59 = ORIENTED_EDGE ( 'NONE', *, *, #252, .T. ) ;
#60 = CIRCLE ( 'NONE', #195, 4.000000000000002665 ) ;
#61 = CARTESIAN_POINT ( 'NONE',  ( 5.298454348222063189E-14, -4.999999999999998224, 30.00000000000000000 ) ) ;
#62 = DIRECTION ( 'NONE',  ( -3.491481338843133355E-15, 1.224646799147353207E-16, -1.000000000000000000 ) ) ;
#63 = AXIS2_PLACEMENT_3D ( 'NONE', #84, #300, #110 ) ;
#64 = DATE_AND_TIME ( #198, #186 ) ;
#65 = CARTESIAN_POINT ( 'NONE',  ( 2.618611004132350143E-13, 3.999999999999993339, 75.00000000000000000 ) ) ;
#66 = DIRECTION ( 'NONE',  ( 4.275831445896958607E-31, 1.000000000000000000, 1.224646799147353207E-16 ) ) ;
#67 = ADVANCED_FACE ( 'NONE', ( #254 ), #109, .T. ) ;
#68 = DIRECTION ( 'NONE',  ( 4.275831445896958607E-31, 1.000000000000000000, 1.224646799147353207E-16 ) ) ;
#69 = PERSON_AND_ORGANIZATION_ROLE ( 'classification_officer' ) ;
#70 = AXIS2_PLACEMENT_3D ( 'NONE', #255, #91, #92 ) ;
#71 = VECTOR ( 'NONE', #275, 1000.000000000000000 ) ;
#72 = CC_DESIGN_PERSON_AND_ORGANIZATION_ASSIGNMENT ( #182, #16, ( #83 ) ) ;
#73 = ORGANIZATION ( 'UNSPECIFIED', 'UNSPECIFIED', '' ) ;
#74 = DIRECTION ( 'NONE',  ( 0.000000000000000000, 1.000000000000000000, 0.000000000000000000 ) ) ;
#75 = CALENDAR_DATE ( 2023, 31, 3 ) ;
#76 = ORIENTED_EDGE ( 'NONE', *, *, #112, .F. ) ;
#77 = CARTESIAN_POINT ( 'NONE',  ( 2.583696190743917926E-13, 4.999999999999992895, 73.99999999999998579 ) ) ;
#78 = DIRECTION ( 'NONE',  ( 4.275831445896958607E-31, 1.000000000000000000, 1.224646799147353207E-16 ) ) ;
#79 = ORIENTED_EDGE ( 'NONE', *, *, #39, .T. ) ;
#80 = ORIENTED_EDGE ( 'NONE', *, *, #224, .F. ) ;
#81 = EDGE_LOOP ( 'NONE', ( #214, #178 ) ) ;
#82 = DIRECTION ( 'NONE',  ( 4.275831445896958607E-31, 1.000000000000000000, 1.224646799147353207E-16 ) ) ;
#83 = PRODUCT_DEFINITION_FORMATION_WITH_SPECIFIED_SOURCE ( 'ANY', '', #4, .NOT_KNOWN. ) ;
#84 = CARTESIAN_POINT ( 'NONE',  ( -1.710332297431663329E-30, 5.999038145287737349E-32, -4.898586391982162561E-16 ) ) ;
#85 = CARTESIAN_POINT ( 'NONE',  ( 1.047444401652940007E-13, 3.749399456654635261E-32, 30.00000000000000000 ) ) ;
#86 = FACE_OUTER_BOUND ( 'NONE', #27, .T. ) ;
#87 = ORIENTED_EDGE ( 'NONE', *, *, #39, .F. ) ;
#88 = AXIS2_PLACEMENT_3D ( 'NONE', #10, #156, #249 ) ;
#89 = PERSON_AND_ORGANIZATION_ROLE ( 'creator' ) ;
#90 = PERSON_AND_ORGANIZATION ( #216, #73 ) ;
#91 = DIRECTION ( 'NONE',  ( -3.491481338843133355E-15, 1.224646799147353207E-16, -1.000000000000000000 ) ) ;
#92 = DIRECTION ( 'NONE',  ( 0.000000000000000000, 1.000000000000000000, 0.000000000000000000 ) ) ;
#93 = DATE_AND_TIME ( #312, #291 ) ;
#94 = AXIS2_PLACEMENT_3D ( 'NONE', #122, #98, #209 ) ;
#95 = DATE_TIME_ROLE ( 'classification_date' ) ;
#96 =( LENGTH_UNIT ( ) NAMED_UNIT ( * ) SI_UNIT ( .MILLI., .METRE. ) );
#97 = ADVANCED_FACE ( 'NONE', ( #173 ), #35, .T. ) ;
#98 = DIRECTION ( 'NONE',  ( -3.491481338843133355E-15, 1.224646799147353207E-16, -1.000000000000000000 ) ) ;
#99 = APPROVAL ( #234, 'UNSPECIFIED' ) ;
#100 = CIRCLE ( 'NONE', #257, 4.999999999999994671 ) ;
#101 = VERTEX_POINT ( 'NONE', #271 ) ;
#102 = VERTEX_POINT ( 'NONE', #107 ) ;
#103 = CYLINDRICAL_SURFACE ( 'NONE', #297, 4.999999999999998224 ) ;
#104 = ADVANCED_FACE ( 'NONE', ( #33 ), #250, .F. ) ;
#105 = APPROVAL_STATUS ( 'not_yet_approved' ) ;
#106 = CIRCLE ( 'NONE', #70, 5.000000000000001776 ) ;
#107 = CARTESIAN_POINT ( 'NONE',  ( 2.606664508034296737E-13, -4.000000000000012434, 75.00000000000000000 ) ) ;
#108 = CIRCLE ( 'NONE', #217, 4.000000000000002665 ) ;
#109 = PLANE ( 'NONE',  #88 ) ;
#110 = DIRECTION ( 'NONE',  ( 4.275831445896958607E-31, 1.000000000000000000, 1.224646799147353207E-16 ) ) ;
#111 = ORIENTED_EDGE ( 'NONE', *, *, #243, .F. ) ;
#112 = EDGE_CURVE ( 'NONE', #53, #3, #159, .T. ) ;
#113 = VECTOR ( 'NONE', #241, 1000.000000000000000 ) ;
#114 = APPROVAL_STATUS ( 'not_yet_approved' ) ;
#115 = FACE_OUTER_BOUND ( 'NONE', #240, .T. ) ;
#116 = SHAPE_DEFINITION_REPRESENTATION ( #179, #134 ) ;
#117 = CARTESIAN_POINT ( 'NONE',  ( -1.710332297431663329E-30, 5.999038145287737349E-32, -4.898586391982162561E-16 ) ) ;
#118 = APPROVAL_DATE_TIME ( #93, #99 ) ;
#119 = APPROVAL_DATE_TIME ( #145, #237 ) ;
#120 = LOCAL_TIME ( 8, 31, 56.00000000000000000, #301 ) ;
#121 = DIRECTION ( 'NONE',  ( 0.000000000000000000, 0.000000000000000000, 1.000000000000000000 ) ) ;
#122 = CARTESIAN_POINT ( 'NONE',  ( 2.618611004132350143E-13, -9.184850993605148733E-15, 75.00000000000000000 ) ) ;
#123 = MANIFOLD_SOLID_BREP ( 'Corps-Déplacer/Copier1[2]', #32 ) ;
#124 = CARTESIAN_POINT ( 'NONE',  ( 6.123233995736742617E-16, -4.999999999999998224, -6.123233995736785018E-16 ) ) ;
#125 = ADVANCED_FACE ( 'NONE', ( #86 ), #298, .F. ) ;
#126 = ORIENTED_EDGE ( 'NONE', *, *, #31, .T. ) ;
#127 = CIRCLE ( 'NONE', #130, 4.999999999999990230 ) ;
#128 = ORIENTED_EDGE ( 'NONE', *, *, #135, .F. ) ;
#129 = ORIENTED_EDGE ( 'NONE', *, *, #310, .F. ) ;
#130 = AXIS2_PLACEMENT_3D ( 'NONE', #117, #144, #68 ) ;
#131 = AXIS2_PLACEMENT_3D ( 'NONE', #137, #34, #227 ) ;
#132 = LINE ( 'NONE', #223, #36 ) ;
#133 = DIRECTION ( 'NONE',  ( 3.491481338843133355E-15, -1.224646799147353207E-16, 1.000000000000000000 ) ) ;
#134 = ADVANCED_BREP_SHAPE_REPRESENTATION ( '372716', ( #14, #123, #172 ), #311 ) ;
#135 = EDGE_CURVE ( 'NONE', #102, #273, #132, .T. ) ;
#136 = COORDINATED_UNIVERSAL_TIME_OFFSET ( 1, 0, .AHEAD. ) ;
#137 = CARTESIAN_POINT ( 'NONE',  ( 1.047444401652940007E-13, -3.673940397442059178E-15, 30.00000000000000000 ) ) ;
#138 = ORIENTED_EDGE ( 'NONE', *, *, #48, .T. ) ;
#139 = DATE_TIME_ROLE ( 'creation_date' ) ;
#140 = DIRECTION ( 'NONE',  ( -3.491481338843133355E-15, 1.224646799147353207E-16, -1.000000000000000000 ) ) ;
#141 = COORDINATED_UNIVERSAL_TIME_OFFSET ( 1, 0, .AHEAD. ) ;
#142 = CONICAL_SURFACE ( 'NONE', #21, 4.000000000000002665, 0.7853981633974405074 ) ;
#143 =( NAMED_UNIT ( * ) SI_UNIT ( $, .STERADIAN. ) SOLID_ANGLE_UNIT ( ) );
#144 = DIRECTION ( 'NONE',  ( -3.491481338843133355E-15, 1.224646799147353207E-16, -1.000000000000000000 ) ) ;
#145 = DATE_AND_TIME ( #256, #120 ) ;
#146 = DIRECTION ( 'NONE',  ( -3.491481338843133355E-15, 1.224646799147353207E-16, -1.000000000000000000 ) ) ;
#147 = ORIENTED_EDGE ( 'NONE', *, *, #135, .T. ) ;
#148 = CC_DESIGN_DATE_AND_TIME_ASSIGNMENT ( #161, #139, ( #11 ) ) ;
#149 = VERTEX_POINT ( 'NONE', #196 ) ;
#150 = EDGE_LOOP ( 'NONE', ( #266, #244, #59, #210 ) ) ;
#151 = ORIENTED_EDGE ( 'NONE', *, *, #243, .T. ) ;
#152 = APPLICATION_PROTOCOL_DEFINITION ( 'international standard', 'config_control_design', 1994, #280 ) ;
#153 = AXIS2_PLACEMENT_3D ( 'NONE', #40, #194, #295 ) ;
#154 = LINE ( 'NONE', #65, #193 ) ;
#155 = EDGE_CURVE ( 'NONE', #25, #273, #45, .T. ) ;
#156 = DIRECTION ( 'NONE',  ( 3.491481338843133355E-15, -1.224646799147353207E-16, 1.000000000000000000 ) ) ;
#157 = CARTESIAN_POINT ( 'NONE',  ( -8.551661487158316647E-31, 2.999519072643868674E-32, -2.449293195991081280E-16 ) ) ;
#158 = ORIENTED_EDGE ( 'NONE', *, *, #58, .F. ) ;
#159 = CIRCLE ( 'NONE', #131, 4.999999999999994671 ) ;
#160 = CC_DESIGN_DATE_AND_TIME_ASSIGNMENT ( #184, #95, ( #26 ) ) ;
#161 = DATE_AND_TIME ( #277, #222 ) ;
#162 = DIRECTION ( 'NONE',  ( 0.000000000000000000, 1.000000000000000000, 0.000000000000000000 ) ) ;
#163 = CARTESIAN_POINT ( 'NONE',  ( 2.583696190743917926E-13, -9.062386313690412007E-15, 73.99999999999998579 ) ) ;
#164 = DIRECTION ( 'NONE',  ( -3.491481338843133355E-15, 1.224646799147353207E-16, -1.000000000000000000 ) ) ;
#165 = APPROVAL_ROLE ( '' ) ;
#166 = ORIENTED_EDGE ( 'NONE', *, *, #213, .T. ) ;
#167 = AXIS2_PLACEMENT_3D ( 'NONE', #205, #308, #162 ) ;
#168 = LINE ( 'NONE', #124, #71 ) ;
#169 = EDGE_LOOP ( 'NONE', ( #283, #56, #212, #264 ) ) ;
#170 = FACE_OUTER_BOUND ( 'NONE', #199, .T. ) ;
#171 = VERTEX_POINT ( 'NONE', #258 ) ;
#172 = AXIS2_PLACEMENT_3D ( 'NONE', #239, #121, #242 ) ;
#173 = FACE_OUTER_BOUND ( 'NONE', #150, .T. ) ;
#174 = EDGE_CURVE ( 'NONE', #3, #191, #185, .T. ) ;
#175 = AXIS2_PLACEMENT_3D ( 'NONE', #284, #309, #260 ) ;
#176 = PERSON_AND_ORGANIZATION ( #216, #73 ) ;
#177 = DIRECTION ( 'NONE',  ( -2.468850131082284276E-15, 0.7071067811865421326, -0.7071067811865530128 ) ) ;
#178 = ORIENTED_EDGE ( 'NONE', *, *, #265, .T. ) ;
#179 = PRODUCT_DEFINITION_SHAPE ( 'NONE', 'NONE',  #11 ) ;
#180 = CONICAL_SURFACE ( 'NONE', #94, 4.000000000000002665, 0.7853981633974405074 ) ;
#181 = DIRECTION ( 'NONE',  ( -3.491481338843133355E-15, 1.224646799147353207E-16, -1.000000000000000000 ) ) ;
#182 = PERSON_AND_ORGANIZATION ( #216, #73 ) ;
#183 = CARTESIAN_POINT ( 'NONE',  ( 2.618611004132350143E-13, -9.184850993605148733E-15, 75.00000000000000000 ) ) ;
#184 = DATE_AND_TIME ( #75, #269 ) ;
#185 = LINE ( 'NONE', #42, #230 ) ;
#186 = LOCAL_TIME ( 8, 31, 56.00000000000000000, #274 ) ;
#187 =( NAMED_UNIT ( * ) PLANE_ANGLE_UNIT ( ) SI_UNIT ( $, .RADIAN. ) );
#188 = MECHANICAL_CONTEXT ( 'NONE', #219, 'mechanical' ) ;
#189 = FACE_OUTER_BOUND ( 'NONE', #169, .T. ) ;
#190 = CIRCLE ( 'NONE', #63, 4.999999999999990230 ) ;
#191 = VERTEX_POINT ( 'NONE', #282 ) ;
#192 = ORIENTED_EDGE ( 'NONE', *, *, #252, .F. ) ;
#193 = VECTOR ( 'NONE', #177, 999.9999999999998863 ) ;
#194 = DIRECTION ( 'NONE',  ( -3.491481338843133355E-15, 1.224646799147353207E-16, -1.000000000000000000 ) ) ;
#195 = AXIS2_PLACEMENT_3D ( 'NONE', #183, #164, #74 ) ;
#196 = CARTESIAN_POINT ( 'NONE',  ( 1.821693530194165345E-13, -4.999999999999998224, 30.00000000000000000 ) ) ;
#197 = VERTEX_POINT ( 'NONE', #15 ) ;
#198 = CALENDAR_DATE ( 2023, 31, 3 ) ;
#199 = EDGE_LOOP ( 'NONE', ( #290, #126, #6, #192 ) ) ;
#200 = APPROVAL_PERSON_ORGANIZATION ( #218, #267, #248 ) ;
#201 = PERSON_AND_ORGANIZATION ( #216, #73 ) ;
#202 = CLOSED_SHELL ( 'NONE', ( #204, #2, #104, #97, #293, #9 ) ) ;
#203 = CARTESIAN_POINT ( 'NONE',  ( 2.618611004132350143E-13, -9.184850993605148733E-15, 75.00000000000000000 ) ) ;
#204 = ADVANCED_FACE ( 'NONE', ( #115 ), #142, .T. ) ;
#205 = CARTESIAN_POINT ( 'NONE',  ( 1.047444401652940007E-13, -3.673940397442059178E-15, 30.00000000000000000 ) ) ;
#206 = CYLINDRICAL_SURFACE ( 'NONE', #235, 4.999999999999992006 ) ;
#207 = CC_DESIGN_APPROVAL ( #267, ( #11 ) ) ;
#208 = CARTESIAN_POINT ( 'NONE',  ( 0.000000000000000000, 0.000000000000000000, 0.000000000000000000 ) ) ;
#209 = DIRECTION ( 'NONE',  ( 0.000000000000000000, 1.000000000000000000, 0.000000000000000000 ) ) ;
#210 = ORIENTED_EDGE ( 'NONE', *, *, #265, .F. ) ;
#211 = ORIENTED_EDGE ( 'NONE', *, *, #155, .F. ) ;
#212 = ORIENTED_EDGE ( 'NONE', *, *, #174, .T. ) ;
#213 = EDGE_CURVE ( 'NONE', #171, #191, #127, .T. ) ;
#214 = ORIENTED_EDGE ( 'NONE', *, *, #303, .T. ) ;
#215 = DIRECTION ( 'NONE',  ( -3.491481338843133355E-15, 1.224646799147353207E-16, -1.000000000000000000 ) ) ;
#216 = PERSON ( 'UNSPECIFIED', 'UNSPECIFIED', 'UNSPECIFIED', ('UNSPECIFIED'), ('UNSPECIFIED'), ('UNSPECIFIED') ) ;
#217 = AXIS2_PLACEMENT_3D ( 'NONE', #302, #62, #221 ) ;
#218 = PERSON_AND_ORGANIZATION ( #216, #73 ) ;
#219 = APPLICATION_CONTEXT ( 'configuration controlled 3d designs of mechanical parts and assemblies' ) ;
#220 = DIRECTION ( 'NONE',  ( 3.491481338843133355E-15, -1.224646799147353207E-16, 1.000000000000000000 ) ) ;
#221 = DIRECTION ( 'NONE',  ( 0.000000000000000000, 1.000000000000000000, 0.000000000000000000 ) ) ;
#222 = LOCAL_TIME ( 8, 31, 56.00000000000000000, #136 ) ;
#223 = CARTESIAN_POINT ( 'NONE',  ( 2.623509591328939549E-13, -4.000000000000012434, 75.00000000000000000 ) ) ;
#224 = EDGE_CURVE ( 'NONE', #273, #25, #106, .T. ) ;
#225 = APPROVAL_ROLE ( '' ) ;
#226 = APPROVAL_DATE_TIME ( #64, #267 ) ;
#227 = DIRECTION ( 'NONE',  ( 0.000000000000000000, 1.000000000000000000, 0.000000000000000000 ) ) ;
#228 = ORIENTED_EDGE ( 'NONE', *, *, #310, .T. ) ;
#229 = PERSON_AND_ORGANIZATION ( #216, #73 ) ;
#230 = VECTOR ( 'NONE', #181, 1000.000000000000000 ) ;
#231 = DIRECTION ( 'NONE',  ( 0.000000000000000000, 1.000000000000000000, 0.000000000000000000 ) ) ;
#232 = LINE ( 'NONE', #279, #281 ) ;
#233 = PERSON_AND_ORGANIZATION ( #216, #73 ) ;
#234 = APPROVAL_STATUS ( 'not_yet_approved' ) ;
#235 = AXIS2_PLACEMENT_3D ( 'NONE', #287, #146, #78 ) ;
#236 = CARTESIAN_POINT ( 'NONE',  ( 6.123233995736735714E-16, -4.999999999999992006, -6.123233995736777129E-16 ) ) ;
#237 = APPROVAL ( #114, 'UNSPECIFIED' ) ;
#238 = CARTESIAN_POINT ( 'NONE',  ( 1.047444401652940007E-13, 4.999999999999991118, 30.00000000000000000 ) ) ;
#239 = CARTESIAN_POINT ( 'NONE',  ( 0.000000000000000000, 0.000000000000000000, 0.000000000000000000 ) ) ;
#240 = EDGE_LOOP ( 'NONE', ( #151, #147, #211, #158 ) ) ;
#241 = DIRECTION ( 'NONE',  ( -3.491481338843133355E-15, 1.224646799147353207E-16, -1.000000000000000000 ) ) ;
#242 = DIRECTION ( 'NONE',  ( 1.000000000000000000, 0.000000000000000000, 0.000000000000000000 ) ) ;
#243 = EDGE_CURVE ( 'NONE', #101, #102, #60, .T. ) ;
#244 = ORIENTED_EDGE ( 'NONE', *, *, #224, .T. ) ;
#245 = CC_DESIGN_PERSON_AND_ORGANIZATION_ASSIGNMENT ( #38, #89, ( #11 ) ) ;
#246 = ORIENTED_EDGE ( 'NONE', *, *, #48, .F. ) ;
#247 = APPROVAL_PERSON_ORGANIZATION ( #201, #99, #165 ) ;
#248 = APPROVAL_ROLE ( '' ) ;
#249 = DIRECTION ( 'NONE',  ( -4.275831445896958607E-31, -1.000000000000000000, -1.224646799147353207E-16 ) ) ;
#250 = PLANE ( 'NONE',  #304 ) ;
#251 = DIRECTION ( 'NONE',  ( -4.275831445896958607E-31, -1.000000000000000000, -1.224646799147353207E-16 ) ) ;
#252 = EDGE_CURVE ( 'NONE', #25, #197, #232, .T. ) ;
#253 = APPROVAL_PERSON_ORGANIZATION ( #229, #237, #225 ) ;
#254 = FACE_OUTER_BOUND ( 'NONE', #23, .T. ) ;
#255 = CARTESIAN_POINT ( 'NONE',  ( 2.583696190743917926E-13, -9.062386313690412007E-15, 73.99999999999998579 ) ) ;
#256 = CALENDAR_DATE ( 2023, 31, 3 ) ;
#257 = AXIS2_PLACEMENT_3D ( 'NONE', #20, #44, #263 ) ;
#258 = CARTESIAN_POINT ( 'NONE',  ( 5.298454348222065714E-14, -4.999999999999990230, -1.102182038772076788E-15 ) ) ;
#259 = FACE_OUTER_BOUND ( 'NONE', #285, .T. ) ;
#260 = DIRECTION ( 'NONE',  ( 0.000000000000000000, 1.000000000000000000, 0.000000000000000000 ) ) ;
#261 = PLANE ( 'NONE',  #292 ) ;
#262 = AXIS2_PLACEMENT_3D ( 'NONE', #157, #220, #251 ) ;
#263 = DIRECTION ( 'NONE',  ( 0.000000000000000000, 1.000000000000000000, 0.000000000000000000 ) ) ;
#264 = ORIENTED_EDGE ( 'NONE', *, *, #213, .F. ) ;
#265 = EDGE_CURVE ( 'NONE', #149, #197, #57, .T. ) ;
#266 = ORIENTED_EDGE ( 'NONE', *, *, #31, .F. ) ;
#267 = APPROVAL ( #105, 'UNSPECIFIED' ) ;
#268 = EDGE_LOOP ( 'NONE', ( #111, #87 ) ) ;
#269 = LOCAL_TIME ( 8, 31, 56.00000000000000000, #18 ) ;
#270 = ADVANCED_FACE ( 'NONE', ( #259 ), #49, .T. ) ;
#271 = CARTESIAN_POINT ( 'NONE',  ( 2.618611004132350143E-13, 3.999999999999993339, 75.00000000000000000 ) ) ;
#272 = CC_DESIGN_APPROVAL ( #237, ( #83 ) ) ;
#273 = VERTEX_POINT ( 'NONE', #50 ) ;
#274 = COORDINATED_UNIVERSAL_TIME_OFFSET ( 1, 0, .AHEAD. ) ;
#275 = DIRECTION ( 'NONE',  ( -3.491481338843133355E-15, 1.224646799147353207E-16, -1.000000000000000000 ) ) ;
#276 = ADVANCED_FACE ( 'NONE', ( #189 ), #206, .T. ) ;
#277 = CALENDAR_DATE ( 2023, 31, 3 ) ;
#278 = DIRECTION ( 'NONE',  ( -3.491481338843133355E-15, 1.224646799147353207E-16, -1.000000000000000000 ) ) ;
#279 = CARTESIAN_POINT ( 'NONE',  ( 2.137915722948478778E-30, 4.999999999999998224, 6.123233995736764310E-16 ) ) ;
#280 = APPLICATION_CONTEXT ( 'configuration controlled 3d designs of mechanical parts and assemblies' ) ;
#281 = VECTOR ( 'NONE', #17, 1000.000000000000000 ) ;
#282 = CARTESIAN_POINT ( 'NONE',  ( 4.275834255168116823E-31, 4.999999999999990230, 1.224647603754591642E-16 ) ) ;
#283 = ORIENTED_EDGE ( 'NONE', *, *, #19, .F. ) ;
#284 = CARTESIAN_POINT ( 'NONE',  ( 1.047444401652940007E-13, -3.673940397442059178E-15, 30.00000000000000000 ) ) ;
#285 = EDGE_LOOP ( 'NONE', ( #228, #288, #246, #52 ) ) ;
#286 = CC_DESIGN_APPROVAL ( #99, ( #26 ) ) ;
#287 = CARTESIAN_POINT ( 'NONE',  ( 0.000000000000000000, 0.000000000000000000, 0.000000000000000000 ) ) ;
#288 = ORIENTED_EDGE ( 'NONE', *, *, #19, .T. ) ;
#289 = CARTESIAN_POINT ( 'NONE',  ( 2.618611004132350143E-13, 2.999519565323702626E-32, 75.00000000000000000 ) ) ;
#290 = ORIENTED_EDGE ( 'NONE', *, *, #155, .T. ) ;
#291 = LOCAL_TIME ( 8, 31, 56.00000000000000000, #141 ) ;
#292 = AXIS2_PLACEMENT_3D ( 'NONE', #289, #215, #82 ) ;
#293 = ADVANCED_FACE ( 'NONE', ( #313 ), #180, .T. ) ;
#294 = UNCERTAINTY_MEASURE_WITH_UNIT (LENGTH_MEASURE( 1.000000000000000082E-05 ), #96, 'distance_accuracy_value', 'NONE');
#295 = DIRECTION ( 'NONE',  ( 4.275831445896959482E-31, 1.000000000000000000, 1.224646799147353207E-16 ) ) ;
#296 = AXIS2_PLACEMENT_3D ( 'NONE', #163, #140, #231 ) ;
#297 = AXIS2_PLACEMENT_3D ( 'NONE', #208, #24, #1 ) ;
#298 = PLANE ( 'NONE',  #262 ) ;
#299 = CC_DESIGN_PERSON_AND_ORGANIZATION_ASSIGNMENT ( #90, #43, ( #83 ) ) ;
#300 = DIRECTION ( 'NONE',  ( -3.491481338843133355E-15, 1.224646799147353207E-16, -1.000000000000000000 ) ) ;
#301 = COORDINATED_UNIVERSAL_TIME_OFFSET ( 1, 0, .AHEAD. ) ;
#302 = CARTESIAN_POINT ( 'NONE',  ( 2.618611004132350143E-13, -9.184850993605148733E-15, 75.00000000000000000 ) ) ;
#303 = EDGE_CURVE ( 'NONE', #197, #149, #100, .T. ) ;
#304 = AXIS2_PLACEMENT_3D ( 'NONE', #85, #133, #13 ) ;
#305 = CARTESIAN_POINT ( 'NONE',  ( 0.000000000000000000, 0.000000000000000000, 0.000000000000000000 ) ) ;
#306 = CC_DESIGN_PERSON_AND_ORGANIZATION_ASSIGNMENT ( #233, #69, ( #26 ) ) ;
#307 = DIRECTION ( 'NONE',  ( 0.000000000000000000, 1.000000000000000000, 0.000000000000000000 ) ) ;
#308 = DIRECTION ( 'NONE',  ( -3.491481338843133355E-15, 1.224646799147353207E-16, -1.000000000000000000 ) ) ;
#309 = DIRECTION ( 'NONE',  ( -3.491481338843133355E-15, 1.224646799147353207E-16, -1.000000000000000000 ) ) ;
#310 = EDGE_CURVE ( 'NONE', #3, #53, #5, .T. ) ;
#311 =( GEOMETRIC_REPRESENTATION_CONTEXT ( 3 ) GLOBAL_UNCERTAINTY_ASSIGNED_CONTEXT ( ( #294 ) ) GLOBAL_UNIT_ASSIGNED_CONTEXT ( ( #96, #187, #143 ) ) REPRESENTATION_CONTEXT ( 'NONE', 'WORKASPACE' ) );
#312 = CALENDAR_DATE ( 2023, 31, 3 ) ;
#313 = FACE_OUTER_BOUND ( 'NONE', #37, .T. ) ;
ENDSEC;
END-ISO-10303-21;
