ISO-10303-21;
HEADER;
FILE_DESCRIPTION (( 'STEP AP203' ),
    '1' );
FILE_NAME ('372715.step',
    '2023-03-31T06:31:56',
    ( '' ),
    ( '' ),
    'SwSTEP 2.0',
    'SolidWorks 2022',
    '' );
FILE_SCHEMA (( 'CONFIG_CONTROL_DESIGN' ));
ENDSEC;

DATA;
#1 = DIRECTION ( 'NONE',  ( -3.491481338843133355E-15, 1.224646799147353207E-16, -1.000000000000000000 ) ) ;
#2 = CYLINDRICAL_SURFACE ( 'NONE', #69, 4.999999999999992006 ) ;
#3 = PERSON_AND_ORGANIZATION ( #60, #50 ) ;
#4 = EDGE_CURVE ( 'NONE', #242, #8, #299, .T. ) ;
#5 = PERSON_AND_ORGANIZATION ( #60, #50 ) ;
#6 = VERTEX_POINT ( 'NONE', #56 ) ;
#7 = DATE_TIME_ROLE ( 'classification_date' ) ;
#8 = VERTEX_POINT ( 'NONE', #304 ) ;
#9 = CC_DESIGN_PERSON_AND_ORGANIZATION_ASSIGNMENT ( #5, #287, ( #266 ) ) ;
#10 = CARTESIAN_POINT ( 'NONE',  ( 0.000000000000000000, 0.000000000000000000, 0.000000000000000000 ) ) ;
#11 = AXIS2_PLACEMENT_3D ( 'NONE', #68, #232, #34 ) ;
#12 = ORIENTED_EDGE ( 'NONE', *, *, #196, .T. ) ;
#13 = CALENDAR_DATE ( 2023, 31, 3 ) ;
#14 = DIRECTION ( 'NONE',  ( -3.491481338843133355E-15, 1.224646799147353207E-16, -1.000000000000000000 ) ) ;
#15 = PERSON_AND_ORGANIZATION ( #60, #50 ) ;
#16 = EDGE_LOOP ( 'NONE', ( #86, #268, #203, #267 ) ) ;
#17 = AXIS2_PLACEMENT_3D ( 'NONE', #182, #55, #273 ) ;
#18 = FACE_OUTER_BOUND ( 'NONE', #16, .T. ) ;
#19 = CARTESIAN_POINT ( 'NONE',  ( 8.379555213223520053E-14, 4.999999999999990230, 24.00000000000000000 ) ) ;
#20 = DIRECTION ( 'NONE',  ( -3.491481338843133355E-15, 1.224646799147353207E-16, -1.000000000000000000 ) ) ;
#21 = DIRECTION ( 'NONE',  ( -2.468850131082257455E-15, 0.7071067811865497932, -0.7071067811865452413 ) ) ;
#22 = LINE ( 'NONE', #117, #172 ) ;
#23 = APPROVAL_ROLE ( '' ) ;
#24 = AXIS2_PLACEMENT_3D ( 'NONE', #155, #61, #274 ) ;
#25 = ADVANCED_FACE ( 'NONE', ( #64 ), #85, .F. ) ;
#26 = CC_DESIGN_SECURITY_CLASSIFICATION ( #126, ( #266 ) ) ;
#27 = EDGE_CURVE ( 'NONE', #8, #245, #36, .T. ) ;
#28 = CIRCLE ( 'NONE', #218, 4.999999999999992895 ) ;
#29 = VERTEX_POINT ( 'NONE', #19 ) ;
#30 = FACE_OUTER_BOUND ( 'NONE', #39, .T. ) ;
#31 = APPLICATION_PROTOCOL_DEFINITION ( 'international standard', 'config_control_design', 1994, #156 ) ;
#32 = AXIS2_PLACEMENT_3D ( 'NONE', #57, #157, #199 ) ;
#33 = DIRECTION ( 'NONE',  ( 0.000000000000000000, 1.000000000000000000, 0.000000000000000000 ) ) ;
#34 = DIRECTION ( 'NONE',  ( 1.000000000000000000, 0.000000000000000000, 0.000000000000000000 ) ) ;
#35 = FACE_OUTER_BOUND ( 'NONE', #95, .T. ) ;
#36 = LINE ( 'NONE', #88, #43 ) ;
#37 = ADVANCED_FACE ( 'NONE', ( #163 ), #260, .T. ) ;
#38 = CARTESIAN_POINT ( 'NONE',  ( 4.275753076543797008E-31, 4.999999999999990230, 1.224624353272506412E-16 ) ) ;
#39 = EDGE_LOOP ( 'NONE', ( #96, #12, #114, #243 ) ) ;
#40 = CIRCLE ( 'NONE', #79, 4.999999999999997335 ) ;
#41 = EDGE_CURVE ( 'NONE', #29, #6, #83, .T. ) ;
#42 = VERTEX_POINT ( 'NONE', #38 ) ;
#43 = VECTOR ( 'NONE', #235, 1000.000000000000000 ) ;
#44 = DIRECTION ( 'NONE',  ( 0.000000000000000000, 1.000000000000000000, 0.000000000000000000 ) ) ;
#45 = DIRECTION ( 'NONE',  ( 4.275831445896958607E-31, 1.000000000000000000, 1.224646799147353207E-16 ) ) ;
#46 = AXIS2_PLACEMENT_3D ( 'NONE', #138, #259, #112 ) ;
#47 = CC_DESIGN_DATE_AND_TIME_ASSIGNMENT ( #52, #7, ( #126 ) ) ;
#48 = VECTOR ( 'NONE', #222, 1000.000000000000000 ) ;
#49 = ORIENTED_EDGE ( 'NONE', *, *, #137, .F. ) ;
#50 = ORGANIZATION ( 'UNSPECIFIED', 'UNSPECIFIED', '' ) ;
#51 = ORIENTED_EDGE ( 'NONE', *, *, #312, .T. ) ;
#52 = DATE_AND_TIME ( #97, #292 ) ;
#53 = DIRECTION ( 'NONE',  ( 4.275831445896958607E-31, 1.000000000000000000, 1.224646799147353207E-16 ) ) ;
#54 = COORDINATED_UNIVERSAL_TIME_OFFSET ( 1, 0, .AHEAD. ) ;
#55 = DIRECTION ( 'NONE',  ( 3.491481338843133355E-15, -1.224646799147353207E-16, 1.000000000000000000 ) ) ;
#56 = CARTESIAN_POINT ( 'NONE',  ( 1.455087989615636911E-13, -4.999999999999995559, 24.00000000000000000 ) ) ;
#57 = CARTESIAN_POINT ( 'NONE',  ( -1.710340415294095486E-30, 5.999066618916201289E-32, -4.898609642464248037E-16 ) ) ;
#58 = ORIENTED_EDGE ( 'NONE', *, *, #270, .T. ) ;
#59 = PRODUCT_DEFINITION ( 'UNKNOWN', '', #266, #190 ) ;
#60 = PERSON ( 'UNSPECIFIED', 'UNSPECIFIED', 'UNSPECIFIED', ('UNSPECIFIED'), ('UNSPECIFIED'), ('UNSPECIFIED') ) ;
#61 = DIRECTION ( 'NONE',  ( 3.491481338843133355E-15, -1.224646799147353207E-16, 1.000000000000000000 ) ) ;
#62 = COORDINATED_UNIVERSAL_TIME_OFFSET ( 1, 0, .AHEAD. ) ;
#63 = EDGE_CURVE ( 'NONE', #6, #29, #146, .T. ) ;
#64 = FACE_OUTER_BOUND ( 'NONE', #281, .T. ) ;
#65 = PRODUCT ( '372715', '372715', '', ( #108 ) ) ;
#66 = AXIS2_PLACEMENT_3D ( 'NONE', #80, #130, #300 ) ;
#67 = ORIENTED_EDGE ( 'NONE', *, *, #208, .T. ) ;
#68 = CARTESIAN_POINT ( 'NONE',  ( 0.000000000000000000, 0.000000000000000000, 0.000000000000000000 ) ) ;
#69 = AXIS2_PLACEMENT_3D ( 'NONE', #194, #166, #236 ) ;
#70 = CARTESIAN_POINT ( 'NONE',  ( 2.094888803305880013E-13, -7.347880794884118356E-15, 60.00000000000000000 ) ) ;
#71 = CARTESIAN_POINT ( 'NONE',  ( 2.059973989917448806E-13, -7.225416114969384785E-15, 59.00000000000000711 ) ) ;
#72 = DIRECTION ( 'NONE',  ( -4.275831445896958607E-31, -1.000000000000000000, -1.224646799147353207E-16 ) ) ;
#73 = PERSON_AND_ORGANIZATION ( #60, #50 ) ;
#74 = EDGE_LOOP ( 'NONE', ( #67, #223, #220, #207 ) ) ;
#75 = CIRCLE ( 'NONE', #233, 4.999999999999992895 ) ;
#76 = APPROVAL ( #224, 'UNSPECIFIED' ) ;
#77 = DATE_AND_TIME ( #248, #252 ) ;
#78 = CARTESIAN_POINT ( 'NONE',  ( 2.137915722948475975E-30, 4.999999999999992006, 6.123233995736756422E-16 ) ) ;
#79 = AXIS2_PLACEMENT_3D ( 'NONE', #71, #237, #143 ) ;
#80 = CARTESIAN_POINT ( 'NONE',  ( 0.000000000000000000, 0.000000000000000000, 0.000000000000000000 ) ) ;
#81 = EDGE_LOOP ( 'NONE', ( #131, #186, #188, #142 ) ) ;
#82 =( NAMED_UNIT ( * ) PLANE_ANGLE_UNIT ( ) SI_UNIT ( $, .RADIAN. ) );
#83 = CIRCLE ( 'NONE', #122, 4.999999999999992895 ) ;
#84 = PLANE ( 'NONE',  #17 ) ;
#85 = PLANE ( 'NONE',  #24 ) ;
#86 = ORIENTED_EDGE ( 'NONE', *, *, #121, .F. ) ;
#87 = LINE ( 'NONE', #135, #141 ) ;
#88 = CARTESIAN_POINT ( 'NONE',  ( 2.099787390502469419E-13, -4.000000000000004441, 60.00000000000000000 ) ) ;
#89 = LOCAL_TIME ( 8, 31, 56.00000000000000000, #62 ) ;
#90 = PLANE ( 'NONE',  #101 ) ;
#91 = DIRECTION ( 'NONE',  ( -3.491481338843133355E-15, 1.224646799147353207E-16, -1.000000000000000000 ) ) ;
#92 = CARTESIAN_POINT ( 'NONE',  ( 8.379555213223520053E-14, 3.749399456654635261E-32, 24.00000000000000000 ) ) ;
#93 = LOCAL_TIME ( 8, 31, 56.00000000000000000, #238 ) ;
#94 = APPROVAL_DATE_TIME ( #214, #239 ) ;
#95 = EDGE_LOOP ( 'NONE', ( #49, #110, #140, #105 ) ) ;
#96 = ORIENTED_EDGE ( 'NONE', *, *, #27, .F. ) ;
#97 = CALENDAR_DATE ( 2023, 31, 3 ) ;
#98 = PRODUCT_RELATED_PRODUCT_CATEGORY ( 'detail', '', ( #65 ) ) ;
#99 = APPROVAL_ROLE ( '' ) ;
#100 = AXIS2_PLACEMENT_3D ( 'NONE', #104, #179, #250 ) ;
#101 = AXIS2_PLACEMENT_3D ( 'NONE', #212, #1, #45 ) ;
#102 = FACE_OUTER_BOUND ( 'NONE', #251, .T. ) ;
#103 = ORIENTED_EDGE ( 'NONE', *, *, #4, .F. ) ;
#104 = CARTESIAN_POINT ( 'NONE',  ( 2.094888803305880013E-13, -7.347880794884118356E-15, 60.00000000000000000 ) ) ;
#105 = ORIENTED_EDGE ( 'NONE', *, *, #312, .F. ) ;
#106 = COORDINATED_UNIVERSAL_TIME_OFFSET ( 1, 0, .AHEAD. ) ;
#107 = CARTESIAN_POINT ( 'NONE',  ( 8.379555213223520053E-14, -2.939152317953647894E-15, 24.00000000000000000 ) ) ;
#108 = MECHANICAL_CONTEXT ( 'NONE', #156, 'mechanical' ) ;
#109 = ADVANCED_FACE ( 'NONE', ( #18 ), #227, .T. ) ;
#110 = ORIENTED_EDGE ( 'NONE', *, *, #303, .T. ) ;
#111 = CIRCLE ( 'NONE', #288, 3.999999999999997335 ) ;
#112 = DIRECTION ( 'NONE',  ( 0.000000000000000000, 1.000000000000000000, 0.000000000000000000 ) ) ;
#113 = CLOSED_SHELL ( 'NONE', ( #37, #276, #290, #109, #244, #228 ) ) ;
#114 = ORIENTED_EDGE ( 'NONE', *, *, #219, .T. ) ;
#115 = CC_DESIGN_APPROVAL ( #171, ( #126 ) ) ;
#116 = CARTESIAN_POINT ( 'NONE',  ( 2.094888803305880013E-13, 3.999999999999990674, 60.00000000000000000 ) ) ;
#117 = CARTESIAN_POINT ( 'NONE',  ( 2.137915722948477727E-30, 4.999999999999995559, 6.123233995736761352E-16 ) ) ;
#118 = CALENDAR_DATE ( 2023, 31, 3 ) ;
#119 = CC_DESIGN_PERSON_AND_ORGANIZATION_ASSIGNMENT ( #275, #278, ( #59 ) ) ;
#120 = APPROVAL_PERSON_ORGANIZATION ( #3, #239, #23 ) ;
#121 = EDGE_CURVE ( 'NONE', #245, #6, #87, .T. ) ;
#122 = AXIS2_PLACEMENT_3D ( 'NONE', #272, #20, #308 ) ;
#123 = AXIS2_PLACEMENT_3D ( 'NONE', #160, #234, #189 ) ;
#124 = PERSON_AND_ORGANIZATION_ROLE ( 'classification_officer' ) ;
#125 = EDGE_LOOP ( 'NONE', ( #301, #247 ) ) ;
#126 = SECURITY_CLASSIFICATION ( '', '', #215 ) ;
#127 = VECTOR ( 'NONE', #230, 1000.000000000000000 ) ;
#128 = VERTEX_POINT ( 'NONE', #158 ) ;
#129 = APPROVAL_STATUS ( 'not_yet_approved' ) ;
#130 = DIRECTION ( 'NONE',  ( -3.491481338843133355E-15, 1.224646799147353207E-16, -1.000000000000000000 ) ) ;
#131 = ORIENTED_EDGE ( 'NONE', *, *, #150, .T. ) ;
#132 = SHAPE_DEFINITION_REPRESENTATION ( #176, #195 ) ;
#133 = DIRECTION ( 'NONE',  ( -3.491481338843133355E-15, 1.224646799147353207E-16, -1.000000000000000000 ) ) ;
#134 = CC_DESIGN_PERSON_AND_ORGANIZATION_ASSIGNMENT ( #15, #204, ( #65 ) ) ;
#135 = CARTESIAN_POINT ( 'NONE',  ( 6.123233995736739658E-16, -4.999999999999995559, -6.123233995736781074E-16 ) ) ;
#136 = CARTESIAN_POINT ( 'NONE',  ( 0.000000000000000000, 0.000000000000000000, 0.000000000000000000 ) ) ;
#137 = EDGE_CURVE ( 'NONE', #128, #201, #279, .T. ) ;
#138 = CARTESIAN_POINT ( 'NONE',  ( 8.379555213223520053E-14, -2.939152317953647894E-15, 24.00000000000000000 ) ) ;
#139 =( NAMED_UNIT ( * ) SI_UNIT ( $, .STERADIAN. ) SOLID_ANGLE_UNIT ( ) );
#140 = ORIENTED_EDGE ( 'NONE', *, *, #289, .T. ) ;
#141 = VECTOR ( 'NONE', #14, 1000.000000000000000 ) ;
#142 = ORIENTED_EDGE ( 'NONE', *, *, #289, .F. ) ;
#143 = DIRECTION ( 'NONE',  ( 0.000000000000000000, 1.000000000000000000, 0.000000000000000000 ) ) ;
#144 = CARTESIAN_POINT ( 'NONE',  ( 2.094888803305880013E-13, 3.999999999999990674, 60.00000000000000000 ) ) ;
#145 = APPROVAL_STATUS ( 'not_yet_approved' ) ;
#146 = CIRCLE ( 'NONE', #46, 4.999999999999992895 ) ;
#147 =( GEOMETRIC_REPRESENTATION_CONTEXT ( 3 ) GLOBAL_UNCERTAINTY_ASSIGNED_CONTEXT ( ( #229 ) ) GLOBAL_UNIT_ASSIGNED_CONTEXT ( ( #298, #82, #139 ) ) REPRESENTATION_CONTEXT ( 'NONE', 'WORKASPACE' ) );
#148 = APPROVAL_DATE_TIME ( #77, #171 ) ;
#149 = ORIENTED_EDGE ( 'NONE', *, *, #196, .F. ) ;
#150 = EDGE_CURVE ( 'NONE', #173, #128, #28, .T. ) ;
#151 = LINE ( 'NONE', #78, #48 ) ;
#152 = ORIENTED_EDGE ( 'NONE', *, *, #219, .F. ) ;
#153 = EDGE_CURVE ( 'NONE', #245, #175, #178, .T. ) ;
#154 = DIRECTION ( 'NONE',  ( 4.275831445896958607E-31, 1.000000000000000000, 1.224646799147353207E-16 ) ) ;
#155 = CARTESIAN_POINT ( 'NONE',  ( -8.551702076470477431E-31, 2.999533309458100644E-32, -2.449304821232124019E-16 ) ) ;
#156 = APPLICATION_CONTEXT ( 'configuration controlled 3d designs of mechanical parts and assemblies' ) ;
#157 = DIRECTION ( 'NONE',  ( -3.491481338843133355E-15, 1.224646799147353207E-16, -1.000000000000000000 ) ) ;
#158 = CARTESIAN_POINT ( 'NONE',  ( 4.251009946569125707E-14, -4.999999999999996447, 24.00000000000000000 ) ) ;
#159 = AXIS2_PLACEMENT_3D ( 'NONE', #185, #277, #33 ) ;
#160 = CARTESIAN_POINT ( 'NONE',  ( 2.094888803305880013E-13, -7.347880794884118356E-15, 60.00000000000000000 ) ) ;
#161 = DIRECTION ( 'NONE',  ( -3.491481338843133355E-15, 1.224646799147353207E-16, -1.000000000000000000 ) ) ;
#162 = PERSON_AND_ORGANIZATION ( #60, #50 ) ;
#163 = FACE_OUTER_BOUND ( 'NONE', #180, .T. ) ;
#164 = APPLICATION_CONTEXT ( 'configuration controlled 3d designs of mechanical parts and assemblies' ) ;
#165 = CARTESIAN_POINT ( 'NONE',  ( 4.251009946569125707E-14, -4.999999999999990230, -1.102184363820248555E-15 ) ) ;
#166 = DIRECTION ( 'NONE',  ( -3.491481338843133355E-15, 1.224646799147353207E-16, -1.000000000000000000 ) ) ;
#167 = DATE_AND_TIME ( #256, #89 ) ;
#168 = CC_DESIGN_APPROVAL ( #76, ( #59 ) ) ;
#169 = CARTESIAN_POINT ( 'NONE',  ( 2.059973989917448806E-13, 4.999999999999990230, 59.00000000000000711 ) ) ;
#170 = PERSON_AND_ORGANIZATION_ROLE ( 'design_supplier' ) ;
#171 = APPROVAL ( #129, 'UNSPECIFIED' ) ;
#172 = VECTOR ( 'NONE', #91, 1000.000000000000000 ) ;
#173 = VERTEX_POINT ( 'NONE', #264 ) ;
#174 = PERSON_AND_ORGANIZATION ( #60, #50 ) ;
#175 = VERTEX_POINT ( 'NONE', #169 ) ;
#176 = PRODUCT_DEFINITION_SHAPE ( 'NONE', 'NONE',  #59 ) ;
#177 = ADVANCED_FACE ( 'NONE', ( #192 ), #283, .T. ) ;
#178 = CIRCLE ( 'NONE', #206, 4.999999999999997335 ) ;
#179 = DIRECTION ( 'NONE',  ( -3.491481338843133355E-15, 1.224646799147353207E-16, -1.000000000000000000 ) ) ;
#180 = EDGE_LOOP ( 'NONE', ( #257, #255, #231, #152 ) ) ;
#181 = CC_DESIGN_DATE_AND_TIME_ASSIGNMENT ( #167, #263, ( #59 ) ) ;
#182 = CARTESIAN_POINT ( 'NONE',  ( 8.379555213223520053E-14, 3.749399456654635261E-32, 24.00000000000000000 ) ) ;
#183 = DIRECTION ( 'NONE',  ( 4.275831445896959482E-31, 1.000000000000000000, 1.224646799147353454E-16 ) ) ;
#184 = CYLINDRICAL_SURFACE ( 'NONE', #66, 4.999999999999995559 ) ;
#185 = CARTESIAN_POINT ( 'NONE',  ( 2.094888803305880013E-13, -7.347880794884118356E-15, 60.00000000000000000 ) ) ;
#186 = ORIENTED_EDGE ( 'NONE', *, *, #137, .T. ) ;
#187 = APPROVAL_ROLE ( '' ) ;
#188 = ORIENTED_EDGE ( 'NONE', *, *, #270, .F. ) ;
#189 = DIRECTION ( 'NONE',  ( 0.000000000000000000, 1.000000000000000000, 0.000000000000000000 ) ) ;
#190 = DESIGN_CONTEXT ( 'detailed design', #164, 'design' ) ;
#191 = AXIS2_PLACEMENT_3D ( 'NONE', #10, #271, #154 ) ;
#192 = FACE_OUTER_BOUND ( 'NONE', #125, .T. ) ;
#193 = DIRECTION ( 'NONE',  ( 0.000000000000000000, 1.000000000000000000, 0.000000000000000000 ) ) ;
#194 = CARTESIAN_POINT ( 'NONE',  ( 0.000000000000000000, 0.000000000000000000, 0.000000000000000000 ) ) ;
#195 = ADVANCED_BREP_SHAPE_REPRESENTATION ( '372715', ( #310, #200, #11 ), #147 ) ;
#196 = EDGE_CURVE ( 'NONE', #8, #242, #111, .T. ) ;
#197 = CARTESIAN_POINT ( 'NONE',  ( 8.379555213223520053E-14, -2.939152317953647894E-15, 24.00000000000000000 ) ) ;
#198 = ORIENTED_EDGE ( 'NONE', *, *, #63, .T. ) ;
#199 = DIRECTION ( 'NONE',  ( 4.275831445896958607E-31, 1.000000000000000000, 1.224646799147353207E-16 ) ) ;
#200 = MANIFOLD_SOLID_BREP ( 'Corps-Déplacer/Copier1[2]', #241 ) ;
#201 = VERTEX_POINT ( 'NONE', #165 ) ;
#202 = DATE_AND_TIME ( #13, #225 ) ;
#203 = ORIENTED_EDGE ( 'NONE', *, *, #240, .T. ) ;
#204 = PERSON_AND_ORGANIZATION_ROLE ( 'design_owner' ) ;
#205 = AXIS2_PLACEMENT_3D ( 'NONE', #296, #253, #53 ) ;
#206 = AXIS2_PLACEMENT_3D ( 'NONE', #210, #284, #44 ) ;
#207 = ORIENTED_EDGE ( 'NONE', *, *, #240, .F. ) ;
#208 = EDGE_CURVE ( 'NONE', #175, #245, #40, .T. ) ;
#209 = DIRECTION ( 'NONE',  ( 0.000000000000000000, 1.000000000000000000, 0.000000000000000000 ) ) ;
#210 = CARTESIAN_POINT ( 'NONE',  ( 2.059973989917448806E-13, -7.225416114969384785E-15, 59.00000000000000711 ) ) ;
#211 = APPROVAL_PERSON_ORGANIZATION ( #221, #171, #99 ) ;
#212 = CARTESIAN_POINT ( 'NONE',  ( 2.094888803305880013E-13, 2.999519565323702626E-32, 60.00000000000000000 ) ) ;
#213 = FACE_OUTER_BOUND ( 'NONE', #81, .T. ) ;
#214 = DATE_AND_TIME ( #118, #93 ) ;
#215 = SECURITY_CLASSIFICATION_LEVEL ( 'unclassified' ) ;
#216 = ADVANCED_FACE ( 'NONE', ( #213 ), #2, .T. ) ;
#217 = EDGE_LOOP ( 'NONE', ( #103, #149 ) ) ;
#218 = AXIS2_PLACEMENT_3D ( 'NONE', #107, #161, #209 ) ;
#219 = EDGE_CURVE ( 'NONE', #242, #175, #285, .T. ) ;
#220 = ORIENTED_EDGE ( 'NONE', *, *, #41, .F. ) ;
#221 = PERSON_AND_ORGANIZATION ( #60, #50 ) ;
#222 = DIRECTION ( 'NONE',  ( -3.491481338843133355E-15, 1.224646799147353207E-16, -1.000000000000000000 ) ) ;
#223 = ORIENTED_EDGE ( 'NONE', *, *, #121, .T. ) ;
#224 = APPROVAL_STATUS ( 'not_yet_approved' ) ;
#225 = LOCAL_TIME ( 8, 31, 56.00000000000000000, #106 ) ;
#226 = DIRECTION ( 'NONE',  ( 0.000000000000000000, 1.000000000000000000, 0.000000000000000000 ) ) ;
#227 = CYLINDRICAL_SURFACE ( 'NONE', #293, 4.999999999999995559 ) ;
#228 = ADVANCED_FACE ( 'NONE', ( #262 ), #90, .F. ) ;
#229 = UNCERTAINTY_MEASURE_WITH_UNIT (LENGTH_MEASURE( 1.000000000000000082E-05 ), #298, 'distance_accuracy_value', 'NONE');
#230 = DIRECTION ( 'NONE',  ( -3.491481338843133355E-15, 1.224646799147353207E-16, -1.000000000000000000 ) ) ;
#231 = ORIENTED_EDGE ( 'NONE', *, *, #208, .F. ) ;
#232 = DIRECTION ( 'NONE',  ( 0.000000000000000000, 0.000000000000000000, 1.000000000000000000 ) ) ;
#233 = AXIS2_PLACEMENT_3D ( 'NONE', #197, #133, #226 ) ;
#234 = DIRECTION ( 'NONE',  ( -3.491481338843133355E-15, 1.224646799147353207E-16, -1.000000000000000000 ) ) ;
#235 = DIRECTION ( 'NONE',  ( -2.382254525458708398E-15, -0.7071067811865495711, -0.7071067811865454633 ) ) ;
#236 = DIRECTION ( 'NONE',  ( 4.275831445896958607E-31, 1.000000000000000000, 1.224646799147353207E-16 ) ) ;
#237 = DIRECTION ( 'NONE',  ( -3.491481338843133355E-15, 1.224646799147353207E-16, -1.000000000000000000 ) ) ;
#238 = COORDINATED_UNIVERSAL_TIME_OFFSET ( 1, 0, .AHEAD. ) ;
#239 = APPROVAL ( #145, 'UNSPECIFIED' ) ;
#240 = EDGE_CURVE ( 'NONE', #175, #29, #22, .T. ) ;
#241 = CLOSED_SHELL ( 'NONE', ( #216, #25, #249, #177 ) ) ;
#242 = VERTEX_POINT ( 'NONE', #144 ) ;
#243 = ORIENTED_EDGE ( 'NONE', *, *, #153, .F. ) ;
#244 = ADVANCED_FACE ( 'NONE', ( #30 ), #258, .T. ) ;
#245 = VERTEX_POINT ( 'NONE', #269 ) ;
#246 = CYLINDRICAL_SURFACE ( 'NONE', #191, 4.999999999999992006 ) ;
#247 = ORIENTED_EDGE ( 'NONE', *, *, #303, .F. ) ;
#248 = CALENDAR_DATE ( 2023, 31, 3 ) ;
#249 = ADVANCED_FACE ( 'NONE', ( #35 ), #246, .T. ) ;
#250 = DIRECTION ( 'NONE',  ( 0.000000000000000000, 1.000000000000000000, 0.000000000000000000 ) ) ;
#251 = EDGE_LOOP ( 'NONE', ( #309, #198 ) ) ;
#252 = LOCAL_TIME ( 8, 31, 56.00000000000000000, #54 ) ;
#253 = DIRECTION ( 'NONE',  ( -3.491481338843133355E-15, 1.224646799147353207E-16, -1.000000000000000000 ) ) ;
#254 = CARTESIAN_POINT ( 'NONE',  ( 6.123233995736735714E-16, -4.999999999999992006, -6.123233995736777129E-16 ) ) ;
#255 = ORIENTED_EDGE ( 'NONE', *, *, #27, .T. ) ;
#256 = CALENDAR_DATE ( 2023, 31, 3 ) ;
#257 = ORIENTED_EDGE ( 'NONE', *, *, #4, .T. ) ;
#258 = CONICAL_SURFACE ( 'NONE', #100, 3.999999999999997335, 0.7853981633974513876 ) ;
#259 = DIRECTION ( 'NONE',  ( -3.491481338843133355E-15, 1.224646799147353207E-16, -1.000000000000000000 ) ) ;
#260 = CONICAL_SURFACE ( 'NONE', #123, 3.999999999999997335, 0.7853981633974513876 ) ;
#261 = DIRECTION ( 'NONE',  ( 3.491481338843133355E-15, -1.224646799147353207E-16, 1.000000000000000000 ) ) ;
#262 = FACE_OUTER_BOUND ( 'NONE', #217, .T. ) ;
#263 = DATE_TIME_ROLE ( 'creation_date' ) ;
#264 = CARTESIAN_POINT ( 'NONE',  ( 8.379555213223520053E-14, 4.999999999999990230, 24.00000000000000000 ) ) ;
#265 = CC_DESIGN_PERSON_AND_ORGANIZATION_ASSIGNMENT ( #73, #170, ( #266 ) ) ;
#266 = PRODUCT_DEFINITION_FORMATION_WITH_SPECIFIED_SOURCE ( 'ANY', '', #65, .NOT_KNOWN. ) ;
#267 = ORIENTED_EDGE ( 'NONE', *, *, #63, .F. ) ;
#268 = ORIENTED_EDGE ( 'NONE', *, *, #153, .T. ) ;
#269 = CARTESIAN_POINT ( 'NONE',  ( 1.455087989615636658E-13, -5.000000000000004441, 59.00000000000000711 ) ) ;
#270 = EDGE_CURVE ( 'NONE', #42, #201, #313, .T. ) ;
#271 = DIRECTION ( 'NONE',  ( -3.491481338843133355E-15, 1.224646799147353207E-16, -1.000000000000000000 ) ) ;
#272 = CARTESIAN_POINT ( 'NONE',  ( 8.379555213223520053E-14, -2.939152317953647894E-15, 24.00000000000000000 ) ) ;
#273 = DIRECTION ( 'NONE',  ( -4.275831445896958607E-31, -1.000000000000000000, -1.224646799147353207E-16 ) ) ;
#274 = DIRECTION ( 'NONE',  ( -4.275831445896958607E-31, -1.000000000000000000, -1.224646799147353207E-16 ) ) ;
#275 = PERSON_AND_ORGANIZATION ( #60, #50 ) ;
#276 = ADVANCED_FACE ( 'NONE', ( #291 ), #184, .T. ) ;
#277 = DIRECTION ( 'NONE',  ( -3.491481338843133355E-15, 1.224646799147353207E-16, -1.000000000000000000 ) ) ;
#278 = PERSON_AND_ORGANIZATION_ROLE ( 'creator' ) ;
#279 = LINE ( 'NONE', #254, #127 ) ;
#280 = CC_DESIGN_PERSON_AND_ORGANIZATION_ASSIGNMENT ( #174, #124, ( #126 ) ) ;
#281 = EDGE_LOOP ( 'NONE', ( #58, #51 ) ) ;
#282 = CIRCLE ( 'NONE', #32, 4.999999999999990230 ) ;
#283 = PLANE ( 'NONE',  #307 ) ;
#284 = DIRECTION ( 'NONE',  ( -3.491481338843133355E-15, 1.224646799147353207E-16, -1.000000000000000000 ) ) ;
#285 = LINE ( 'NONE', #116, #294 ) ;
#286 = CC_DESIGN_APPROVAL ( #239, ( #266 ) ) ;
#287 = PERSON_AND_ORGANIZATION_ROLE ( 'creator' ) ;
#288 = AXIS2_PLACEMENT_3D ( 'NONE', #70, #311, #193 ) ;
#289 = EDGE_CURVE ( 'NONE', #173, #42, #151, .T. ) ;
#290 = ADVANCED_FACE ( 'NONE', ( #102 ), #84, .F. ) ;
#291 = FACE_OUTER_BOUND ( 'NONE', #74, .T. ) ;
#292 = LOCAL_TIME ( 8, 31, 56.00000000000000000, #295 ) ;
#293 = AXIS2_PLACEMENT_3D ( 'NONE', #136, #297, #183 ) ;
#294 = VECTOR ( 'NONE', #21, 1000.000000000000000 ) ;
#295 = COORDINATED_UNIVERSAL_TIME_OFFSET ( 1, 0, .AHEAD. ) ;
#296 = CARTESIAN_POINT ( 'NONE',  ( -1.710340415294095486E-30, 5.999066618916201289E-32, -4.898609642464248037E-16 ) ) ;
#297 = DIRECTION ( 'NONE',  ( -3.491481338843133355E-15, 1.224646799147353207E-16, -1.000000000000000000 ) ) ;
#298 =( LENGTH_UNIT ( ) NAMED_UNIT ( * ) SI_UNIT ( .MILLI., .METRE. ) );
#299 = CIRCLE ( 'NONE', #159, 3.999999999999997335 ) ;
#300 = DIRECTION ( 'NONE',  ( 4.275831445896959482E-31, 1.000000000000000000, 1.224646799147353454E-16 ) ) ;
#301 = ORIENTED_EDGE ( 'NONE', *, *, #150, .F. ) ;
#302 = APPROVAL_DATE_TIME ( #202, #76 ) ;
#303 = EDGE_CURVE ( 'NONE', #128, #173, #75, .T. ) ;
#304 = CARTESIAN_POINT ( 'NONE',  ( 2.082942307207827617E-13, -4.000000000000004441, 60.00000000000000000 ) ) ;
#305 = APPLICATION_PROTOCOL_DEFINITION ( 'international standard', 'config_control_design', 1994, #164 ) ;
#306 = APPROVAL_PERSON_ORGANIZATION ( #162, #76, #187 ) ;
#307 = AXIS2_PLACEMENT_3D ( 'NONE', #92, #261, #72 ) ;
#308 = DIRECTION ( 'NONE',  ( 0.000000000000000000, 1.000000000000000000, 0.000000000000000000 ) ) ;
#309 = ORIENTED_EDGE ( 'NONE', *, *, #41, .T. ) ;
#310 = MANIFOLD_SOLID_BREP ( 'Corps-Déplacer/Copier1[1]', #113 ) ;
#311 = DIRECTION ( 'NONE',  ( -3.491481338843133355E-15, 1.224646799147353207E-16, -1.000000000000000000 ) ) ;
#312 = EDGE_CURVE ( 'NONE', #201, #42, #282, .T. ) ;
#313 = CIRCLE ( 'NONE', #205, 4.999999999999990230 ) ;
ENDSEC;
END-ISO-10303-21;
