ISO-10303-21;
HEADER;
FILE_DESCRIPTION (( 'STEP AP203' ),
    '1' );
FILE_NAME ('372714.step',
    '2023-03-31T06:31:55',
    ( '' ),
    ( '' ),
    'SwSTEP 2.0',
    'SolidWorks 2022',
    '' );
FILE_SCHEMA (( 'CONFIG_CONTROL_DESIGN' ));
ENDSEC;

DATA;
#1 = APPROVAL_DATE_TIME ( #72, #127 ) ;
#2 = ADVANCED_FACE ( 'NONE', ( #15 ), #43, .T. ) ;
#3 = APPROVAL_ROLE ( '' ) ;
#4 = ORIENTED_EDGE ( 'NONE', *, *, #98, .F. ) ;
#5 = DIRECTION ( 'NONE',  ( 0.000000000000000000, 1.000000000000000000, 0.000000000000000000 ) ) ;
#6 = APPROVAL ( #293, 'UNSPECIFIED' ) ;
#7 = APPROVAL_DATE_TIME ( #126, #6 ) ;
#8 = LINE ( 'NONE', #259, #124 ) ;
#9 = EDGE_LOOP ( 'NONE', ( #68, #301 ) ) ;
#10 = CALENDAR_DATE ( 2023, 31, 3 ) ;
#11 = CARTESIAN_POINT ( 'NONE',  ( 1.710332578358780640E-30, 3.999999999999993339, 4.898587196589404940E-16 ) ) ;
#12 = EDGE_CURVE ( 'NONE', #102, #165, #192, .T. ) ;
#13 = CARTESIAN_POINT ( 'NONE',  ( 2.050906651758665426E-13, -4.000000000000000000, 38.00000000000000000 ) ) ;
#14 = DIRECTION ( 'NONE',  ( 0.000000000000000000, 1.000000000000000000, 0.000000000000000000 ) ) ;
#15 = FACE_OUTER_BOUND ( 'NONE', #97, .T. ) ;
#16 = ORIENTED_EDGE ( 'NONE', *, *, #163, .F. ) ;
#17 = DIRECTION ( 'NONE',  ( -4.275831445896958607E-31, -1.000000000000000000, -1.224646799147353207E-16 ) ) ;
#18 = DIRECTION ( 'NONE',  ( -3.491481338843133355E-15, 1.224646799147353207E-16, -1.000000000000000000 ) ) ;
#19 = EDGE_CURVE ( 'NONE', #78, #256, #118, .T. ) ;
#20 = CC_DESIGN_PERSON_AND_ORGANIZATION_ASSIGNMENT ( #220, #132, ( #266 ) ) ;
#21 = COORDINATED_UNIVERSAL_TIME_OFFSET ( 1, 0, .AHEAD. ) ;
#22 = AXIS2_PLACEMENT_3D ( 'NONE', #67, #234, #89 ) ;
#23 = CC_DESIGN_PERSON_AND_ORGANIZATION_ASSIGNMENT ( #289, #80, ( #117 ) ) ;
#24 = CARTESIAN_POINT ( 'NONE',  ( 0.000000000000000000, 0.000000000000000000, 0.000000000000000000 ) ) ;
#25 = PERSON_AND_ORGANIZATION ( #59, #296 ) ;
#26 = PERSON_AND_ORGANIZATION_ROLE ( 'design_supplier' ) ;
#27 = CARTESIAN_POINT ( 'NONE',  ( 2.793185071074506684E-13, -9.797174393178826052E-15, 80.00000000000000000 ) ) ;
#28 = ORIENTED_EDGE ( 'NONE', *, *, #224, .T. ) ;
#29 = APPROVAL ( #198, 'UNSPECIFIED' ) ;
#30 = ORIENTED_EDGE ( 'NONE', *, *, #75, .T. ) ;
#31 = PERSON_AND_ORGANIZATION ( #59, #296 ) ;
#32 = CC_DESIGN_APPROVAL ( #29, ( #152 ) ) ;
#33 = CARTESIAN_POINT ( 'NONE',  ( 1.326762908760390423E-13, 3.999999999999991562, 38.00000000000000000 ) ) ;
#34 = ADVANCED_FACE ( 'NONE', ( #120 ), #73, .T. ) ;
#35 = AXIS2_PLACEMENT_3D ( 'NONE', #182, #233, #63 ) ;
#36 = DIRECTION ( 'NONE',  ( 0.000000000000000000, 1.000000000000000000, 0.000000000000000000 ) ) ;
#37 = CARTESIAN_POINT ( 'NONE',  ( 4.898587196589395079E-16, -3.999999999999999112, -4.898587196589428606E-16 ) ) ;
#38 = ORIENTED_EDGE ( 'NONE', *, *, #213, .T. ) ;
#39 = EDGE_LOOP ( 'NONE', ( #140, #116, #168, #181 ) ) ;
#40 = EDGE_CURVE ( 'NONE', #119, #161, #149, .T. ) ;
#41 = CC_DESIGN_PERSON_AND_ORGANIZATION_ASSIGNMENT ( #291, #57, ( #152 ) ) ;
#42 = EDGE_LOOP ( 'NONE', ( #69, #210, #28, #65 ) ) ;
#43 = CYLINDRICAL_SURFACE ( 'NONE', #271, 3.999999999999999112 ) ;
#44 = AXIS2_PLACEMENT_3D ( 'NONE', #241, #222, #17 ) ;
#45 = ADVANCED_FACE ( 'NONE', ( #247 ), #54, .F. ) ;
#46 = DIRECTION ( 'NONE',  ( 4.275831445896958607E-31, 1.000000000000000000, 1.224646799147353207E-16 ) ) ;
#47 =( NAMED_UNIT ( * ) SI_UNIT ( $, .STERADIAN. ) SOLID_ANGLE_UNIT ( ) );
#48 = CIRCLE ( 'NONE', #197, 3.200000000000003286 ) ;
#49 = LINE ( 'NONE', #204, #239 ) ;
#50 = DIRECTION ( 'NONE',  ( 4.275831445896958607E-31, 1.000000000000000000, 1.224646799147353207E-16 ) ) ;
#51 = AXIS2_PLACEMENT_3D ( 'NONE', #24, #104, #50 ) ;
#52 = CC_DESIGN_PERSON_AND_ORGANIZATION_ASSIGNMENT ( #249, #26, ( #266 ) ) ;
#53 = CALENDAR_DATE ( 2023, 31, 3 ) ;
#54 = PLANE ( 'NONE',  #226 ) ;
#55 = PLANE ( 'NONE',  #231 ) ;
#56 = LOCAL_TIME ( 8, 31, 55.00000000000000000, #21 ) ;
#57 = PERSON_AND_ORGANIZATION_ROLE ( 'classification_officer' ) ;
#58 = DATE_TIME_ROLE ( 'creation_date' ) ;
#59 = PERSON ( 'UNSPECIFIED', 'UNSPECIFIED', 'UNSPECIFIED', ('UNSPECIFIED'), ('UNSPECIFIED'), ('UNSPECIFIED') ) ;
#60 = DIRECTION ( 'NONE',  ( -3.491481338843133355E-15, 1.224646799147353207E-16, -1.000000000000000000 ) ) ;
#61 = EDGE_LOOP ( 'NONE', ( #109, #193 ) ) ;
#62 = ORIENTED_EDGE ( 'NONE', *, *, #103, .T. ) ;
#63 = DIRECTION ( 'NONE',  ( 0.000000000000000000, 1.000000000000000000, 0.000000000000000000 ) ) ;
#64 = DATE_AND_TIME ( #228, #146 ) ;
#65 = ORIENTED_EDGE ( 'NONE', *, *, #272, .F. ) ;
#66 = CARTESIAN_POINT ( 'NONE',  ( -1.282766372550154493E-30, 4.499338761231704644E-32, -3.673988912039226017E-16 ) ) ;
#67 = CARTESIAN_POINT ( 'NONE',  ( 1.326762908760390423E-13, -4.653657836759941941E-15, 38.00000000000000000 ) ) ;
#68 = ORIENTED_EDGE ( 'NONE', *, *, #40, .T. ) ;
#69 = ORIENTED_EDGE ( 'NONE', *, *, #213, .F. ) ;
#70 = CC_DESIGN_APPROVAL ( #6, ( #266 ) ) ;
#71 = ORIENTED_EDGE ( 'NONE', *, *, #224, .F. ) ;
#72 = DATE_AND_TIME ( #284, #157 ) ;
#73 = CYLINDRICAL_SURFACE ( 'NONE', #306, 3.999999999999993339 ) ;
#74 = CARTESIAN_POINT ( 'NONE',  ( 2.797103940831777906E-13, -3.200000000000013056, 80.00000000000000000 ) ) ;
#75 = EDGE_CURVE ( 'NONE', #139, #305, #48, .T. ) ;
#76 = DIRECTION ( 'NONE',  ( -3.491481338843133355E-15, 1.224646799147353207E-16, -1.000000000000000000 ) ) ;
#77 = PRODUCT_DEFINITION_SHAPE ( 'NONE', 'NONE',  #218 ) ;
#78 = VERTEX_POINT ( 'NONE', #203 ) ;
#79 = APPROVAL_PERSON_ORGANIZATION ( #31, #6, #276 ) ;
#80 = PERSON_AND_ORGANIZATION_ROLE ( 'design_owner' ) ;
#81 = DIRECTION ( 'NONE',  ( -4.275831445896958607E-31, -1.000000000000000000, -1.224646799147353207E-16 ) ) ;
#82 = PERSON_AND_ORGANIZATION ( #59, #296 ) ;
#83 = COORDINATED_UNIVERSAL_TIME_OFFSET ( 1, 0, .AHEAD. ) ;
#84 = COORDINATED_UNIVERSAL_TIME_OFFSET ( 1, 0, .AHEAD. ) ;
#85 = AXIS2_PLACEMENT_3D ( 'NONE', #253, #60, #162 ) ;
#86 = UNCERTAINTY_MEASURE_WITH_UNIT (LENGTH_MEASURE( 1.000000000000000082E-05 ), #148, 'distance_accuracy_value', 'NONE');
#87 = PLANE ( 'NONE',  #85 ) ;
#88 = ORIENTED_EDGE ( 'NONE', *, *, #299, .T. ) ;
#89 = DIRECTION ( 'NONE',  ( 0.000000000000000000, 1.000000000000000000, 0.000000000000000000 ) ) ;
#90 = DIRECTION ( 'NONE',  ( -3.491481338843133355E-15, 1.224646799147353207E-16, -1.000000000000000000 ) ) ;
#91 = ORIENTED_EDGE ( 'NONE', *, *, #267, .T. ) ;
#92 = DIRECTION ( 'NONE',  ( -3.491481338843133355E-15, 1.224646799147353207E-16, -1.000000000000000000 ) ) ;
#93 = APPROVAL_PERSON_ORGANIZATION ( #25, #29, #3 ) ;
#94 = ORIENTED_EDGE ( 'NONE', *, *, #40, .F. ) ;
#95 = VECTOR ( 'NONE', #145, 1000.000000000000000 ) ;
#96 = CONICAL_SURFACE ( 'NONE', #269, 3.200000000000003286, 0.7853981633974597143 ) ;
#97 = EDGE_LOOP ( 'NONE', ( #99, #38, #137, #71 ) ) ;
#98 = EDGE_CURVE ( 'NONE', #165, #161, #49, .T. ) ;
#99 = ORIENTED_EDGE ( 'NONE', *, *, #312, .T. ) ;
#100 = CARTESIAN_POINT ( 'NONE',  ( 2.783627874196064970E-13, -3.200000000000013056, 80.00000000000000000 ) ) ;
#101 = CARTESIAN_POINT ( 'NONE',  ( -6.413831862750772464E-31, 2.249669380615852322E-32, -1.836994456019613009E-16 ) ) ;
#102 = VERTEX_POINT ( 'NONE', #33 ) ;
#103 = EDGE_CURVE ( 'NONE', #165, #102, #300, .T. ) ;
#104 = DIRECTION ( 'NONE',  ( -3.491481338843133355E-15, 1.224646799147353207E-16, -1.000000000000000000 ) ) ;
#105 = CARTESIAN_POINT ( 'NONE',  ( 2.793185071074506684E-13, -9.797174393178826052E-15, 80.00000000000000000 ) ) ;
#106 = CARTESIAN_POINT ( 'NONE',  ( -1.282766372550154493E-30, 4.499338761231704644E-32, -3.673988912039226017E-16 ) ) ;
#107 = APPROVAL_DATE_TIME ( #177, #29 ) ;
#108 = CC_DESIGN_SECURITY_CLASSIFICATION ( #152, ( #266 ) ) ;
#109 = ORIENTED_EDGE ( 'NONE', *, *, #12, .F. ) ;
#110 = AXIS2_PLACEMENT_3D ( 'NONE', #150, #283, #112 ) ;
#111 = VERTEX_POINT ( 'NONE', #190 ) ;
#112 = DIRECTION ( 'NONE',  ( 4.275831445896958607E-31, 1.000000000000000000, 1.224646799147353207E-16 ) ) ;
#113 = FACE_OUTER_BOUND ( 'NONE', #61, .T. ) ;
#114 = CARTESIAN_POINT ( 'NONE',  ( 0.000000000000000000, 0.000000000000000000, 0.000000000000000000 ) ) ;
#115 = CIRCLE ( 'NONE', #35, 3.999999999999995559 ) ;
#116 = ORIENTED_EDGE ( 'NONE', *, *, #260, .T. ) ;
#117 = PRODUCT ( '372714', '372714', '', ( #242 ) ) ;
#118 = CIRCLE ( 'NONE', #159, 4.000000000000002665 ) ;
#119 = VERTEX_POINT ( 'NONE', #178 ) ;
#120 = FACE_OUTER_BOUND ( 'NONE', #208, .T. ) ;
#121 = COORDINATED_UNIVERSAL_TIME_OFFSET ( 1, 0, .AHEAD. ) ;
#122 = DIRECTION ( 'NONE',  ( -4.275831445896958607E-31, -1.000000000000000000, -1.224646799147353207E-16 ) ) ;
#123 = CC_DESIGN_APPROVAL ( #127, ( #218 ) ) ;
#124 = VECTOR ( 'NONE', #237, 1000.000000000000000 ) ;
#125 = PERSON_AND_ORGANIZATION ( #59, #296 ) ;
#126 = DATE_AND_TIME ( #10, #292 ) ;
#127 = APPROVAL ( #151, 'UNSPECIFIED' ) ;
#128 = CALENDAR_DATE ( 2023, 31, 3 ) ;
#129 = ADVANCED_FACE ( 'NONE', ( #277 ), #96, .T. ) ;
#130 = CIRCLE ( 'NONE', #304, 4.000000000000002665 ) ;
#131 = CONICAL_SURFACE ( 'NONE', #258, 3.200000000000003286, 0.7853981633974597143 ) ;
#132 = PERSON_AND_ORGANIZATION_ROLE ( 'creator' ) ;
#133 = CIRCLE ( 'NONE', #176, 3.999999999999990674 ) ;
#134 = LINE ( 'NONE', #257, #311 ) ;
#135 = DIRECTION ( 'NONE',  ( 0.000000000000000000, 1.000000000000000000, 0.000000000000000000 ) ) ;
#136 = CIRCLE ( 'NONE', #308, 3.200000000000003286 ) ;
#137 = ORIENTED_EDGE ( 'NONE', *, *, #267, .F. ) ;
#138 = DIRECTION ( 'NONE',  ( 0.000000000000000000, 1.000000000000000000, 0.000000000000000000 ) ) ;
#139 = VERTEX_POINT ( 'NONE', #209 ) ;
#140 = ORIENTED_EDGE ( 'NONE', *, *, #299, .F. ) ;
#141 = MANIFOLD_SOLID_BREP ( 'Corps-Déplacer/Copier1[2]', #251 ) ;
#142 = MANIFOLD_SOLID_BREP ( 'Corps-Déplacer/Copier1[1]', #244 ) ;
#143 = CARTESIAN_POINT ( 'NONE',  ( 0.000000000000000000, 0.000000000000000000, 0.000000000000000000 ) ) ;
#144 = ORIENTED_EDGE ( 'NONE', *, *, #272, .T. ) ;
#145 = DIRECTION ( 'NONE',  ( -2.382254525458687493E-15, -0.7071067811865554553, -0.7071067811865395791 ) ) ;
#146 = LOCAL_TIME ( 8, 31, 55.00000000000000000, #147 ) ;
#147 = COORDINATED_UNIVERSAL_TIME_OFFSET ( 1, 0, .AHEAD. ) ;
#148 =( LENGTH_UNIT ( ) NAMED_UNIT ( * ) SI_UNIT ( .MILLI., .METRE. ) );
#149 = CIRCLE ( 'NONE', #169, 3.999999999999990674 ) ;
#150 = CARTESIAN_POINT ( 'NONE',  ( 0.000000000000000000, 0.000000000000000000, 0.000000000000000000 ) ) ;
#151 = APPROVAL_STATUS ( 'not_yet_approved' ) ;
#152 = SECURITY_CLASSIFICATION ( '', '', #273 ) ;
#153 = CC_DESIGN_DATE_AND_TIME_ASSIGNMENT ( #227, #221, ( #152 ) ) ;
#154 = VECTOR ( 'NONE', #236, 1000.000000000000000 ) ;
#155 = EDGE_CURVE ( 'NONE', #139, #256, #134, .T. ) ;
#156 = CARTESIAN_POINT ( 'NONE',  ( 1.326762908760390423E-13, 2.999519565323705910E-32, 38.00000000000000000 ) ) ;
#157 = LOCAL_TIME ( 8, 31, 55.00000000000000000, #121 ) ;
#158 = CARTESIAN_POINT ( 'NONE',  ( 2.793185071074506684E-13, -9.797174393178826052E-15, 80.00000000000000000 ) ) ;
#159 = AXIS2_PLACEMENT_3D ( 'NONE', #307, #262, #285 ) ;
#160 = DIRECTION ( 'NONE',  ( 4.275831445896958607E-31, 1.000000000000000000, 1.224646799147353207E-16 ) ) ;
#161 = VERTEX_POINT ( 'NONE', #274 ) ;
#162 = DIRECTION ( 'NONE',  ( 4.275831445896958607E-31, 1.000000000000000000, 1.224646799147353207E-16 ) ) ;
#163 = EDGE_CURVE ( 'NONE', #161, #119, #133, .T. ) ;
#164 = DIRECTION ( 'NONE',  ( -3.491481338843133355E-15, 1.224646799147353207E-16, -1.000000000000000000 ) ) ;
#165 = VERTEX_POINT ( 'NONE', #187 ) ;
#166 = ORIENTED_EDGE ( 'NONE', *, *, #217, .T. ) ;
#167 = CARTESIAN_POINT ( 'NONE',  ( 1.326762908760390423E-13, -4.653657836759941941E-15, 38.00000000000000000 ) ) ;
#168 = ORIENTED_EDGE ( 'NONE', *, *, #155, .T. ) ;
#169 = AXIS2_PLACEMENT_3D ( 'NONE', #106, #202, #290 ) ;
#170 = DIRECTION ( 'NONE',  ( 0.000000000000000000, 0.000000000000000000, 1.000000000000000000 ) ) ;
#171 = APPLICATION_CONTEXT ( 'configuration controlled 3d designs of mechanical parts and assemblies' ) ;
#172 = DIRECTION ( 'NONE',  ( -3.491481338843133355E-15, 1.224646799147353207E-16, -1.000000000000000000 ) ) ;
#173 = APPLICATION_PROTOCOL_DEFINITION ( 'international standard', 'config_control_design', 1994, #171 ) ;
#174 = DIRECTION ( 'NONE',  ( 3.491481338843133355E-15, -1.224646799147353207E-16, 1.000000000000000000 ) ) ;
#175 = ADVANCED_BREP_SHAPE_REPRESENTATION ( '372714', ( #142, #141, #223 ), #313 ) ;
#176 = AXIS2_PLACEMENT_3D ( 'NONE', #66, #90, #160 ) ;
#177 = DATE_AND_TIME ( #53, #205 ) ;
#178 = CARTESIAN_POINT ( 'NONE',  ( 4.275662058086250086E-31, 3.999999999999990674, 1.224598284550174978E-16 ) ) ;
#179 = LINE ( 'NONE', #37, #154 ) ;
#180 = ORIENTED_EDGE ( 'NONE', *, *, #75, .F. ) ;
#181 = ORIENTED_EDGE ( 'NONE', *, *, #19, .F. ) ;
#182 = CARTESIAN_POINT ( 'NONE',  ( 1.326762908760390423E-13, -4.653657836759941941E-15, 38.00000000000000000 ) ) ;
#183 = DIRECTION ( 'NONE',  ( -3.491481338843133355E-15, 1.224646799147353207E-16, -1.000000000000000000 ) ) ;
#184 = ORIENTED_EDGE ( 'NONE', *, *, #312, .F. ) ;
#185 = CARTESIAN_POINT ( 'NONE',  ( 1.326762908760390423E-13, -4.653657836759941941E-15, 38.00000000000000000 ) ) ;
#186 = ADVANCED_FACE ( 'NONE', ( #207 ), #131, .T. ) ;
#187 = CARTESIAN_POINT ( 'NONE',  ( 6.682800415767838599E-14, -4.000000000000000000, 38.00000000000000000 ) ) ;
#188 = FACE_OUTER_BOUND ( 'NONE', #235, .T. ) ;
#189 = AXIS2_PLACEMENT_3D ( 'NONE', #185, #211, #36 ) ;
#190 = CARTESIAN_POINT ( 'NONE',  ( 1.326762908760390423E-13, 3.999999999999991562, 38.00000000000000000 ) ) ;
#191 = CYLINDRICAL_SURFACE ( 'NONE', #110, 3.999999999999993339 ) ;
#192 = CIRCLE ( 'NONE', #252, 3.999999999999995559 ) ;
#193 = ORIENTED_EDGE ( 'NONE', *, *, #103, .F. ) ;
#194 = ORIENTED_EDGE ( 'NONE', *, *, #217, .F. ) ;
#195 = CARTESIAN_POINT ( 'NONE',  ( 2.765253220363762122E-13, -9.699202649247039195E-15, 79.20000000000001705 ) ) ;
#196 =( NAMED_UNIT ( * ) PLANE_ANGLE_UNIT ( ) SI_UNIT ( $, .RADIAN. ) );
#197 = AXIS2_PLACEMENT_3D ( 'NONE', #105, #294, #295 ) ;
#198 = APPROVAL_STATUS ( 'not_yet_approved' ) ;
#199 = DIRECTION ( 'NONE',  ( 3.491481338843133355E-15, -1.224646799147353207E-16, 1.000000000000000000 ) ) ;
#200 = APPLICATION_CONTEXT ( 'configuration controlled 3d designs of mechanical parts and assemblies' ) ;
#201 = FACE_OUTER_BOUND ( 'NONE', #9, .T. ) ;
#202 = DIRECTION ( 'NONE',  ( -3.491481338843133355E-15, 1.224646799147353207E-16, -1.000000000000000000 ) ) ;
#203 = CARTESIAN_POINT ( 'NONE',  ( 2.050906651758664669E-13, -4.000000000000012434, 79.20000000000001705 ) ) ;
#204 = CARTESIAN_POINT ( 'NONE',  ( 4.898587196589387191E-16, -3.999999999999993339, -4.898587196589421703E-16 ) ) ;
#205 = LOCAL_TIME ( 8, 31, 55.00000000000000000, #83 ) ;
#206 = ADVANCED_FACE ( 'NONE', ( #297 ), #87, .F. ) ;
#207 = FACE_OUTER_BOUND ( 'NONE', #240, .T. ) ;
#208 = EDGE_LOOP ( 'NONE', ( #263, #280, #94, #194 ) ) ;
#209 = CARTESIAN_POINT ( 'NONE',  ( 2.793185071074506684E-13, 3.199999999999993072, 80.00000000000000000 ) ) ;
#210 = ORIENTED_EDGE ( 'NONE', *, *, #19, .T. ) ;
#211 = DIRECTION ( 'NONE',  ( -3.491481338843133355E-15, 1.224646799147353207E-16, -1.000000000000000000 ) ) ;
#212 = FACE_OUTER_BOUND ( 'NONE', #42, .T. ) ;
#213 = EDGE_CURVE ( 'NONE', #78, #232, #179, .T. ) ;
#214 = LINE ( 'NONE', #74, #95 ) ;
#215 = CIRCLE ( 'NONE', #189, 3.999999999999995559 ) ;
#216 = DIRECTION ( 'NONE',  ( -3.491481338843133355E-15, 1.224646799147353207E-16, -1.000000000000000000 ) ) ;
#217 = EDGE_CURVE ( 'NONE', #102, #119, #230, .T. ) ;
#218 = PRODUCT_DEFINITION ( 'UNKNOWN', '', #266, #248 ) ;
#219 = CYLINDRICAL_SURFACE ( 'NONE', #51, 3.999999999999999112 ) ;
#220 = PERSON_AND_ORGANIZATION ( #59, #296 ) ;
#221 = DATE_TIME_ROLE ( 'classification_date' ) ;
#222 = DIRECTION ( 'NONE',  ( 3.491481338843133355E-15, -1.224646799147353207E-16, 1.000000000000000000 ) ) ;
#223 = AXIS2_PLACEMENT_3D ( 'NONE', #270, #170, #264 ) ;
#224 = EDGE_CURVE ( 'NONE', #256, #111, #8, .T. ) ;
#225 = SHAPE_DEFINITION_REPRESENTATION ( #77, #175 ) ;
#226 = AXIS2_PLACEMENT_3D ( 'NONE', #156, #199, #122 ) ;
#227 = DATE_AND_TIME ( #128, #56 ) ;
#228 = CALENDAR_DATE ( 2023, 31, 3 ) ;
#229 = DIRECTION ( 'NONE',  ( -3.491481338843133355E-15, 1.224646799147353207E-16, -1.000000000000000000 ) ) ;
#230 = LINE ( 'NONE', #11, #298 ) ;
#232 = VERTEX_POINT ( 'NONE', #13 ) ;
#231 = AXIS2_PLACEMENT_3D ( 'NONE', #101, #174, #81 ) ;
#233 = DIRECTION ( 'NONE',  ( -3.491481338843133355E-15, 1.224646799147353207E-16, -1.000000000000000000 ) ) ;
#234 = DIRECTION ( 'NONE',  ( -3.491481338843133355E-15, 1.224646799147353207E-16, -1.000000000000000000 ) ) ;
#235 = EDGE_LOOP ( 'NONE', ( #4, #62, #166, #16 ) ) ;
#236 = DIRECTION ( 'NONE',  ( -3.491481338843133355E-15, 1.224646799147353207E-16, -1.000000000000000000 ) ) ;
#237 = DIRECTION ( 'NONE',  ( -3.491481338843133355E-15, 1.224646799147353207E-16, -1.000000000000000000 ) ) ;
#238 = ORIENTED_EDGE ( 'NONE', *, *, #155, .F. ) ;
#239 = VECTOR ( 'NONE', #183, 1000.000000000000000 ) ;
#240 = EDGE_LOOP ( 'NONE', ( #30, #88, #184, #238 ) ) ;
#241 = CARTESIAN_POINT ( 'NONE',  ( 1.326762908760390423E-13, 2.999519565323705910E-32, 38.00000000000000000 ) ) ;
#242 = MECHANICAL_CONTEXT ( 'NONE', #200, 'mechanical' ) ;
#243 = ADVANCED_FACE ( 'NONE', ( #212 ), #219, .T. ) ;
#244 = CLOSED_SHELL ( 'NONE', ( #186, #2, #45, #243, #129, #206 ) ) ;
#245 = APPROVAL_ROLE ( '' ) ;
#246 = APPROVAL_PERSON_ORGANIZATION ( #125, #127, #245 ) ;
#247 = FACE_OUTER_BOUND ( 'NONE', #261, .T. ) ;
#248 = DESIGN_CONTEXT ( 'detailed design', #171, 'design' ) ;
#249 = PERSON_AND_ORGANIZATION ( #59, #296 ) ;
#250 = ADVANCED_FACE ( 'NONE', ( #201 ), #55, .F. ) ;
#251 = CLOSED_SHELL ( 'NONE', ( #34, #250, #282, #286 ) ) ;
#252 = AXIS2_PLACEMENT_3D ( 'NONE', #167, #18, #14 ) ;
#253 = CARTESIAN_POINT ( 'NONE',  ( 2.793185071074506684E-13, 2.399615652258959583E-32, 80.00000000000000000 ) ) ;
#254 = ORIENTED_EDGE ( 'NONE', *, *, #260, .F. ) ;
#255 = CARTESIAN_POINT ( 'NONE',  ( 2.793185071074506684E-13, -9.797174393178826052E-15, 80.00000000000000000 ) ) ;
#256 = VERTEX_POINT ( 'NONE', #268 ) ;
#257 = CARTESIAN_POINT ( 'NONE',  ( 2.793185071074506684E-13, 3.199999999999993072, 80.00000000000000000 ) ) ;
#258 = AXIS2_PLACEMENT_3D ( 'NONE', #158, #281, #278 ) ;
#259 = CARTESIAN_POINT ( 'NONE',  ( 1.710332578358783092E-30, 3.999999999999999112, 4.898587196589411843E-16 ) ) ;
#260 = EDGE_CURVE ( 'NONE', #305, #139, #136, .T. ) ;
#261 = EDGE_LOOP ( 'NONE', ( #91, #144 ) ) ;
#262 = DIRECTION ( 'NONE',  ( -3.491481338843133355E-15, 1.224646799147353207E-16, -1.000000000000000000 ) ) ;
#263 = ORIENTED_EDGE ( 'NONE', *, *, #12, .T. ) ;
#264 = DIRECTION ( 'NONE',  ( 1.000000000000000000, 0.000000000000000000, 0.000000000000000000 ) ) ;
#265 = PERSON_AND_ORGANIZATION_ROLE ( 'creator' ) ;
#266 = PRODUCT_DEFINITION_FORMATION_WITH_SPECIFIED_SOURCE ( 'ANY', '', #117, .NOT_KNOWN. ) ;
#267 = EDGE_CURVE ( 'NONE', #111, #232, #115, .T. ) ;
#268 = CARTESIAN_POINT ( 'NONE',  ( 2.765253220363762122E-13, 3.999999999999993339, 79.20000000000001705 ) ) ;
#269 = AXIS2_PLACEMENT_3D ( 'NONE', #255, #229, #138 ) ;
#270 = CARTESIAN_POINT ( 'NONE',  ( 0.000000000000000000, 0.000000000000000000, 0.000000000000000000 ) ) ;
#271 = AXIS2_PLACEMENT_3D ( 'NONE', #143, #172, #46 ) ;
#272 = EDGE_CURVE ( 'NONE', #232, #111, #215, .T. ) ;
#273 = SECURITY_CLASSIFICATION_LEVEL ( 'unclassified' ) ;
#274 = CARTESIAN_POINT ( 'NONE',  ( 6.682800415767844910E-14, -3.999999999999990674, -8.572576108630961548E-16 ) ) ;
#275 = APPLICATION_PROTOCOL_DEFINITION ( 'international standard', 'config_control_design', 1994, #200 ) ;
#276 = APPROVAL_ROLE ( '' ) ;
#277 = FACE_OUTER_BOUND ( 'NONE', #39, .T. ) ;
#278 = DIRECTION ( 'NONE',  ( 0.000000000000000000, 1.000000000000000000, 0.000000000000000000 ) ) ;
#279 = EDGE_LOOP ( 'NONE', ( #180, #254 ) ) ;
#280 = ORIENTED_EDGE ( 'NONE', *, *, #98, .T. ) ;
#281 = DIRECTION ( 'NONE',  ( -3.491481338843133355E-15, 1.224646799147353207E-16, -1.000000000000000000 ) ) ;
#282 = ADVANCED_FACE ( 'NONE', ( #188 ), #191, .T. ) ;
#283 = DIRECTION ( 'NONE',  ( -3.491481338843133355E-15, 1.224646799147353207E-16, -1.000000000000000000 ) ) ;
#284 = CALENDAR_DATE ( 2023, 31, 3 ) ;
#285 = DIRECTION ( 'NONE',  ( 0.000000000000000000, 1.000000000000000000, 0.000000000000000000 ) ) ;
#286 = ADVANCED_FACE ( 'NONE', ( #113 ), #288, .T. ) ;
#287 = CC_DESIGN_DATE_AND_TIME_ASSIGNMENT ( #64, #58, ( #218 ) ) ;
#288 = PLANE ( 'NONE',  #44 ) ;
#289 = PERSON_AND_ORGANIZATION ( #59, #296 ) ;
#290 = DIRECTION ( 'NONE',  ( 4.275831445896958607E-31, 1.000000000000000000, 1.224646799147353207E-16 ) ) ;
#291 = PERSON_AND_ORGANIZATION ( #59, #296 ) ;
#292 = LOCAL_TIME ( 8, 31, 55.00000000000000000, #84 ) ;
#293 = APPROVAL_STATUS ( 'not_yet_approved' ) ;
#294 = DIRECTION ( 'NONE',  ( -3.491481338843133355E-15, 1.224646799147353207E-16, -1.000000000000000000 ) ) ;
#295 = DIRECTION ( 'NONE',  ( 0.000000000000000000, 1.000000000000000000, 0.000000000000000000 ) ) ;
#296 = ORGANIZATION ( 'UNSPECIFIED', 'UNSPECIFIED', '' ) ;
#297 = FACE_OUTER_BOUND ( 'NONE', #279, .T. ) ;
#298 = VECTOR ( 'NONE', #164, 1000.000000000000000 ) ;
#299 = EDGE_CURVE ( 'NONE', #305, #78, #214, .T. ) ;
#300 = CIRCLE ( 'NONE', #22, 3.999999999999995559 ) ;
#301 = ORIENTED_EDGE ( 'NONE', *, *, #163, .T. ) ;
#302 = DIRECTION ( 'NONE',  ( -2.468850131082236945E-15, 0.7071067811865556774, -0.7071067811865393571 ) ) ;
#303 = PRODUCT_RELATED_PRODUCT_CATEGORY ( 'detail', '', ( #117 ) ) ;
#304 = AXIS2_PLACEMENT_3D ( 'NONE', #195, #76, #5 ) ;
#305 = VERTEX_POINT ( 'NONE', #100 ) ;
#306 = AXIS2_PLACEMENT_3D ( 'NONE', #114, #216, #310 ) ;
#307 = CARTESIAN_POINT ( 'NONE',  ( 2.765253220363762122E-13, -9.699202649247039195E-15, 79.20000000000001705 ) ) ;
#308 = AXIS2_PLACEMENT_3D ( 'NONE', #27, #92, #135 ) ;
#309 = CC_DESIGN_PERSON_AND_ORGANIZATION_ASSIGNMENT ( #82, #265, ( #218 ) ) ;
#310 = DIRECTION ( 'NONE',  ( 4.275831445896958607E-31, 1.000000000000000000, 1.224646799147353207E-16 ) ) ;
#311 = VECTOR ( 'NONE', #302, 1000.000000000000000 ) ;
#312 = EDGE_CURVE ( 'NONE', #256, #78, #130, .T. ) ;
#313 =( GEOMETRIC_REPRESENTATION_CONTEXT ( 3 ) GLOBAL_UNCERTAINTY_ASSIGNED_CONTEXT ( ( #86 ) ) GLOBAL_UNIT_ASSIGNED_CONTEXT ( ( #148, #196, #47 ) ) REPRESENTATION_CONTEXT ( 'NONE', 'WORKASPACE' ) );
ENDSEC;
END-ISO-10303-21;
