ISO-10303-21;
HEADER;
FILE_DESCRIPTION (( 'STEP AP203' ),
    '1' );
FILE_NAME ('372713.step',
    '2023-03-31T06:31:54',
    ( '' ),
    ( '' ),
    'SwSTEP 2.0',
    'SolidWorks 2022',
    '' );
FILE_SCHEMA (( 'CONFIG_CONTROL_DESIGN' ));
ENDSEC;

DATA;
#1 = CARTESIAN_POINT ( 'NONE',  ( 1.457354824155332124E-13, -4.000000000000004441, 59.19999999999999574 ) ) ;
#2 = AXIS2_PLACEMENT_3D ( 'NONE', #110, #40, #161 ) ;
#3 = ADVANCED_FACE ( 'NONE', ( #91 ), #15, .T. ) ;
#4 = CYLINDRICAL_SURFACE ( 'NONE', #142, 3.999999999999994671 ) ;
#5 = CARTESIAN_POINT ( 'NONE',  ( 2.094888803305880013E-13, -7.347880794884118356E-15, 60.00000000000000000 ) ) ;
#6 = FACE_OUTER_BOUND ( 'NONE', #252, .T. ) ;
#7 = ORIENTED_EDGE ( 'NONE', *, *, #160, .F. ) ;
#8 = PRODUCT_DEFINITION_FORMATION_WITH_SPECIFIED_SOURCE ( 'ANY', '', #73, .NOT_KNOWN. ) ;
#9 = DATE_TIME_ROLE ( 'classification_date' ) ;
#10 = ORIENTED_EDGE ( 'NONE', *, *, #153, .T. ) ;
#11 = PLANE ( 'NONE',  #49 ) ;
#12 = EDGE_LOOP ( 'NONE', ( #297, #125 ) ) ;
#13 = EDGE_CURVE ( 'NONE', #70, #279, #87, .T. ) ;
#14 = APPROVAL_ROLE ( '' ) ;
#15 = PLANE ( 'NONE',  #2 ) ;
#16 = DIRECTION ( 'NONE',  ( -3.491481338843133355E-15, 1.224646799147353207E-16, -1.000000000000000000 ) ) ;
#17 = AXIS2_PLACEMENT_3D ( 'NONE', #232, #265, #68 ) ;
#18 = CARTESIAN_POINT ( 'NONE',  ( 2.094888803305880013E-13, 3.199999999999990408, 60.00000000000000000 ) ) ;
#19 = ORIENTED_EDGE ( 'NONE', *, *, #295, .T. ) ;
#20 = ADVANCED_FACE ( 'NONE', ( #245 ), #179, .T. ) ;
#21 = CARTESIAN_POINT ( 'NONE',  ( 2.094888803305880013E-13, 3.199999999999990408, 60.00000000000000000 ) ) ;
#22 = DIRECTION ( 'NONE',  ( -3.491481338843133355E-15, 1.224646799147353207E-16, -1.000000000000000000 ) ) ;
#23 = FACE_OUTER_BOUND ( 'NONE', #177, .T. ) ;
#24 = ORIENTED_EDGE ( 'NONE', *, *, #13, .T. ) ;
#25 = DIRECTION ( 'NONE',  ( 0.000000000000000000, 1.000000000000000000, 0.000000000000000000 ) ) ;
#26 = PLANE ( 'NONE',  #269 ) ;
#27 = PERSON_AND_ORGANIZATION ( #54, #311 ) ;
#28 = EDGE_CURVE ( 'NONE', #107, #70, #290, .T. ) ;
#29 = AXIS2_PLACEMENT_3D ( 'NONE', #83, #157, #280 ) ;
#30 = DIRECTION ( 'NONE',  ( 4.275831445896958607E-31, 1.000000000000000000, 1.224646799147352961E-16 ) ) ;
#31 = COORDINATED_UNIVERSAL_TIME_OFFSET ( 1, 0, .AHEAD. ) ;
#32 = EDGE_LOOP ( 'NONE', ( #102, #221 ) ) ;
#33 = CARTESIAN_POINT ( 'NONE',  ( 4.898587196589385219E-16, -3.999999999999991562, -4.898587196589419731E-16 ) ) ;
#34 = CARTESIAN_POINT ( 'NONE',  ( 4.898587196589389163E-16, -3.999999999999994671, -4.898587196589422689E-16 ) ) ;
#35 = ORIENTED_EDGE ( 'NONE', *, *, #270, .F. ) ;
#36 = EDGE_CURVE ( 'NONE', #211, #275, #223, .T. ) ;
#37 = DIRECTION ( 'NONE',  ( -3.491481338843133355E-15, 1.224646799147353207E-16, -1.000000000000000000 ) ) ;
#38 = CARTESIAN_POINT ( 'NONE',  ( 8.379555213223520053E-14, -2.939152317953647894E-15, 24.00000000000000000 ) ) ;
#39 = CARTESIAN_POINT ( 'NONE',  ( 0.000000000000000000, 0.000000000000000000, 0.000000000000000000 ) ) ;
#40 = DIRECTION ( 'NONE',  ( 3.491481338843133355E-15, -1.224646799147353207E-16, 1.000000000000000000 ) ) ;
#41 = LOCAL_TIME ( 8, 31, 54.00000000000000000, #146 ) ;
#42 = EDGE_CURVE ( 'NONE', #205, #275, #292, .T. ) ;
#43 = MECHANICAL_CONTEXT ( 'NONE', #133, 'mechanical' ) ;
#44 = CARTESIAN_POINT ( 'NONE',  ( 0.000000000000000000, 0.000000000000000000, 0.000000000000000000 ) ) ;
#45 = VECTOR ( 'NONE', #300, 1000.000000000000000 ) ;
#46 = APPLICATION_PROTOCOL_DEFINITION ( 'international standard', 'config_control_design', 1994, #287 ) ;
#47 = DIRECTION ( 'NONE',  ( -3.491481338843133355E-15, 1.224646799147353207E-16, -1.000000000000000000 ) ) ;
#48 = ADVANCED_FACE ( 'NONE', ( #194 ), #4, .T. ) ;
#49 = AXIS2_PLACEMENT_3D ( 'NONE', #176, #65, #209 ) ;
#50 = CARTESIAN_POINT ( 'NONE',  ( 2.094888803305880013E-13, -7.347880794884118356E-15, 60.00000000000000000 ) ) ;
#51 = CC_DESIGN_APPROVAL ( #164, ( #256 ) ) ;
#52 = EDGE_CURVE ( 'NONE', #238, #67, #94, .T. ) ;
#53 = ORIENTED_EDGE ( 'NONE', *, *, #52, .T. ) ;
#54 = PERSON ( 'UNSPECIFIED', 'UNSPECIFIED', 'UNSPECIFIED', ('UNSPECIFIED'), ('UNSPECIFIED'), ('UNSPECIFIED') ) ;
#55 = APPROVAL_STATUS ( 'not_yet_approved' ) ;
#56 =( LENGTH_UNIT ( ) NAMED_UNIT ( * ) SI_UNIT ( .MILLI., .METRE. ) );
#57 = ORIENTED_EDGE ( 'NONE', *, *, #243, .F. ) ;
#58 = CARTESIAN_POINT ( 'NONE',  ( 8.379555213223520053E-14, -2.939152317953647894E-15, 24.00000000000000000 ) ) ;
#59 = ORIENTED_EDGE ( 'NONE', *, *, #13, .F. ) ;
#60 = DIRECTION ( 'NONE',  ( 0.000000000000000000, 1.000000000000000000, 0.000000000000000000 ) ) ;
#61 = COORDINATED_UNIVERSAL_TIME_OFFSET ( 1, 0, .AHEAD. ) ;
#63 = AXIS2_PLACEMENT_3D ( 'NONE', #212, #86, #282 ) ;
#62 = DIRECTION ( 'NONE',  ( -3.491481338843133355E-15, 1.224646799147353207E-16, -1.000000000000000000 ) ) ;
#64 = ORIENTED_EDGE ( 'NONE', *, *, #160, .T. ) ;
#65 = DIRECTION ( 'NONE',  ( -3.491481338843133355E-15, 1.224646799147353207E-16, -1.000000000000000000 ) ) ;
#66 = CARTESIAN_POINT ( 'NONE',  ( 8.379555213223520053E-14, 3.999999999999990674, 24.00000000000000000 ) ) ;
#67 = VERTEX_POINT ( 'NONE', #21 ) ;
#68 = DIRECTION ( 'NONE',  ( -4.275831445896958607E-31, -1.000000000000000000, -1.224646799147353207E-16 ) ) ;
#69 = APPLICATION_PROTOCOL_DEFINITION ( 'international standard', 'config_control_design', 1994, #133 ) ;
#70 = VERTEX_POINT ( 'NONE', #92 ) ;
#71 = MANIFOLD_SOLID_BREP ( 'Corps-Déplacer/Copier1[2]', #170 ) ;
#72 = ADVANCED_FACE ( 'NONE', ( #167 ), #266, .T. ) ;
#73 = PRODUCT ( '372713', '372713', '', ( #43 ) ) ;
#74 = CIRCLE ( 'NONE', #115, 3.999999999999997335 ) ;
#75 = CARTESIAN_POINT ( 'NONE',  ( 1.710332578358781341E-30, 3.999999999999994671, 4.898587196589406912E-16 ) ) ;
#76 = AXIS2_PLACEMENT_3D ( 'NONE', #264, #37, #139 ) ;
#77 = DESIGN_CONTEXT ( 'detailed design', #287, 'design' ) ;
#78 = ORIENTED_EDGE ( 'NONE', *, *, #249, .F. ) ;
#79 = CC_DESIGN_APPROVAL ( #291, ( #8 ) ) ;
#80 = VERTEX_POINT ( 'NONE', #1 ) ;
#81 = CARTESIAN_POINT ( 'NONE',  ( 1.457354824155332629E-13, -3.999999999999995559, 24.00000000000000000 ) ) ;
#82 = DATE_AND_TIME ( #180, #104 ) ;
#83 = CARTESIAN_POINT ( 'NONE',  ( -1.282757270704399626E-30, 4.499306836254344228E-32, -3.673962843316894584E-16 ) ) ;
#84 = FACE_OUTER_BOUND ( 'NONE', #12, .T. ) ;
#85 = AXIS2_PLACEMENT_3D ( 'NONE', #38, #89, #192 ) ;
#86 = DIRECTION ( 'NONE',  ( -3.491481338843133355E-15, 1.224646799147353207E-16, -1.000000000000000000 ) ) ;
#87 = CIRCLE ( 'NONE', #76, 3.999999999999990674 ) ;
#88 = CC_DESIGN_DATE_AND_TIME_ASSIGNMENT ( #208, #305, ( #313 ) ) ;
#89 = DIRECTION ( 'NONE',  ( -3.491481338843133355E-15, 1.224646799147353207E-16, -1.000000000000000000 ) ) ;
#90 = AXIS2_PLACEMENT_3D ( 'NONE', #182, #257, #30 ) ;
#91 = FACE_OUTER_BOUND ( 'NONE', #281, .T. ) ;
#92 = CARTESIAN_POINT ( 'NONE',  ( 4.275753076543798760E-31, 3.999999999999990674, 1.224624353272506412E-16 ) ) ;
#93 =( NAMED_UNIT ( * ) PLANE_ANGLE_UNIT ( ) SI_UNIT ( $, .RADIAN. ) );
#94 = CIRCLE ( 'NONE', #259, 3.199999999999997957 ) ;
#95 = ADVANCED_FACE ( 'NONE', ( #116 ), #267, .T. ) ;
#96 = COORDINATED_UNIVERSAL_TIME_OFFSET ( 1, 0, .AHEAD. ) ;
#97 = DIRECTION ( 'NONE',  ( 4.275831445896959482E-31, 1.000000000000000000, 1.224646799147353454E-16 ) ) ;
#98 = DATE_AND_TIME ( #199, #141 ) ;
#99 = VECTOR ( 'NONE', #47, 1000.000000000000000 ) ;
#100 = ORIENTED_EDGE ( 'NONE', *, *, #36, .T. ) ;
#101 = CARTESIAN_POINT ( 'NONE',  ( 8.379555213223520053E-14, 2.999519565323706458E-32, 24.00000000000000000 ) ) ;
#102 = ORIENTED_EDGE ( 'NONE', *, *, #270, .T. ) ;
#103 = CARTESIAN_POINT ( 'NONE',  ( 8.379555213223520053E-14, 3.999999999999990674, 24.00000000000000000 ) ) ;
#104 = LOCAL_TIME ( 8, 31, 54.00000000000000000, #31 ) ;
#105 = EDGE_CURVE ( 'NONE', #67, #238, #155, .T. ) ;
#106 = EDGE_LOOP ( 'NONE', ( #127, #173, #59, #250 ) ) ;
#107 = VERTEX_POINT ( 'NONE', #103 ) ;
#108 = EDGE_LOOP ( 'NONE', ( #186, #10, #181, #215 ) ) ;
#109 = LOCAL_TIME ( 8, 31, 54.00000000000000000, #61 ) ;
#110 = CARTESIAN_POINT ( 'NONE',  ( 8.379555213223520053E-14, 2.999519565323706458E-32, 24.00000000000000000 ) ) ;
#111 = LINE ( 'NONE', #34, #126 ) ;
#112 = DIRECTION ( 'NONE',  ( 4.275831445896958607E-31, 1.000000000000000000, 1.224646799147352961E-16 ) ) ;
#113 = FACE_OUTER_BOUND ( 'NONE', #106, .T. ) ;
#114 = CC_DESIGN_PERSON_AND_ORGANIZATION_ASSIGNMENT ( #218, #200, ( #73 ) ) ;
#115 = AXIS2_PLACEMENT_3D ( 'NONE', #156, #278, #25 ) ;
#116 = FACE_OUTER_BOUND ( 'NONE', #201, .T. ) ;
#117 = DIRECTION ( 'NONE',  ( 0.000000000000000000, 0.000000000000000000, 1.000000000000000000 ) ) ;
#118 = AXIS2_PLACEMENT_3D ( 'NONE', #5, #22, #122 ) ;
#119 = APPROVAL_STATUS ( 'not_yet_approved' ) ;
#120 = CIRCLE ( 'NONE', #29, 3.999999999999990674 ) ;
#121 = PRODUCT_RELATED_PRODUCT_CATEGORY ( 'detail', '', ( #73 ) ) ;
#122 = DIRECTION ( 'NONE',  ( 0.000000000000000000, 1.000000000000000000, 0.000000000000000000 ) ) ;
#123 = ADVANCED_FACE ( 'NONE', ( #6 ), #302, .T. ) ;
#124 = DIRECTION ( 'NONE',  ( -3.491481338843133355E-15, 1.224646799147353207E-16, -1.000000000000000000 ) ) ;
#125 = ORIENTED_EDGE ( 'NONE', *, *, #52, .F. ) ;
#126 = VECTOR ( 'NONE', #136, 1000.000000000000000 ) ;
#127 = ORIENTED_EDGE ( 'NONE', *, *, #216, .T. ) ;
#128 = PERSON_AND_ORGANIZATION ( #54, #311 ) ;
#129 = ADVANCED_FACE ( 'NONE', ( #113 ), #235, .T. ) ;
#130 = ADVANCED_BREP_SHAPE_REPRESENTATION ( '372713', ( #276, #71, #299 ), #307 ) ;
#131 = VECTOR ( 'NONE', #242, 1000.000000000000000 ) ;
#132 = ORIENTED_EDGE ( 'NONE', *, *, #28, .T. ) ;
#133 = APPLICATION_CONTEXT ( 'configuration controlled 3d designs of mechanical parts and assemblies' ) ;
#134 = DIRECTION ( 'NONE',  ( -3.491481338843133355E-15, 1.224646799147353207E-16, -1.000000000000000000 ) ) ;
#135 = PERSON_AND_ORGANIZATION ( #54, #311 ) ;
#136 = DIRECTION ( 'NONE',  ( -3.491481338843133355E-15, 1.224646799147353207E-16, -1.000000000000000000 ) ) ;
#137 = DIRECTION ( 'NONE',  ( 0.000000000000000000, 1.000000000000000000, 0.000000000000000000 ) ) ;
#138 = CC_DESIGN_PERSON_AND_ORGANIZATION_ASSIGNMENT ( #128, #255, ( #8 ) ) ;
#139 = DIRECTION ( 'NONE',  ( 4.275831445896958607E-31, 1.000000000000000000, 1.224646799147353207E-16 ) ) ;
#140 = CARTESIAN_POINT ( 'NONE',  ( 4.238763478577652192E-14, -3.999999999999990674, -8.572550039907775680E-16 ) ) ;
#141 = LOCAL_TIME ( 8, 31, 54.00000000000000000, #96 ) ;
#142 = AXIS2_PLACEMENT_3D ( 'NONE', #168, #268, #97 ) ;
#143 = DIRECTION ( 'NONE',  ( -3.491481338843133355E-15, 1.224646799147353207E-16, -1.000000000000000000 ) ) ;
#144 = DIRECTION ( 'NONE',  ( -3.491481338843133355E-15, 1.224646799147353207E-16, -1.000000000000000000 ) ) ;
#145 = CIRCLE ( 'NONE', #85, 3.999999999999993339 ) ;
#146 = COORDINATED_UNIVERSAL_TIME_OFFSET ( 1, 0, .AHEAD. ) ;
#147 = ORIENTED_EDGE ( 'NONE', *, *, #243, .T. ) ;
#148 = UNCERTAINTY_MEASURE_WITH_UNIT (LENGTH_MEASURE( 1.000000000000000082E-05 ), #56, 'distance_accuracy_value', 'NONE');
#149 = AXIS2_PLACEMENT_3D ( 'NONE', #206, #258, #152 ) ;
#150 = APPROVAL_ROLE ( '' ) ;
#151 = ORIENTED_EDGE ( 'NONE', *, *, #310, .T. ) ;
#152 = DIRECTION ( 'NONE',  ( 0.000000000000000000, 1.000000000000000000, 0.000000000000000000 ) ) ;
#153 = EDGE_CURVE ( 'NONE', #238, #80, #214, .T. ) ;
#154 = PERSON_AND_ORGANIZATION ( #54, #311 ) ;
#155 = CIRCLE ( 'NONE', #207, 3.199999999999997957 ) ;
#156 = CARTESIAN_POINT ( 'NONE',  ( 2.066956952595134694E-13, -7.249909050952329922E-15, 59.19999999999999574 ) ) ;
#157 = DIRECTION ( 'NONE',  ( -3.491481338843133355E-15, 1.224646799147353207E-16, -1.000000000000000000 ) ) ;
#158 = LOCAL_TIME ( 8, 31, 54.00000000000000000, #185 ) ;
#159 =( NAMED_UNIT ( * ) SI_UNIT ( $, .STERADIAN. ) SOLID_ANGLE_UNIT ( ) );
#160 = EDGE_CURVE ( 'NONE', #80, #211, #226, .T. ) ;
#161 = DIRECTION ( 'NONE',  ( -4.275831445896958607E-31, -1.000000000000000000, -1.224646799147353207E-16 ) ) ;
#162 = CARTESIAN_POINT ( 'NONE',  ( 2.085331606427437794E-13, -3.200000000000005507, 60.00000000000000000 ) ) ;
#163 = ORIENTED_EDGE ( 'NONE', *, *, #216, .F. ) ;
#164 = APPROVAL ( #236, 'UNSPECIFIED' ) ;
#165 = ORIENTED_EDGE ( 'NONE', *, *, #283, .T. ) ;
#166 = DIRECTION ( 'NONE',  ( 1.000000000000000000, 0.000000000000000000, 0.000000000000000000 ) ) ;
#167 = FACE_OUTER_BOUND ( 'NONE', #285, .T. ) ;
#168 = CARTESIAN_POINT ( 'NONE',  ( 0.000000000000000000, 0.000000000000000000, 0.000000000000000000 ) ) ;
#169 = CARTESIAN_POINT ( 'NONE',  ( 1.710332578358779939E-30, 3.999999999999991562, 4.898587196589401982E-16 ) ) ;
#170 = CLOSED_SHELL ( 'NONE', ( #129, #224, #123, #3 ) ) ;
#171 = FACE_OUTER_BOUND ( 'NONE', #32, .T. ) ;
#172 = DIRECTION ( 'NONE',  ( 0.000000000000000000, 1.000000000000000000, 0.000000000000000000 ) ) ;
#173 = ORIENTED_EDGE ( 'NONE', *, *, #249, .T. ) ;
#174 = DIRECTION ( 'NONE',  ( -4.275831445896958607E-31, -1.000000000000000000, -1.224646799147353207E-16 ) ) ;
#175 = PERSON_AND_ORGANIZATION ( #54, #311 ) ;
#176 = CARTESIAN_POINT ( 'NONE',  ( 2.094888803305880013E-13, 2.399615652258959583E-32, 60.00000000000000000 ) ) ;
#177 = EDGE_LOOP ( 'NONE', ( #24, #19 ) ) ;
#178 = CARTESIAN_POINT ( 'NONE',  ( 2.066956952595134694E-13, 3.999999999999990674, 59.19999999999999574 ) ) ;
#179 = CONICAL_SURFACE ( 'NONE', #118, 3.199999999999997957, 0.7853981633974467247 ) ;
#180 = CALENDAR_DATE ( 2023, 31, 3 ) ;
#181 = ORIENTED_EDGE ( 'NONE', *, *, #310, .F. ) ;
#182 = CARTESIAN_POINT ( 'NONE',  ( 0.000000000000000000, 0.000000000000000000, 0.000000000000000000 ) ) ;
#183 = DIRECTION ( 'NONE',  ( 3.491481338843133355E-15, -1.224646799147353207E-16, 1.000000000000000000 ) ) ;
#184 = ADVANCED_FACE ( 'NONE', ( #171 ), #26, .F. ) ;
#185 = COORDINATED_UNIVERSAL_TIME_OFFSET ( 1, 0, .AHEAD. ) ;
#186 = ORIENTED_EDGE ( 'NONE', *, *, #105, .T. ) ;
#187 = CC_DESIGN_APPROVAL ( #262, ( #313 ) ) ;
#188 = AXIS2_PLACEMENT_3D ( 'NONE', #241, #62, #112 ) ;
#189 = DIRECTION ( 'NONE',  ( -3.491481338843133355E-15, 1.224646799147353207E-16, -1.000000000000000000 ) ) ;
#190 = VERTEX_POINT ( 'NONE', #271 ) ;
#191 = CARTESIAN_POINT ( 'NONE',  ( 2.098807673063151487E-13, -3.200000000000005507, 60.00000000000000000 ) ) ;
#192 = DIRECTION ( 'NONE',  ( 0.000000000000000000, 1.000000000000000000, 0.000000000000000000 ) ) ;
#193 = APPROVAL_PERSON_ORGANIZATION ( #175, #291, #150 ) ;
#194 = FACE_OUTER_BOUND ( 'NONE', #225, .T. ) ;
#195 = CLOSED_SHELL ( 'NONE', ( #20, #72, #184, #48, #95, #301 ) ) ;
#196 = APPROVAL_PERSON_ORGANIZATION ( #27, #164, #14 ) ;
#197 = APPROVAL_DATE_TIME ( #98, #262 ) ;
#198 = DIRECTION ( 'NONE',  ( -3.491481338843133355E-15, 1.224646799147353207E-16, -1.000000000000000000 ) ) ;
#199 = CALENDAR_DATE ( 2023, 31, 3 ) ;
#200 = PERSON_AND_ORGANIZATION_ROLE ( 'design_owner' ) ;
#201 = EDGE_LOOP ( 'NONE', ( #306, #53, #165, #7 ) ) ;
#202 = DATE_AND_TIME ( #204, #109 ) ;
#203 = ORIENTED_EDGE ( 'NONE', *, *, #219, .T. ) ;
#204 = CALENDAR_DATE ( 2023, 31, 3 ) ;
#205 = VERTEX_POINT ( 'NONE', #81 ) ;
#206 = CARTESIAN_POINT ( 'NONE',  ( 8.379555213223520053E-14, -2.939152317953647894E-15, 24.00000000000000000 ) ) ;
#207 = AXIS2_PLACEMENT_3D ( 'NONE', #261, #16, #137 ) ;
#208 = DATE_AND_TIME ( #298, #41 ) ;
#209 = DIRECTION ( 'NONE',  ( 4.275831445896958607E-31, 1.000000000000000000, 1.224646799147353207E-16 ) ) ;
#210 = ORIENTED_EDGE ( 'NONE', *, *, #219, .F. ) ;
#211 = VERTEX_POINT ( 'NONE', #178 ) ;
#212 = CARTESIAN_POINT ( 'NONE',  ( 2.094888803305880013E-13, -7.347880794884118356E-15, 60.00000000000000000 ) ) ;
#213 = SECURITY_CLASSIFICATION_LEVEL ( 'unclassified' ) ;
#214 = LINE ( 'NONE', #191, #45 ) ;
#215 = ORIENTED_EDGE ( 'NONE', *, *, #283, .F. ) ;
#216 = EDGE_CURVE ( 'NONE', #107, #190, #312, .T. ) ;
#217 = APPROVAL_PERSON_ORGANIZATION ( #246, #262, #293 ) ;
#218 = PERSON_AND_ORGANIZATION ( #54, #311 ) ;
#219 = EDGE_CURVE ( 'NONE', #190, #107, #309, .T. ) ;
#220 = AXIS2_PLACEMENT_3D ( 'NONE', #289, #198, #172 ) ;
#221 = ORIENTED_EDGE ( 'NONE', *, *, #42, .T. ) ;
#222 = DIRECTION ( 'NONE',  ( 4.275831445896959482E-31, 1.000000000000000000, 1.224646799147353454E-16 ) ) ;
#223 = LINE ( 'NONE', #75, #233 ) ;
#224 = ADVANCED_FACE ( 'NONE', ( #23 ), #304, .F. ) ;
#225 = EDGE_LOOP ( 'NONE', ( #57, #64, #100, #272 ) ) ;
#226 = CIRCLE ( 'NONE', #284, 3.999999999999997335 ) ;
#227 = CARTESIAN_POINT ( 'NONE',  ( 2.066956952595134694E-13, -7.249909050952329922E-15, 59.19999999999999574 ) ) ;
#228 = CALENDAR_DATE ( 2023, 31, 3 ) ;
#229 = PERSON_AND_ORGANIZATION_ROLE ( 'design_supplier' ) ;
#230 = DIRECTION ( 'NONE',  ( -3.491481338843133355E-15, 1.224646799147353207E-16, -1.000000000000000000 ) ) ;
#231 = CC_DESIGN_PERSON_AND_ORGANIZATION_ASSIGNMENT ( #154, #260, ( #256 ) ) ;
#232 = CARTESIAN_POINT ( 'NONE',  ( -6.413786353521998128E-31, 2.249653418127172114E-32, -1.836981421658447292E-16 ) ) ;
#233 = VECTOR ( 'NONE', #124, 1000.000000000000000 ) ;
#234 = APPROVAL_DATE_TIME ( #202, #164 ) ;
#235 = CYLINDRICAL_SURFACE ( 'NONE', #188, 3.999999999999991562 ) ;
#236 = APPROVAL_STATUS ( 'not_yet_approved' ) ;
#237 = CC_DESIGN_SECURITY_CLASSIFICATION ( #256, ( #8 ) ) ;
#238 = VERTEX_POINT ( 'NONE', #162 ) ;
#239 = CC_DESIGN_DATE_AND_TIME_ASSIGNMENT ( #274, #9, ( #256 ) ) ;
#240 = AXIS2_PLACEMENT_3D ( 'NONE', #58, #230, #254 ) ;
#241 = CARTESIAN_POINT ( 'NONE',  ( 0.000000000000000000, 0.000000000000000000, 0.000000000000000000 ) ) ;
#242 = DIRECTION ( 'NONE',  ( -2.468850131082269288E-15, 0.7071067811865465735, -0.7071067811865485719 ) ) ;
#243 = EDGE_CURVE ( 'NONE', #80, #205, #111, .T. ) ;
#244 = PRODUCT_DEFINITION_SHAPE ( 'NONE', 'NONE',  #313 ) ;
#245 = FACE_OUTER_BOUND ( 'NONE', #108, .T. ) ;
#246 = PERSON_AND_ORGANIZATION ( #54, #311 ) ;
#247 = ORIENTED_EDGE ( 'NONE', *, *, #36, .F. ) ;
#248 = DIRECTION ( 'NONE',  ( 0.000000000000000000, 1.000000000000000000, 0.000000000000000000 ) ) ;
#249 = EDGE_CURVE ( 'NONE', #190, #279, #308, .T. ) ;
#250 = ORIENTED_EDGE ( 'NONE', *, *, #28, .F. ) ;
#251 = APPROVAL_DATE_TIME ( #82, #291 ) ;
#252 = EDGE_LOOP ( 'NONE', ( #78, #203, #132, #288 ) ) ;
#253 = CC_DESIGN_PERSON_AND_ORGANIZATION_ASSIGNMENT ( #294, #296, ( #313 ) ) ;
#254 = DIRECTION ( 'NONE',  ( 0.000000000000000000, 1.000000000000000000, 0.000000000000000000 ) ) ;
#255 = PERSON_AND_ORGANIZATION_ROLE ( 'creator' ) ;
#256 = SECURITY_CLASSIFICATION ( '', '', #213 ) ;
#257 = DIRECTION ( 'NONE',  ( -3.491481338843133355E-15, 1.224646799147353207E-16, -1.000000000000000000 ) ) ;
#258 = DIRECTION ( 'NONE',  ( -3.491481338843133355E-15, 1.224646799147353207E-16, -1.000000000000000000 ) ) ;
#259 = AXIS2_PLACEMENT_3D ( 'NONE', #50, #144, #248 ) ;
#260 = PERSON_AND_ORGANIZATION_ROLE ( 'classification_officer' ) ;
#261 = CARTESIAN_POINT ( 'NONE',  ( 2.094888803305880013E-13, -7.347880794884118356E-15, 60.00000000000000000 ) ) ;
#262 = APPROVAL ( #119, 'UNSPECIFIED' ) ;
#263 = LINE ( 'NONE', #18, #131 ) ;
#264 = CARTESIAN_POINT ( 'NONE',  ( -1.282757270704399626E-30, 4.499306836254344228E-32, -3.673962843316894584E-16 ) ) ;
#265 = DIRECTION ( 'NONE',  ( 3.491481338843133355E-15, -1.224646799147353207E-16, 1.000000000000000000 ) ) ;
#266 = CYLINDRICAL_SURFACE ( 'NONE', #303, 3.999999999999994671 ) ;
#267 = CONICAL_SURFACE ( 'NONE', #63, 3.199999999999997957, 0.7853981633974467247 ) ;
#268 = DIRECTION ( 'NONE',  ( -3.491481338843133355E-15, 1.224646799147353207E-16, -1.000000000000000000 ) ) ;
#269 = AXIS2_PLACEMENT_3D ( 'NONE', #101, #183, #174 ) ;
#270 = EDGE_CURVE ( 'NONE', #275, #205, #145, .T. ) ;
#271 = CARTESIAN_POINT ( 'NONE',  ( 4.238763478577651561E-14, -3.999999999999995559, 24.00000000000000000 ) ) ;
#272 = ORIENTED_EDGE ( 'NONE', *, *, #42, .F. ) ;
#273 = VECTOR ( 'NONE', #189, 1000.000000000000000 ) ;
#274 = DATE_AND_TIME ( #228, #158 ) ;
#275 = VERTEX_POINT ( 'NONE', #66 ) ;
#276 = MANIFOLD_SOLID_BREP ( 'Corps-Déplacer/Copier1[1]', #195 ) ;
#277 = SHAPE_DEFINITION_REPRESENTATION ( #244, #130 ) ;
#278 = DIRECTION ( 'NONE',  ( -3.491481338843133355E-15, 1.224646799147353207E-16, -1.000000000000000000 ) ) ;
#279 = VERTEX_POINT ( 'NONE', #140 ) ;
#280 = DIRECTION ( 'NONE',  ( 4.275831445896958607E-31, 1.000000000000000000, 1.224646799147353207E-16 ) ) ;
#281 = EDGE_LOOP ( 'NONE', ( #163, #210 ) ) ;
#282 = DIRECTION ( 'NONE',  ( 0.000000000000000000, 1.000000000000000000, 0.000000000000000000 ) ) ;
#283 = EDGE_CURVE ( 'NONE', #67, #211, #263, .T. ) ;
#284 = AXIS2_PLACEMENT_3D ( 'NONE', #227, #134, #60 ) ;
#285 = EDGE_LOOP ( 'NONE', ( #151, #147, #35, #247 ) ) ;
#286 = CC_DESIGN_PERSON_AND_ORGANIZATION_ASSIGNMENT ( #135, #229, ( #8 ) ) ;
#287 = APPLICATION_CONTEXT ( 'configuration controlled 3d designs of mechanical parts and assemblies' ) ;
#288 = ORIENTED_EDGE ( 'NONE', *, *, #295, .F. ) ;
#289 = CARTESIAN_POINT ( 'NONE',  ( 8.379555213223520053E-14, -2.939152317953647894E-15, 24.00000000000000000 ) ) ;
#290 = LINE ( 'NONE', #169, #99 ) ;
#291 = APPROVAL ( #55, 'UNSPECIFIED' ) ;
#292 = CIRCLE ( 'NONE', #220, 3.999999999999993339 ) ;
#293 = APPROVAL_ROLE ( '' ) ;
#294 = PERSON_AND_ORGANIZATION ( #54, #311 ) ;
#295 = EDGE_CURVE ( 'NONE', #279, #70, #120, .T. ) ;
#296 = PERSON_AND_ORGANIZATION_ROLE ( 'creator' ) ;
#297 = ORIENTED_EDGE ( 'NONE', *, *, #105, .F. ) ;
#298 = CALENDAR_DATE ( 2023, 31, 3 ) ;
#299 = AXIS2_PLACEMENT_3D ( 'NONE', #39, #117, #166 ) ;
#300 = DIRECTION ( 'NONE',  ( -2.382254525458720625E-15, -0.7071067811865463515, -0.7071067811865487940 ) ) ;
#301 = ADVANCED_FACE ( 'NONE', ( #84 ), #11, .F. ) ;
#303 = AXIS2_PLACEMENT_3D ( 'NONE', #44, #143, #222 ) ;
#302 = CYLINDRICAL_SURFACE ( 'NONE', #90, 3.999999999999991562 ) ;
#304 = PLANE ( 'NONE',  #17 ) ;
#305 = DATE_TIME_ROLE ( 'creation_date' ) ;
#306 = ORIENTED_EDGE ( 'NONE', *, *, #153, .F. ) ;
#307 =( GEOMETRIC_REPRESENTATION_CONTEXT ( 3 ) GLOBAL_UNCERTAINTY_ASSIGNED_CONTEXT ( ( #148 ) ) GLOBAL_UNIT_ASSIGNED_CONTEXT ( ( #56, #93, #159 ) ) REPRESENTATION_CONTEXT ( 'NONE', 'WORKASPACE' ) );
#308 = LINE ( 'NONE', #33, #273 ) ;
#309 = CIRCLE ( 'NONE', #149, 3.999999999999993339 ) ;
#310 = EDGE_CURVE ( 'NONE', #211, #80, #74, .T. ) ;
#311 = ORGANIZATION ( 'UNSPECIFIED', 'UNSPECIFIED', '' ) ;
#312 = CIRCLE ( 'NONE', #240, 3.999999999999993339 ) ;
#313 = PRODUCT_DEFINITION ( 'UNKNOWN', '', #8, #77 ) ;
ENDSEC;
END-ISO-10303-21;
