ISO-10303-21;
HEADER;
FILE_DESCRIPTION (( 'STEP AP203' ),
    '1' );
FILE_NAME ('372712.step',
    '2023-03-31T06:31:54',
    ( '' ),
    ( '' ),
    'SwSTEP 2.0',
    'SolidWorks 2022',
    '' );
FILE_SCHEMA (( 'CONFIG_CONTROL_DESIGN' ));
ENDSEC;

DATA;
#1 = ORIENTED_EDGE ( 'NONE', *, *, #38, .T. ) ;
#2 = DIRECTION ( 'NONE',  ( 0.000000000000000000, 1.000000000000000000, 0.000000000000000000 ) ) ;
#3 = AXIS2_PLACEMENT_3D ( 'NONE', #358, #105, #327 ) ;
#4 = EDGE_CURVE ( 'NONE', #30, #69, #52, .T. ) ;
#5 = CARTESIAN_POINT ( 'NONE',  ( 1.708760863558175771E-13, 7.999999999999991118, 48.66025403784432513 ) ) ;
#6 = ORIENTED_EDGE ( 'NONE', *, *, #24, .T. ) ;
#7 = DIRECTION ( 'NONE',  ( 0.000000000000000000, -1.000000000000000000, 0.000000000000000000 ) ) ;
#8 = VERTEX_POINT ( 'NONE', #297 ) ;
#9 = PLANE ( 'NONE',  #110 ) ;
#10 = VERTEX_POINT ( 'NONE', #278 ) ;
#11 = DIRECTION ( 'NONE',  ( -3.491481338843133355E-15, 1.224646799147353207E-16, -1.000000000000000000 ) ) ;
#12 = UNCERTAINTY_MEASURE_WITH_UNIT (LENGTH_MEASURE( 1.000000000000000082E-05 ), #346, 'distance_accuracy_value', 'NONE');
#13 = EDGE_CURVE ( 'NONE', #339, #340, #101, .T. ) ;
#14 = CALENDAR_DATE ( 2023, 31, 3 ) ;
#15 = DIRECTION ( 'NONE',  ( -3.491481338843133355E-15, 1.224646799147353207E-16, -1.000000000000000000 ) ) ;
#16 = CIRCLE ( 'NONE', #261, 3.999999999999998224 ) ;
#17 = APPROVAL ( #19, 'UNSPECIFIED' ) ;
#18 = CYLINDRICAL_SURFACE ( 'NONE', #35, 3.999999999999998224 ) ;
#19 = APPROVAL_STATUS ( 'not_yet_approved' ) ;
#20 = DIRECTION ( 'NONE',  ( 0.000000000000000000, 1.000000000000000000, 0.000000000000000000 ) ) ;
#21 = MANIFOLD_SOLID_BREP ( 'Corps-Déplacer/Copier1[2]', #195 ) ;
#22 = APPROVAL_ROLE ( '' ) ;
#23 = CARTESIAN_POINT ( 'NONE',  ( 1.177748259155351246E-13, -4.305786019454324428E-15, 33.73205080756886787 ) ) ;
#24 = EDGE_CURVE ( 'NONE', #206, #283, #188, .T. ) ;
#25 = CARTESIAN_POINT ( 'NONE',  ( 2.793185071074506684E-13, 3.199999999999993072, 80.00000000000000000 ) ) ;
#26 = CARTESIAN_POINT ( 'NONE',  ( 1.047444401652940007E-13, -3.829401933506085895E-15, 30.00000000000000000 ) ) ;
#27 = VERTEX_POINT ( 'NONE', #325 ) ;
#28 = DIRECTION ( 'NONE',  ( -4.275831445896958607E-31, -1.000000000000000000, -1.224646799147353207E-16 ) ) ;
#29 = CARTESIAN_POINT ( 'NONE',  ( 5.273961412239120577E-14, 2.999999999999993783, 30.00000000000000000 ) ) ;
#30 = VERTEX_POINT ( 'NONE', #25 ) ;
#31 = EDGE_LOOP ( 'NONE', ( #6, #63 ) ) ;
#32 = LINE ( 'NONE', #335, #338 ) ;
#33 = EDGE_LOOP ( 'NONE', ( #176, #284 ) ) ;
#34 = ORIENTED_EDGE ( 'NONE', *, *, #291, .T. ) ;
#35 = AXIS2_PLACEMENT_3D ( 'NONE', #299, #128, #127 ) ;
#36 = APPLICATION_CONTEXT ( 'configuration controlled 3d designs of mechanical parts and assemblies' ) ;
#37 = CARTESIAN_POINT ( 'NONE',  ( 2.765253220363761617E-13, 3.999999999999993339, 79.20000000000000284 ) ) ;
#38 = EDGE_CURVE ( 'NONE', #69, #10, #240, .T. ) ;
#39 = LOCAL_TIME ( 8, 31, 54.00000000000000000, #219 ) ;
#40 = APPROVAL_STATUS ( 'not_yet_approved' ) ;
#41 = APPLICATION_PROTOCOL_DEFINITION ( 'international standard', 'config_control_design', 1994, #71 ) ;
#42 = VERTEX_POINT ( 'NONE', #354 ) ;
#43 = EDGE_LOOP ( 'NONE', ( #119, #166 ) ) ;
#44 = ADVANCED_FACE ( 'NONE', ( #329 ), #216, .F. ) ;
#45 = CARTESIAN_POINT ( 'NONE',  ( 1.047444401652940007E-13, 2.999519565323706458E-32, 30.00000000000000000 ) ) ;
#46 = EDGE_CURVE ( 'NONE', #42, #131, #361, .T. ) ;
#47 = PLANE ( 'NONE',  #55 ) ;
#48 = ORGANIZATION ( 'UNSPECIFIED', 'UNSPECIFIED', '' ) ;
#49 = PERSON_AND_ORGANIZATION ( #317, #48 ) ;
#50 = CARTESIAN_POINT ( 'NONE',  ( -1.978412509992453811E-30, -2.999999999999997335, -5.666398637112522355E-16 ) ) ;
#51 = EDGE_CURVE ( 'NONE', #27, #8, #304, .T. ) ;
#52 = CIRCLE ( 'NONE', #259, 3.200000000000003286 ) ;
#53 = PERSON_AND_ORGANIZATION_ROLE ( 'design_supplier' ) ;
#54 = DIRECTION ( 'NONE',  ( 4.275831445896958607E-31, 1.000000000000000000, 1.224646799147353207E-16 ) ) ;
#55 = AXIS2_PLACEMENT_3D ( 'NONE', #196, #136, #54 ) ;
#56 = DIRECTION ( 'NONE',  ( 0.000000000000000000, 1.000000000000000000, 0.000000000000000000 ) ) ;
#57 = ORIENTED_EDGE ( 'NONE', *, *, #291, .F. ) ;
#58 = EDGE_CURVE ( 'NONE', #131, #340, #16, .T. ) ;
#59 = LINE ( 'NONE', #5, #251 ) ;
#60 = AXIS2_PLACEMENT_3D ( 'NONE', #247, #223, #156 ) ;
#61 = AXIS2_PLACEMENT_3D ( 'NONE', #276, #108, #56 ) ;
#62 = ORIENTED_EDGE ( 'NONE', *, *, #4, .T. ) ;
#63 = ORIENTED_EDGE ( 'NONE', *, *, #182, .T. ) ;
#64 = CARTESIAN_POINT ( 'NONE',  ( 1.047444401652940007E-13, -3.829401933506085895E-15, 30.00000000000000000 ) ) ;
#65 = EDGE_LOOP ( 'NONE', ( #171, #249, #286, #117 ) ) ;
#66 = CC_DESIGN_APPROVAL ( #288, ( #138 ) ) ;
#67 = DIRECTION ( 'NONE',  ( 0.000000000000000000, -1.000000000000000000, 0.000000000000000000 ) ) ;
#68 = EDGE_CURVE ( 'NONE', #340, #131, #345, .T. ) ;
#69 = VERTEX_POINT ( 'NONE', #74 ) ;
#70 = DIRECTION ( 'NONE',  ( -3.491481338843133355E-15, 1.224646799147353207E-16, -1.000000000000000000 ) ) ;
#71 = APPLICATION_CONTEXT ( 'configuration controlled 3d designs of mechanical parts and assemblies' ) ;
#72 = VECTOR ( 'NONE', #179, 1000.000000000000000 ) ;
#73 = MECHANICAL_CONTEXT ( 'NONE', #36, 'mechanical' ) ;
#74 = CARTESIAN_POINT ( 'NONE',  ( 2.783627874196064465E-13, -3.200000000000013056, 80.00000000000000000 ) ) ;
#75 = CC_DESIGN_PERSON_AND_ORGANIZATION_ASSIGNMENT ( #360, #53, ( #347 ) ) ;
#76 = DATE_AND_TIME ( #221, #39 ) ;
#77 = FACE_OUTER_BOUND ( 'NONE', #289, .T. ) ;
#78 = ADVANCED_FACE ( 'NONE', ( #162 ), #126, .T. ) ;
#79 = SECURITY_CLASSIFICATION_LEVEL ( 'unclassified' ) ;
#80 = CARTESIAN_POINT ( 'NONE',  ( 1.976399326956145837E-13, -4.000000000000002665, 33.73205080756886787 ) ) ;
#81 = APPROVAL_PERSON_ORGANIZATION ( #153, #118, #265 ) ;
#82 = PERSON_AND_ORGANIZATION ( #317, #48 ) ;
#83 = CARTESIAN_POINT ( 'NONE',  ( 1.710332578358782742E-30, 3.999999999999998224, 4.898587196589410857E-16 ) ) ;
#84 = AXIS2_PLACEMENT_3D ( 'NONE', #64, #143, #308 ) ;
#85 = CARTESIAN_POINT ( 'NONE',  ( -3.688735834219957169E-30, 1.114095898418278362E-31, -1.056495932881652338E-15 ) ) ;
#86 = EDGE_LOOP ( 'NONE', ( #260, #34, #258, #151 ) ) ;
#87 = PLANE ( 'NONE',  #350 ) ;
#88 = ORIENTED_EDGE ( 'NONE', *, *, #296, .T. ) ;
#89 = DIRECTION ( 'NONE',  ( 3.404208188709233130E-15, 0.2588190451025214611, 0.9659258262890680902 ) ) ;
#90 = CIRCLE ( 'NONE', #271, 3.200000000000003286 ) ;
#91 = ORIENTED_EDGE ( 'NONE', *, *, #68, .T. ) ;
#92 = DIRECTION ( 'NONE',  ( 3.491481338843133355E-15, -1.224646799147353207E-16, 1.000000000000000000 ) ) ;
#93 = VERTEX_POINT ( 'NONE', #187 ) ;
#94 = ORIENTED_EDGE ( 'NONE', *, *, #58, .F. ) ;
#95 = DIRECTION ( 'NONE',  ( 3.491481338843133355E-15, -1.276467311168695266E-16, 1.000000000000000000 ) ) ;
#96 = PERSON_AND_ORGANIZATION ( #317, #48 ) ;
#97 = AXIS2_PLACEMENT_3D ( 'NONE', #45, #222, #137 ) ;
#98 = ADVANCED_FACE ( 'NONE', ( #77 ), #47, .F. ) ;
#99 = ORIENTED_EDGE ( 'NONE', *, *, #343, .F. ) ;
#100 = CC_DESIGN_DATE_AND_TIME_ASSIGNMENT ( #104, #157, ( #138 ) ) ;
#101 = LINE ( 'NONE', #83, #344 ) ;
#102 = ADVANCED_BREP_SHAPE_REPRESENTATION ( '372712', ( #266, #21, #211 ), #262 ) ;
#103 = CARTESIAN_POINT ( 'NONE',  ( 2.797103940831777906E-13, -3.200000000000013056, 80.00000000000000000 ) ) ;
#104 = DATE_AND_TIME ( #135, #124 ) ;
#105 = DIRECTION ( 'NONE',  ( 3.491481338843133355E-15, -1.276467311168695266E-16, 1.000000000000000000 ) ) ;
#106 = CC_DESIGN_PERSON_AND_ORGANIZATION_ASSIGNMENT ( #82, #217, ( #138 ) ) ;
#107 = APPROVAL_DATE_TIME ( #246, #288 ) ;
#108 = DIRECTION ( 'NONE',  ( -3.491481338843133355E-15, 1.224646799147353207E-16, -1.000000000000000000 ) ) ;
#109 = CARTESIAN_POINT ( 'NONE',  ( 2.793185071074506684E-13, 3.199999999999993072, 80.00000000000000000 ) ) ;
#110 = AXIS2_PLACEMENT_3D ( 'NONE', #116, #254, #28 ) ;
#111 = CYLINDRICAL_SURFACE ( 'NONE', #189, 2.999999999999997335 ) ;
#112 = EDGE_CURVE ( 'NONE', #30, #339, #165, .T. ) ;
#113 = CARTESIAN_POINT ( 'NONE',  ( -3.688735834219957169E-30, 1.114095898418278362E-31, -1.056495932881652338E-15 ) ) ;
#114 = ADVANCED_FACE ( 'NONE', ( #330 ), #18, .T. ) ;
#115 = ORIENTED_EDGE ( 'NONE', *, *, #51, .T. ) ;
#116 = CARTESIAN_POINT ( 'NONE',  ( 1.047444401652940007E-13, 2.999519565323706458E-32, 30.00000000000000000 ) ) ;
#117 = ORIENTED_EDGE ( 'NONE', *, *, #182, .F. ) ;
#118 = APPROVAL ( #40, 'UNSPECIFIED' ) ;
#119 = ORIENTED_EDGE ( 'NONE', *, *, #155, .F. ) ;
#120 = FACE_OUTER_BOUND ( 'NONE', #253, .T. ) ;
#121 = ADVANCED_FACE ( 'NONE', ( #218 ), #277, .T. ) ;
#122 = CARTESIAN_POINT ( 'NONE',  ( 1.971500739759556936E-13, 3.999999999999994227, 33.73205080756886787 ) ) ;
#123 = APPROVAL_DATE_TIME ( #268, #118 ) ;
#124 = LOCAL_TIME ( 8, 31, 54.00000000000000000, #275 ) ;
#125 = DIRECTION ( 'NONE',  ( 0.000000000000000000, 0.000000000000000000, 1.000000000000000000 ) ) ;
#126 = CONICAL_SURFACE ( 'NONE', #61, 3.200000000000003286, 0.7853981633974510546 ) ;
#127 = DIRECTION ( 'NONE',  ( 4.275831445896958607E-31, 1.000000000000000000, 1.224646799147353207E-16 ) ) ;
#128 = DIRECTION ( 'NONE',  ( -3.491481338843133355E-15, 1.224646799147353207E-16, -1.000000000000000000 ) ) ;
#129 = ADVANCED_FACE ( 'NONE', ( #133 ), #234, .T. ) ;
#130 = APPROVAL_PERSON_ORGANIZATION ( #191, #17, #22 ) ;
#131 = VERTEX_POINT ( 'NONE', #80 ) ;
#132 = CALENDAR_DATE ( 2023, 31, 3 ) ;
#133 = FACE_OUTER_BOUND ( 'NONE', #174, .T. ) ;
#134 = AXIS2_PLACEMENT_3D ( 'NONE', #26, #280, #67 ) ;
#135 = CALENDAR_DATE ( 2023, 31, 3 ) ;
#136 = DIRECTION ( 'NONE',  ( -3.491481338843133355E-15, 1.224646799147353207E-16, -1.000000000000000000 ) ) ;
#137 = DIRECTION ( 'NONE',  ( -4.275831445896958607E-31, -1.000000000000000000, -1.224646799147353207E-16 ) ) ;
#138 = SECURITY_CLASSIFICATION ( '', '', #79 ) ;
#139 = CARTESIAN_POINT ( 'NONE',  ( 2.765253220363761617E-13, -9.699202649247037618E-15, 79.20000000000000284 ) ) ;
#140 = CC_DESIGN_DATE_AND_TIME_ASSIGNMENT ( #302, #161, ( #355 ) ) ;
#141 = CYLINDRICAL_SURFACE ( 'NONE', #163, 2.999999999999997335 ) ;
#142 = ORIENTED_EDGE ( 'NONE', *, *, #24, .F. ) ;
#143 = DIRECTION ( 'NONE',  ( 3.491481338843133355E-15, -1.276467311168695266E-16, 1.000000000000000000 ) ) ;
#144 = EDGE_CURVE ( 'NONE', #27, #206, #301, .T. ) ;
#145 = ORIENTED_EDGE ( 'NONE', *, *, #58, .T. ) ;
#146 = LOCAL_TIME ( 8, 31, 54.00000000000000000, #267 ) ;
#147 = ADVANCED_FACE ( 'NONE', ( #120 ), #111, .T. ) ;
#148 = ORIENTED_EDGE ( 'NONE', *, *, #155, .T. ) ;
#149 = CIRCLE ( 'NONE', #294, 2.999999999999997780 ) ;
#150 = VECTOR ( 'NONE', #164, 1000.000000000000000 ) ;
#151 = ORIENTED_EDGE ( 'NONE', *, *, #257, .F. ) ;
#152 = VECTOR ( 'NONE', #352, 1000.000000000000000 ) ;
#153 = PERSON_AND_ORGANIZATION ( #317, #48 ) ;
#154 = CARTESIAN_POINT ( 'NONE',  ( 2.793185071074506684E-13, -9.797174393178826052E-15, 80.00000000000000000 ) ) ;
#155 = EDGE_CURVE ( 'NONE', #42, #93, #149, .T. ) ;
#156 = DIRECTION ( 'NONE',  ( 0.000000000000000000, -1.000000000000000000, 0.000000000000000000 ) ) ;
#157 = DATE_TIME_ROLE ( 'classification_date' ) ;
#158 = DIRECTION ( 'NONE',  ( 4.275831445896958607E-31, 1.000000000000000000, 1.224646799147353207E-16 ) ) ;
#159 = CC_DESIGN_SECURITY_CLASSIFICATION ( #138, ( #347 ) ) ;
#160 = AXIS2_PLACEMENT_3D ( 'NONE', #154, #15, #235 ) ;
#161 = DATE_TIME_ROLE ( 'creation_date' ) ;
#162 = FACE_OUTER_BOUND ( 'NONE', #215, .T. ) ;
#163 = AXIS2_PLACEMENT_3D ( 'NONE', #252, #95, #207 ) ;
#164 = DIRECTION ( 'NONE',  ( -2.468850131082258244E-15, 0.7071067811865495711, -0.7071067811865454633 ) ) ;
#165 = LINE ( 'NONE', #109, #150 ) ;
#166 = ORIENTED_EDGE ( 'NONE', *, *, #269, .F. ) ;
#167 = CC_DESIGN_PERSON_AND_ORGANIZATION_ASSIGNMENT ( #96, #351, ( #355 ) ) ;
#168 = CARTESIAN_POINT ( 'NONE',  ( 1.698963689164996959E-13, -6.211322363247279349E-15, 48.66025403784432513 ) ) ;
#169 = DIRECTION ( 'NONE',  ( -4.456761796588770537E-31, -1.000000000000000000, -1.276467311168695266E-16 ) ) ;
#170 = CONICAL_SURFACE ( 'NONE', #160, 3.200000000000003286, 0.7853981633974510546 ) ;
#171 = ORIENTED_EDGE ( 'NONE', *, *, #296, .F. ) ;
#172 = CARTESIAN_POINT ( 'NONE',  ( 2.765253220363761617E-13, -9.699202649247037618E-15, 79.20000000000000284 ) ) ;
#173 = CC_DESIGN_PERSON_AND_ORGANIZATION_ASSIGNMENT ( #181, #293, ( #239 ) ) ;
#174 = EDGE_LOOP ( 'NONE', ( #274, #184, #307, #145 ) ) ;
#175 = CARTESIAN_POINT ( 'NONE',  ( 2.793185071074506684E-13, -9.797174393178826052E-15, 80.00000000000000000 ) ) ;
#176 = ORIENTED_EDGE ( 'NONE', *, *, #51, .F. ) ;
#177 = DIRECTION ( 'NONE',  ( 0.000000000000000000, 1.000000000000000000, 0.000000000000000000 ) ) ;
#178 = AXIS2_PLACEMENT_3D ( 'NONE', #85, #190, #322 ) ;
#179 = DIRECTION ( 'NONE',  ( -3.491481338843133355E-15, 1.224646799147353207E-16, -1.000000000000000000 ) ) ;
#180 = CC_DESIGN_PERSON_AND_ORGANIZATION_ASSIGNMENT ( #49, #326, ( #347 ) ) ;
#181 = PERSON_AND_ORGANIZATION ( #317, #48 ) ;
#182 = EDGE_CURVE ( 'NONE', #283, #206, #311, .T. ) ;
#183 = CIRCLE ( 'NONE', #229, 2.999999999999996447 ) ;
#184 = ORIENTED_EDGE ( 'NONE', *, *, #269, .T. ) ;
#185 = PRODUCT_DEFINITION_SHAPE ( 'NONE', 'NONE',  #355 ) ;
#186 = LOCAL_TIME ( 8, 31, 54.00000000000000000, #324 ) ;
#187 = CARTESIAN_POINT ( 'NONE',  ( 1.116882594201161482E-13, 2.999999999999993783, 30.00000000000000000 ) ) ;
#188 = CIRCLE ( 'NONE', #60, 2.999999999999997780 ) ;
#189 = AXIS2_PLACEMENT_3D ( 'NONE', #341, #200, #225 ) ;
#190 = DIRECTION ( 'NONE',  ( 3.491481338843133355E-15, -1.276467311168695266E-16, 1.000000000000000000 ) ) ;
#191 = PERSON_AND_ORGANIZATION ( #317, #48 ) ;
#192 = DIRECTION ( 'NONE',  ( -3.491481338843133355E-15, 1.276467311168695266E-16, -1.000000000000000000 ) ) ;
#193 = SHAPE_DEFINITION_REPRESENTATION ( #185, #102 ) ;
#194 = DIRECTION ( 'NONE',  ( -3.491481338843133355E-15, 1.224646799147353207E-16, -1.000000000000000000 ) ) ;
#195 = CLOSED_SHELL ( 'NONE', ( #147, #312, #318, #210 ) ) ;
#196 = CARTESIAN_POINT ( 'NONE',  ( 2.793185071074506684E-13, 2.399615652258959583E-32, 80.00000000000000000 ) ) ;
#197 = ORIENTED_EDGE ( 'NONE', *, *, #4, .F. ) ;
#198 = DIRECTION ( 'NONE',  ( 0.000000000000000000, -1.000000000000000000, 0.000000000000000000 ) ) ;
#199 = ORIENTED_EDGE ( 'NONE', *, *, #13, .F. ) ;
#200 = DIRECTION ( 'NONE',  ( 3.491481338843133355E-15, -1.276467311168695266E-16, 1.000000000000000000 ) ) ;
#201 = ORIENTED_EDGE ( 'NONE', *, *, #244, .T. ) ;
#202 = PRODUCT_RELATED_PRODUCT_CATEGORY ( 'detail', '', ( #239 ) ) ;
#203 = CIRCLE ( 'NONE', #245, 4.000000000000002665 ) ;
#204 = DIRECTION ( 'NONE',  ( 3.491481338843133355E-15, -1.276467311168695266E-16, 1.000000000000000000 ) ) ;
#205 = ORIENTED_EDGE ( 'NONE', *, *, #46, .F. ) ;
#206 = VERTEX_POINT ( 'NONE', #285 ) ;
#207 = DIRECTION ( 'NONE',  ( -4.456761796588770537E-31, -1.000000000000000000, -1.276467311168695266E-16 ) ) ;
#208 = VECTOR ( 'NONE', #204, 1000.000000000000000 ) ;
#209 = APPLICATION_PROTOCOL_DEFINITION ( 'international standard', 'config_control_design', 1994, #36 ) ;
#210 = ADVANCED_FACE ( 'NONE', ( #316 ), #87, .F. ) ;
#211 = AXIS2_PLACEMENT_3D ( 'NONE', #272, #125, #295 ) ;
#212 = LINE ( 'NONE', #292, #72 ) ;
#213 = CLOSED_SHELL ( 'NONE', ( #264, #78, #121, #114, #362, #98, #129, #44 ) ) ;
#214 = COORDINATED_UNIVERSAL_TIME_OFFSET ( 1, 0, .AHEAD. ) ;
#215 = EDGE_LOOP ( 'NONE', ( #62, #1, #281, #333 ) ) ;
#216 = PLANE ( 'NONE',  #97 ) ;
#217 = PERSON_AND_ORGANIZATION_ROLE ( 'classification_officer' ) ;
#218 = FACE_OUTER_BOUND ( 'NONE', #231, .T. ) ;
#219 = COORDINATED_UNIVERSAL_TIME_OFFSET ( 1, 0, .AHEAD. ) ;
#220 = CARTESIAN_POINT ( 'NONE',  ( 1.177748259155351246E-13, -4.305786019454324428E-15, 33.73205080756886787 ) ) ;
#221 = CALENDAR_DATE ( 2023, 31, 3 ) ;
#222 = DIRECTION ( 'NONE',  ( 3.491481338843133355E-15, -1.224646799147353207E-16, 1.000000000000000000 ) ) ;
#223 = DIRECTION ( 'NONE',  ( 3.491481338843133355E-15, -1.276467311168695266E-16, 1.000000000000000000 ) ) ;
#224 = AXIS2_PLACEMENT_3D ( 'NONE', #23, #192, #273 ) ;
#225 = DIRECTION ( 'NONE',  ( -4.456761796588770537E-31, -1.000000000000000000, -1.276467311168695266E-16 ) ) ;
#226 = DIRECTION ( 'NONE',  ( 3.491481338843133355E-15, -1.276467311168695266E-16, 1.000000000000000000 ) ) ;
#227 = DIRECTION ( 'NONE',  ( 3.491481338843133355E-15, -1.276467311168695266E-16, 1.000000000000000000 ) ) ;
#228 = ORIENTED_EDGE ( 'NONE', *, *, #13, .T. ) ;
#229 = AXIS2_PLACEMENT_3D ( 'NONE', #113, #226, #169 ) ;
#230 = CARTESIAN_POINT ( 'NONE',  ( 1.047444401652940007E-13, -3.829401933506085895E-15, 30.00000000000000000 ) ) ;
#231 = EDGE_LOOP ( 'NONE', ( #201, #315, #310, #199 ) ) ;
#232 = DIRECTION ( 'NONE',  ( 0.000000000000000000, 1.000000000000000000, 0.000000000000000000 ) ) ;
#233 = DESIGN_CONTEXT ( 'detailed design', #71, 'design' ) ;
#234 = CONICAL_SURFACE ( 'NONE', #3, 7.999999999999998224, 0.2617993877991502960 ) ;
#235 = DIRECTION ( 'NONE',  ( 0.000000000000000000, 1.000000000000000000, 0.000000000000000000 ) ) ;
#236 = AXIS2_PLACEMENT_3D ( 'NONE', #168, #313, #7 ) ;
#237 = DIRECTION ( 'NONE',  ( -3.491481338843133355E-15, 1.224646799147353207E-16, -1.000000000000000000 ) ) ;
#238 = DIRECTION ( 'NONE',  ( -3.491481338843133355E-15, 1.224646799147353207E-16, -1.000000000000000000 ) ) ;
#239 = PRODUCT ( '372712', '372712', '', ( #73 ) ) ;
#240 = LINE ( 'NONE', #103, #152 ) ;
#241 = CC_DESIGN_APPROVAL ( #17, ( #347 ) ) ;
#242 = PERSON_AND_ORGANIZATION ( #317, #48 ) ;
#243 = DIRECTION ( 'NONE',  ( -3.491481338843133355E-15, 1.276467311168695266E-16, -1.000000000000000000 ) ) ;
#244 = EDGE_CURVE ( 'NONE', #339, #10, #203, .T. ) ;
#245 = AXIS2_PLACEMENT_3D ( 'NONE', #172, #70, #177 ) ;
#246 = DATE_AND_TIME ( #298, #186 ) ;
#247 = CARTESIAN_POINT ( 'NONE',  ( 1.047444401652940007E-13, -3.829401933506085895E-15, 30.00000000000000000 ) ) ;
#248 = DIRECTION ( 'NONE',  ( 0.000000000000000000, -1.000000000000000000, 0.000000000000000000 ) ) ;
#249 = ORIENTED_EDGE ( 'NONE', *, *, #331, .T. ) ;
#250 = CARTESIAN_POINT ( 'NONE',  ( -6.413831862750773340E-31, 2.249669380615852596E-32, -1.836994456019613255E-16 ) ) ;
#251 = VECTOR ( 'NONE', #89, 1000.000000000000000 ) ;
#252 = CARTESIAN_POINT ( 'NONE',  ( -6.413839710158237013E-31, 0.000000000000000000, -1.836996703606440502E-16 ) ) ;
#253 = EDGE_LOOP ( 'NONE', ( #115, #88, #142, #337 ) ) ;
#254 = DIRECTION ( 'NONE',  ( 3.491481338843133355E-15, -1.224646799147353207E-16, 1.000000000000000000 ) ) ;
#255 = ORIENTED_EDGE ( 'NONE', *, *, #257, .T. ) ;
#256 = FACE_OUTER_BOUND ( 'NONE', #31, .T. ) ;
#257 = EDGE_CURVE ( 'NONE', #10, #339, #319, .T. ) ;
#258 = ORIENTED_EDGE ( 'NONE', *, *, #112, .T. ) ;
#259 = AXIS2_PLACEMENT_3D ( 'NONE', #270, #237, #20 ) ;
#260 = ORIENTED_EDGE ( 'NONE', *, *, #38, .F. ) ;
#261 = AXIS2_PLACEMENT_3D ( 'NONE', #220, #243, #248 ) ;
#262 =( GEOMETRIC_REPRESENTATION_CONTEXT ( 3 ) GLOBAL_UNCERTAINTY_ASSIGNED_CONTEXT ( ( #12 ) ) GLOBAL_UNIT_ASSIGNED_CONTEXT ( ( #346, #321, #349 ) ) REPRESENTATION_CONTEXT ( 'NONE', 'WORKASPACE' ) );
#263 = FACE_OUTER_BOUND ( 'NONE', #86, .T. ) ;
#264 = ADVANCED_FACE ( 'NONE', ( #334 ), #305, .T. ) ;
#265 = APPROVAL_ROLE ( '' ) ;
#266 = MANIFOLD_SOLID_BREP ( 'Corps-Déplacer/Copier1[1]', #213 ) ;
#267 = COORDINATED_UNIVERSAL_TIME_OFFSET ( 1, 0, .AHEAD. ) ;
#268 = DATE_AND_TIME ( #14, #146 ) ;
#269 = EDGE_CURVE ( 'NONE', #93, #42, #332, .T. ) ;
#270 = CARTESIAN_POINT ( 'NONE',  ( 2.793185071074506684E-13, -9.797174393178826052E-15, 80.00000000000000000 ) ) ;
#271 = AXIS2_PLACEMENT_3D ( 'NONE', #175, #11, #2 ) ;
#272 = CARTESIAN_POINT ( 'NONE',  ( 0.000000000000000000, 0.000000000000000000, 0.000000000000000000 ) ) ;
#273 = DIRECTION ( 'NONE',  ( -1.953992523340275827E-14, -1.000000000000000000, 0.000000000000000000 ) ) ;
#274 = ORIENTED_EDGE ( 'NONE', *, *, #323, .F. ) ;
#275 = COORDINATED_UNIVERSAL_TIME_OFFSET ( 1, 0, .AHEAD. ) ;
#276 = CARTESIAN_POINT ( 'NONE',  ( 2.793185071074506684E-13, -9.797174393178826052E-15, 80.00000000000000000 ) ) ;
#277 = CYLINDRICAL_SURFACE ( 'NONE', #359, 3.999999999999998224 ) ;
#278 = CARTESIAN_POINT ( 'NONE',  ( 1.976399326956144323E-13, -4.000000000000012434, 79.20000000000000284 ) ) ;
#279 = ORIENTED_EDGE ( 'NONE', *, *, #323, .T. ) ;
#280 = DIRECTION ( 'NONE',  ( 3.491481338843133355E-15, -1.276467311168695266E-16, 1.000000000000000000 ) ) ;
#281 = ORIENTED_EDGE ( 'NONE', *, *, #244, .F. ) ;
#282 = DIRECTION ( 'NONE',  ( -4.275831445896958607E-31, -1.000000000000000000, -1.224646799147353207E-16 ) ) ;
#283 = VERTEX_POINT ( 'NONE', #29 ) ;
#284 = ORIENTED_EDGE ( 'NONE', *, *, #331, .F. ) ;
#285 = CARTESIAN_POINT ( 'NONE',  ( 1.047444401652940007E-13, -3.000000000000001776, 30.00000000000000000 ) ) ;
#286 = ORIENTED_EDGE ( 'NONE', *, *, #144, .T. ) ;
#287 = DIRECTION ( 'NONE',  ( 3.491481338843133355E-15, -1.276467311168695266E-16, 1.000000000000000000 ) ) ;
#288 = APPROVAL ( #300, 'UNSPECIFIED' ) ;
#289 = EDGE_LOOP ( 'NONE', ( #197, #57 ) ) ;
#290 = AXIS2_PLACEMENT_3D ( 'NONE', #139, #309, #232 ) ;
#291 = EDGE_CURVE ( 'NONE', #69, #30, #90, .T. ) ;
#292 = CARTESIAN_POINT ( 'NONE',  ( 4.898587196589394093E-16, -3.999999999999998224, -4.898587196589427620E-16 ) ) ;
#293 = PERSON_AND_ORGANIZATION_ROLE ( 'design_owner' ) ;
#294 = AXIS2_PLACEMENT_3D ( 'NONE', #230, #227, #198 ) ;
#295 = DIRECTION ( 'NONE',  ( 1.000000000000000000, 0.000000000000000000, 0.000000000000000000 ) ) ;
#296 = EDGE_CURVE ( 'NONE', #8, #283, #32, .T. ) ;
#297 = CARTESIAN_POINT ( 'NONE',  ( 5.273961412239124364E-14, 2.999999999999996891, -6.735557395312284013E-16 ) ) ;
#298 = CALENDAR_DATE ( 2023, 31, 3 ) ;
#299 = CARTESIAN_POINT ( 'NONE',  ( 0.000000000000000000, 0.000000000000000000, 0.000000000000000000 ) ) ;
#300 = APPROVAL_STATUS ( 'not_yet_approved' ) ;
#301 = LINE ( 'NONE', #50, #208 ) ;
#302 = DATE_AND_TIME ( #132, #348 ) ;
#303 = DIRECTION ( 'NONE',  ( 3.372511997194914833E-15, -0.2588190451025216277, 0.9659258262890679791 ) ) ;
#304 = CIRCLE ( 'NONE', #178, 2.999999999999996447 ) ;
#305 = CONICAL_SURFACE ( 'NONE', #236, 7.999999999999998224, 0.2617993877991502960 ) ;
#306 = CARTESIAN_POINT ( 'NONE',  ( 0.000000000000000000, 0.000000000000000000, 0.000000000000000000 ) ) ;
#307 = ORIENTED_EDGE ( 'NONE', *, *, #46, .T. ) ;
#308 = DIRECTION ( 'NONE',  ( 0.000000000000000000, -1.000000000000000000, 0.000000000000000000 ) ) ;
#309 = DIRECTION ( 'NONE',  ( -3.491481338843133355E-15, 1.224646799147353207E-16, -1.000000000000000000 ) ) ;
#310 = ORIENTED_EDGE ( 'NONE', *, *, #68, .F. ) ;
#311 = CIRCLE ( 'NONE', #84, 2.999999999999997780 ) ;
#312 = ADVANCED_FACE ( 'NONE', ( #256 ), #9, .T. ) ;
#313 = DIRECTION ( 'NONE',  ( 3.491481338843133355E-15, -1.276467311168695266E-16, 1.000000000000000000 ) ) ;
#314 = EDGE_LOOP ( 'NONE', ( #99, #255, #228, #94 ) ) ;
#315 = ORIENTED_EDGE ( 'NONE', *, *, #343, .T. ) ;
#316 = FACE_OUTER_BOUND ( 'NONE', #33, .T. ) ;
#317 = PERSON ( 'UNSPECIFIED', 'UNSPECIFIED', 'UNSPECIFIED', ('UNSPECIFIED'), ('UNSPECIFIED'), ('UNSPECIFIED') ) ;
#318 = ADVANCED_FACE ( 'NONE', ( #336 ), #141, .T. ) ;
#319 = CIRCLE ( 'NONE', #290, 4.000000000000002665 ) ;
#320 = EDGE_LOOP ( 'NONE', ( #148, #279, #91, #205 ) ) ;
#321 =( NAMED_UNIT ( * ) PLANE_ANGLE_UNIT ( ) SI_UNIT ( $, .RADIAN. ) );
#322 = DIRECTION ( 'NONE',  ( -4.456761796588770537E-31, -1.000000000000000000, -1.276467311168695266E-16 ) ) ;
#323 = EDGE_CURVE ( 'NONE', #93, #340, #59, .T. ) ;
#324 = COORDINATED_UNIVERSAL_TIME_OFFSET ( 1, 0, .AHEAD. ) ;
#325 = CARTESIAN_POINT ( 'NONE',  ( -5.025764373196586666E-30, -2.999999999999996447, -1.439436126232260573E-15 ) ) ;
#326 = PERSON_AND_ORGANIZATION_ROLE ( 'creator' ) ;
#327 = DIRECTION ( 'NONE',  ( 0.000000000000000000, -1.000000000000000000, 0.000000000000000000 ) ) ;
#328 = APPROVAL_ROLE ( '' ) ;
#329 = FACE_OUTER_BOUND ( 'NONE', #43, .T. ) ;
#330 = FACE_OUTER_BOUND ( 'NONE', #314, .T. ) ;
#331 = EDGE_CURVE ( 'NONE', #8, #27, #183, .T. ) ;
#332 = CIRCLE ( 'NONE', #134, 2.999999999999997780 ) ;
#333 = ORIENTED_EDGE ( 'NONE', *, *, #112, .F. ) ;
#334 = FACE_OUTER_BOUND ( 'NONE', #320, .T. ) ;
#335 = CARTESIAN_POINT ( 'NONE',  ( 3.673940397442063319E-16, 2.999999999999997335, 1.992405229899629517E-16 ) ) ;
#336 = FACE_OUTER_BOUND ( 'NONE', #65, .T. ) ;
#337 = ORIENTED_EDGE ( 'NONE', *, *, #144, .F. ) ;
#338 = VECTOR ( 'NONE', #287, 1000.000000000000000 ) ;
#339 = VERTEX_POINT ( 'NONE', #37 ) ;
#340 = VERTEX_POINT ( 'NONE', #122 ) ;
#341 = CARTESIAN_POINT ( 'NONE',  ( -6.413839710158237013E-31, 0.000000000000000000, -1.836996703606440502E-16 ) ) ;
#342 = APPROVAL_PERSON_ORGANIZATION ( #242, #288, #328 ) ;
#343 = EDGE_CURVE ( 'NONE', #10, #131, #212, .T. ) ;
#344 = VECTOR ( 'NONE', #194, 1000.000000000000000 ) ;
#345 = CIRCLE ( 'NONE', #224, 3.999999999999998224 ) ;
#346 =( LENGTH_UNIT ( ) NAMED_UNIT ( * ) SI_UNIT ( .MILLI., .METRE. ) );
#347 = PRODUCT_DEFINITION_FORMATION_WITH_SPECIFIED_SOURCE ( 'ANY', '', #239, .NOT_KNOWN. ) ;
#348 = LOCAL_TIME ( 8, 31, 54.00000000000000000, #214 ) ;
#349 =( NAMED_UNIT ( * ) SI_UNIT ( $, .STERADIAN. ) SOLID_ANGLE_UNIT ( ) );
#350 = AXIS2_PLACEMENT_3D ( 'NONE', #250, #92, #282 ) ;
#351 = PERSON_AND_ORGANIZATION_ROLE ( 'creator' ) ;
#352 = DIRECTION ( 'NONE',  ( -2.382254525458709186E-15, -0.7071067811865493491, -0.7071067811865456854 ) ) ;
#353 = CC_DESIGN_APPROVAL ( #118, ( #355 ) ) ;
#354 = CARTESIAN_POINT ( 'NONE',  ( 1.047444401652940007E-13, -3.000000000000001776, 30.00000000000000000 ) ) ;
#355 = PRODUCT_DEFINITION ( 'UNKNOWN', '', #347, #233 ) ;
#356 = VECTOR ( 'NONE', #303, 1000.000000000000114 ) ;
#357 = APPROVAL_DATE_TIME ( #76, #17 ) ;
#358 = CARTESIAN_POINT ( 'NONE',  ( 1.698963689164996959E-13, -6.211322363247279349E-15, 48.66025403784432513 ) ) ;
#359 = AXIS2_PLACEMENT_3D ( 'NONE', #306, #238, #158 ) ;
#360 = PERSON_AND_ORGANIZATION ( #317, #48 ) ;
#361 = LINE ( 'NONE', #363, #356 ) ;
#362 = ADVANCED_FACE ( 'NONE', ( #263 ), #170, .T. ) ;
#363 = CARTESIAN_POINT ( 'NONE',  ( 1.698963689164996959E-13, -8.000000000000005329, 48.66025403784432513 ) ) ;
ENDSEC;
END-ISO-10303-21;
