ISO-10303-21;
HEADER;
FILE_DESCRIPTION (( 'STEP AP203' ),
    '1' );
FILE_NAME ('372711.step',
    '2023-03-31T06:31:53',
    ( '' ),
    ( '' ),
    'SwSTEP 2.0',
    'SolidWorks 2022',
    '' );
FILE_SCHEMA (( 'CONFIG_CONTROL_DESIGN' ));
ENDSEC;

DATA;
#1 = CIRCLE ( 'NONE', #99, 3.999999999999998224 ) ;
#2 = ORIENTED_EDGE ( 'NONE', *, *, #150, .F. ) ;
#3 = ORIENTED_EDGE ( 'NONE', *, *, #158, .T. ) ;
#4 = CARTESIAN_POINT ( 'NONE',  ( 3.673940397442063319E-16, 2.999999999999997335, 1.992405229899629517E-16 ) ) ;
#5 = ORIENTED_EDGE ( 'NONE', *, *, #252, .F. ) ;
#6 = EDGE_LOOP ( 'NONE', ( #5, #189, #97, #161 ) ) ;
#7 = CARTESIAN_POINT ( 'NONE',  ( 7.681258945454893382E-14, -2.808228084571129683E-15, 22.00000000000000000 ) ) ;
#8 = VERTEX_POINT ( 'NONE', #262 ) ;
#9 = LINE ( 'NONE', #240, #183 ) ;
#10 = DIRECTION ( 'NONE',  ( 4.275831445896958607E-31, 1.000000000000000000, 1.224646799147353207E-16 ) ) ;
#11 = CARTESIAN_POINT ( 'NONE',  ( 1.831841486205832107E-13, 3.999999999999994671, 25.73205080756886076 ) ) ;
#12 = DIRECTION ( 'NONE',  ( 4.275831445896958607E-31, 1.000000000000000000, 1.224646799147353207E-16 ) ) ;
#13 = VERTEX_POINT ( 'NONE', #194 ) ;
#14 = DIRECTION ( 'NONE',  ( -3.491481338843133355E-15, 1.224646799147353207E-16, -1.000000000000000000 ) ) ;
#15 = CC_DESIGN_PERSON_AND_ORGANIZATION_ASSIGNMENT ( #343, #210, ( #267 ) ) ;
#16 = EDGE_LOOP ( 'NONE', ( #258, #124, #317, #286 ) ) ;
#17 = CARTESIAN_POINT ( 'NONE',  ( 4.898587196589394093E-16, -3.999999999999998224, -4.898587196589427620E-16 ) ) ;
#18 = VERTEX_POINT ( 'NONE', #341 ) ;
#19 = DIRECTION ( 'NONE',  ( -3.491481338843133355E-15, 1.224646799147353207E-16, -1.000000000000000000 ) ) ;
#20 = APPROVAL_PERSON_ORGANIZATION ( #100, #126, #25 ) ;
#21 = APPLICATION_PROTOCOL_DEFINITION ( 'international standard', 'config_control_design', 1994, #173 ) ;
#22 = PERSON_AND_ORGANIZATION_ROLE ( 'design_owner' ) ;
#23 = CARTESIAN_POINT ( 'NONE',  ( 2.797103940831777906E-13, -3.200000000000013056, 80.00000000000000000 ) ) ;
#24 = AXIS2_PLACEMENT_3D ( 'NONE', #315, #30, #81 ) ;
#25 = APPROVAL_ROLE ( '' ) ;
#26 = COORDINATED_UNIVERSAL_TIME_OFFSET ( 1, 0, .AHEAD. ) ;
#27 = EDGE_CURVE ( 'NONE', #358, #347, #211, .T. ) ;
#28 = VERTEX_POINT ( 'NONE', #223 ) ;
#29 = EDGE_LOOP ( 'NONE', ( #224, #151 ) ) ;
#30 = DIRECTION ( 'NONE',  ( -3.491481338843133355E-15, 1.224646799147353207E-16, -1.000000000000000000 ) ) ;
#31 = AXIS2_PLACEMENT_3D ( 'NONE', #172, #303, #214 ) ;
#32 = DIRECTION ( 'NONE',  ( 3.404208188709233130E-15, 0.2588190451025214056, 0.9659258262890680902 ) ) ;
#33 = ORIENTED_EDGE ( 'NONE', *, *, #48, .F. ) ;
#34 = ORGANIZATION ( 'UNSPECIFIED', 'UNSPECIFIED', '' ) ;
#35 = CARTESIAN_POINT ( 'NONE',  ( 2.793185071074506684E-13, 2.399615652258959583E-32, 80.00000000000000000 ) ) ;
#36 = DIRECTION ( 'NONE',  ( -3.491481338843133355E-15, 1.276467311168695266E-16, -1.000000000000000000 ) ) ;
#37 =( LENGTH_UNIT ( ) NAMED_UNIT ( * ) SI_UNIT ( .MILLI., .METRE. ) );
#38 = SECURITY_CLASSIFICATION_LEVEL ( 'unclassified' ) ;
#39 = CARTESIAN_POINT ( 'NONE',  ( 2.793185071074506684E-13, 3.199999999999993072, 80.00000000000000000 ) ) ;
#40 = DIRECTION ( 'NONE',  ( 3.491481338843133355E-15, -1.276467311168695266E-16, 1.000000000000000000 ) ) ;
#41 = DIRECTION ( 'NONE',  ( -3.491481338843133355E-15, 1.276467311168695266E-16, -1.000000000000000000 ) ) ;
#42 = ADVANCED_FACE ( 'NONE', ( #290 ), #116, .T. ) ;
#43 = CONICAL_SURFACE ( 'NONE', #253, 7.999999999999998224, 0.2617993877991502405 ) ;
#44 = CARTESIAN_POINT ( 'NONE',  ( 2.793185071074506684E-13, -9.797174393178826052E-15, 80.00000000000000000 ) ) ;
#45 = PERSON_AND_ORGANIZATION ( #239, #34 ) ;
#46 = LINE ( 'NONE', #23, #245 ) ;
#47 = APPROVAL_DATE_TIME ( #74, #126 ) ;
#48 = EDGE_CURVE ( 'NONE', #109, #347, #191, .T. ) ;
#49 = APPROVAL_DATE_TIME ( #71, #136 ) ;
#50 = LOCAL_TIME ( 8, 31, 53.00000000000000000, #26 ) ;
#51 = APPROVAL_STATUS ( 'not_yet_approved' ) ;
#52 = PLANE ( 'NONE',  #221 ) ;
#53 = ORIENTED_EDGE ( 'NONE', *, *, #229, .T. ) ;
#54 = AXIS2_PLACEMENT_3D ( 'NONE', #115, #36, #301 ) ;
#55 = CIRCLE ( 'NONE', #200, 4.000000000000002665 ) ;
#56 = ADVANCED_FACE ( 'NONE', ( #82 ), #52, .F. ) ;
#57 = ORIENTED_EDGE ( 'NONE', *, *, #243, .F. ) ;
#58 = DIRECTION ( 'NONE',  ( -3.491481338843133355E-15, 1.224646799147353207E-16, -1.000000000000000000 ) ) ;
#59 = FACE_OUTER_BOUND ( 'NONE', #162, .T. ) ;
#60 = DIRECTION ( 'NONE',  ( 3.491481338843133355E-15, -1.224646799147353207E-16, 1.000000000000000000 ) ) ;
#61 = DIRECTION ( 'NONE',  ( 3.491481338843133355E-15, -1.276467311168695266E-16, 1.000000000000000000 ) ) ;
#62 = PERSON_AND_ORGANIZATION_ROLE ( 'design_supplier' ) ;
#63 = FACE_OUTER_BOUND ( 'NONE', #154, .T. ) ;
#64 = FACE_OUTER_BOUND ( 'NONE', #29, .T. ) ;
#65 = DIRECTION ( 'NONE',  ( 3.491481338843133355E-15, -1.224646799147353207E-16, 1.000000000000000000 ) ) ;
#66 = DIRECTION ( 'NONE',  ( -4.275831445896958607E-31, -1.000000000000000000, -1.224646799147353207E-16 ) ) ;
#67 = VECTOR ( 'NONE', #40, 1000.000000000000000 ) ;
#68 = CIRCLE ( 'NONE', #170, 2.999999999999998224 ) ;
#69 = DIRECTION ( 'NONE',  ( -4.275831445896958607E-31, -1.000000000000000000, -1.224646799147353207E-16 ) ) ;
#70 = PLANE ( 'NONE',  #222 ) ;
#71 = DATE_AND_TIME ( #75, #212 ) ;
#72 = CARTESIAN_POINT ( 'NONE',  ( 2.765253220363761617E-13, -9.699202649247037618E-15, 79.20000000000000284 ) ) ;
#73 = APPROVAL_STATUS ( 'not_yet_approved' ) ;
#74 = DATE_AND_TIME ( #156, #160 ) ;
#75 = CALENDAR_DATE ( 2023, 31, 3 ) ;
#76 = VERTEX_POINT ( 'NONE', #237 ) ;
#77 = AXIS2_PLACEMENT_3D ( 'NONE', #346, #197, #12 ) ;
#78 = APPROVAL_PERSON_ORGANIZATION ( #163, #190, #133 ) ;
#79 = DIRECTION ( 'NONE',  ( 0.000000000000000000, -1.000000000000000000, 0.000000000000000000 ) ) ;
#80 = ORIENTED_EDGE ( 'NONE', *, *, #292, .F. ) ;
#81 = DIRECTION ( 'NONE',  ( 0.000000000000000000, 1.000000000000000000, 0.000000000000000000 ) ) ;
#82 = FACE_OUTER_BOUND ( 'NONE', #226, .T. ) ;
#83 = ORIENTED_EDGE ( 'NONE', *, *, #150, .T. ) ;
#84 = VECTOR ( 'NONE', #348, 1000.000000000000114 ) ;
#85 = FACE_OUTER_BOUND ( 'NONE', #268, .T. ) ;
#86 = EDGE_CURVE ( 'NONE', #76, #139, #309, .T. ) ;
#87 = CYLINDRICAL_SURFACE ( 'NONE', #333, 2.999999999999997335 ) ;
#88 = CARTESIAN_POINT ( 'NONE',  ( 2.793185071074506684E-13, 3.199999999999993072, 80.00000000000000000 ) ) ;
#89 = DIRECTION ( 'NONE',  ( 3.491481338843133355E-15, -1.276467311168695266E-16, 1.000000000000000000 ) ) ;
#90 = CARTESIAN_POINT ( 'NONE',  ( 1.710332578358782742E-30, 3.999999999999998224, 4.898587196589410857E-16 ) ) ;
#91 = CARTESIAN_POINT ( 'NONE',  ( 7.681258945454893382E-14, -2.808228084571129683E-15, 22.00000000000000000 ) ) ;
#92 = DIRECTION ( 'NONE',  ( -4.456761796588770537E-31, -1.000000000000000000, -1.276467311168695266E-16 ) ) ;
#93 = DIRECTION ( 'NONE',  ( 3.491481338843133355E-15, -1.276467311168695266E-16, 1.000000000000000000 ) ) ;
#94 = LOCAL_TIME ( 8, 31, 53.00000000000000000, #104 ) ;
#95 = ADVANCED_FACE ( 'NONE', ( #174 ), #87, .T. ) ;
#96 = ADVANCED_FACE ( 'NONE', ( #59 ), #145, .F. ) ;
#97 = ORIENTED_EDGE ( 'NONE', *, *, #363, .T. ) ;
#98 = AXIS2_PLACEMENT_3D ( 'NONE', #111, #228, #225 ) ;
#99 = AXIS2_PLACEMENT_3D ( 'NONE', #185, #41, #101 ) ;
#100 = PERSON_AND_ORGANIZATION ( #239, #34 ) ;
#101 = DIRECTION ( 'NONE',  ( -2.309263891220325604E-14, -1.000000000000000000, 0.000000000000000000 ) ) ;
#102 = AXIS2_PLACEMENT_3D ( 'NONE', #146, #180, #250 ) ;
#103 = CC_DESIGN_PERSON_AND_ORGANIZATION_ASSIGNMENT ( #272, #205, ( #140 ) ) ;
#104 = COORDINATED_UNIVERSAL_TIME_OFFSET ( 1, 0, .AHEAD. ) ;
#105 = VERTEX_POINT ( 'NONE', #327 ) ;
#106 = CALENDAR_DATE ( 2023, 31, 3 ) ;
#107 = APPLICATION_CONTEXT ( 'configuration controlled 3d designs of mechanical parts and assemblies' ) ;
#108 = DATE_TIME_ROLE ( 'classification_date' ) ;
#109 = VERTEX_POINT ( 'NONE', #177 ) ;
#110 = ORIENTED_EDGE ( 'NONE', *, *, #363, .F. ) ;
#111 = CARTESIAN_POINT ( 'NONE',  ( -6.413839710158237013E-31, 0.000000000000000000, -1.836996703606440502E-16 ) ) ;
#112 = ORIENTED_EDGE ( 'NONE', *, *, #134, .T. ) ;
#113 = CYLINDRICAL_SURFACE ( 'NONE', #98, 2.999999999999997335 ) ;
#114 = CARTESIAN_POINT ( 'NONE',  ( -3.688735834219957169E-30, 1.114095898418278362E-31, -1.056495932881652338E-15 ) ) ;
#115 = CARTESIAN_POINT ( 'NONE',  ( 8.984297520479005772E-14, -3.284612170519367427E-15, 25.73205080756886076 ) ) ;
#116 = CONICAL_SURFACE ( 'NONE', #24, 3.200000000000003286, 0.7853981633974510546 ) ;
#117 = CARTESIAN_POINT ( 'NONE',  ( 1.419645182057546291E-13, -5.190148514312322742E-15, 40.66025403784432513 ) ) ;
#118 = DIRECTION ( 'NONE',  ( -4.456761796588770537E-31, -1.000000000000000000, -1.276467311168695266E-16 ) ) ;
#119 = DIRECTION ( 'NONE',  ( 0.000000000000000000, 1.000000000000000000, 0.000000000000000000 ) ) ;
#120 = PRODUCT_DEFINITION ( 'UNKNOWN', '', #267, #168 ) ;
#121 = ORIENTED_EDGE ( 'NONE', *, *, #292, .T. ) ;
#122 = CONICAL_SURFACE ( 'NONE', #322, 7.999999999999998224, 0.2617993877991502405 ) ;
#123 = CIRCLE ( 'NONE', #193, 3.200000000000003286 ) ;
#124 = ORIENTED_EDGE ( 'NONE', *, *, #48, .T. ) ;
#125 = DATE_AND_TIME ( #208, #300 ) ;
#126 = APPROVAL ( #73, 'UNSPECIFIED' ) ;
#127 = PERSON_AND_ORGANIZATION ( #239, #34 ) ;
#128 = ORIENTED_EDGE ( 'NONE', *, *, #158, .F. ) ;
#129 = APPROVAL_STATUS ( 'not_yet_approved' ) ;
#130 = ORIENTED_EDGE ( 'NONE', *, *, #271, .T. ) ;
#131 = AXIS2_PLACEMENT_3D ( 'NONE', #198, #60, #66 ) ;
#132 = CALENDAR_DATE ( 2023, 31, 3 ) ;
#133 = APPROVAL_ROLE ( '' ) ;
#134 = EDGE_CURVE ( 'NONE', #8, #358, #289, .T. ) ;
#135 = DIRECTION ( 'NONE',  ( 3.491481338843133355E-15, -1.276467311168695266E-16, 1.000000000000000000 ) ) ;
#136 = APPROVAL ( #129, 'UNSPECIFIED' ) ;
#137 = ORIENTED_EDGE ( 'NONE', *, *, #312, .F. ) ;
#138 = CARTESIAN_POINT ( 'NONE',  ( 7.681258945454893382E-14, -2.808228084571129683E-15, 22.00000000000000000 ) ) ;
#139 = VERTEX_POINT ( 'NONE', #11 ) ;
#140 = SECURITY_CLASSIFICATION ( '', '', #38 ) ;
#141 = CIRCLE ( 'NONE', #351, 2.999999999999996447 ) ;
#142 = DIRECTION ( 'NONE',  ( 3.491481338843133355E-15, -1.276467311168695266E-16, 1.000000000000000000 ) ) ;
#143 = LINE ( 'NONE', #39, #179 ) ;
#144 = EDGE_CURVE ( 'NONE', #8, #109, #283, .T. ) ;
#145 = PLANE ( 'NONE',  #256 ) ;
#146 = CARTESIAN_POINT ( 'NONE',  ( 0.000000000000000000, 0.000000000000000000, 0.000000000000000000 ) ) ;
#147 = CYLINDRICAL_SURFACE ( 'NONE', #77, 3.999999999999998224 ) ;
#148 = ADVANCED_FACE ( 'NONE', ( #165 ), #361, .T. ) ;
#149 = PERSON_AND_ORGANIZATION ( #239, #34 ) ;
#150 = EDGE_CURVE ( 'NONE', #28, #139, #9, .T. ) ;
#151 = ORIENTED_EDGE ( 'NONE', *, *, #312, .T. ) ;
#152 = CARTESIAN_POINT ( 'NONE',  ( -6.413831862750773340E-31, 2.249669380615852596E-32, -1.836994456019613255E-16 ) ) ;
#153 = COORDINATED_UNIVERSAL_TIME_OFFSET ( 1, 0, .AHEAD. ) ;
#154 = EDGE_LOOP ( 'NONE', ( #2, #121, #263, #339 ) ) ;
#155 = CC_DESIGN_SECURITY_CLASSIFICATION ( #140, ( #267 ) ) ;
#156 = CALENDAR_DATE ( 2023, 31, 3 ) ;
#157 = CARTESIAN_POINT ( 'NONE',  ( 7.681258945454893382E-14, 2.999519565323707005E-32, 22.00000000000000000 ) ) ;
#158 = EDGE_CURVE ( 'NONE', #105, #28, #266, .T. ) ;
#159 = ORIENTED_EDGE ( 'NONE', *, *, #201, .F. ) ;
#160 = LOCAL_TIME ( 8, 31, 53.00000000000000000, #153 ) ;
#161 = ORIENTED_EDGE ( 'NONE', *, *, #215, .F. ) ;
#162 = EDGE_LOOP ( 'NONE', ( #57, #355 ) ) ;
#163 = PERSON_AND_ORGANIZATION ( #239, #34 ) ;
#164 = ORIENTED_EDGE ( 'NONE', *, *, #247, .F. ) ;
#165 = FACE_OUTER_BOUND ( 'NONE', #6, .T. ) ;
#166 = ADVANCED_FACE ( 'NONE', ( #265 ), #113, .T. ) ;
#167 = DIRECTION ( 'NONE',  ( -3.491481338843133355E-15, 1.224646799147353207E-16, -1.000000000000000000 ) ) ;
#168 = DESIGN_CONTEXT ( 'detailed design', #173, 'design' ) ;
#169 = AXIS2_PLACEMENT_3D ( 'NONE', #114, #142, #118 ) ;
#170 = AXIS2_PLACEMENT_3D ( 'NONE', #209, #328, #231 ) ;
#171 = DIRECTION ( 'NONE',  ( -3.491481338843133355E-15, 1.224646799147353207E-16, -1.000000000000000000 ) ) ;
#172 = CARTESIAN_POINT ( 'NONE',  ( 2.765253220363761617E-13, -9.699202649247037618E-15, 79.20000000000000284 ) ) ;
#173 = APPLICATION_CONTEXT ( 'configuration controlled 3d designs of mechanical parts and assemblies' ) ;
#174 = FACE_OUTER_BOUND ( 'NONE', #16, .T. ) ;
#175 = ADVANCED_FACE ( 'NONE', ( #85 ), #147, .T. ) ;
#176 = PLANE ( 'NONE',  #131 ) ;
#177 = CARTESIAN_POINT ( 'NONE',  ( 3.877368876701867866E-14, 2.999999999999996447, -6.735557395311796892E-16 ) ) ;
#178 = CARTESIAN_POINT ( 'NONE',  ( 7.681258945454893382E-14, -3.000000000000000888, 22.00000000000000000 ) ) ;
#179 = VECTOR ( 'NONE', #323, 1000.000000000000000 ) ;
#180 = DIRECTION ( 'NONE',  ( 0.000000000000000000, 0.000000000000000000, 1.000000000000000000 ) ) ;
#181 = PRODUCT_RELATED_PRODUCT_CATEGORY ( 'detail', '', ( #241 ) ) ;
#182 = DIRECTION ( 'NONE',  ( -4.275831445896958607E-31, -1.000000000000000000, -1.224646799147353207E-16 ) ) ;
#183 = VECTOR ( 'NONE', #32, 1000.000000000000000 ) ;
#184 = DIRECTION ( 'NONE',  ( -3.491481338843133355E-15, 1.224646799147353207E-16, -1.000000000000000000 ) ) ;
#185 = CARTESIAN_POINT ( 'NONE',  ( 8.984297520479005772E-14, -3.284612170519367427E-15, 25.73205080756886076 ) ) ;
#186 = PERSON_AND_ORGANIZATION_ROLE ( 'creator' ) ;
#187 = ADVANCED_FACE ( 'NONE', ( #63 ), #122, .T. ) ;
#188 = CLOSED_SHELL ( 'NONE', ( #195, #42, #175, #277, #148, #96, #187, #56 ) ) ;
#189 = ORIENTED_EDGE ( 'NONE', *, *, #295, .T. ) ;
#190 = APPROVAL ( #51, 'UNSPECIFIED' ) ;
#191 = LINE ( 'NONE', #4, #350 ) ;
#192 = ORIENTED_EDGE ( 'NONE', *, *, #247, .T. ) ;
#193 = AXIS2_PLACEMENT_3D ( 'NONE', #353, #167, #270 ) ;
#194 = CARTESIAN_POINT ( 'NONE',  ( 1.836740073402419241E-13, -4.000000000000012434, 79.20000000000000284 ) ) ;
#195 = ADVANCED_FACE ( 'NONE', ( #321 ), #43, .T. ) ;
#196 = CARTESIAN_POINT ( 'NONE',  ( 0.000000000000000000, 0.000000000000000000, 0.000000000000000000 ) ) ;
#197 = DIRECTION ( 'NONE',  ( -3.491481338843133355E-15, 1.224646799147353207E-16, -1.000000000000000000 ) ) ;
#198 = CARTESIAN_POINT ( 'NONE',  ( 7.681258945454893382E-14, 2.999519565323707005E-32, 22.00000000000000000 ) ) ;
#199 = DIRECTION ( 'NONE',  ( 3.491481338843133355E-15, -1.276467311168695266E-16, 1.000000000000000000 ) ) ;
#200 = AXIS2_PLACEMENT_3D ( 'NONE', #72, #184, #311 ) ;
#201 = EDGE_CURVE ( 'NONE', #287, #13, #273, .T. ) ;
#202 = PERSON_AND_ORGANIZATION ( #239, #34 ) ;
#203 = CARTESIAN_POINT ( 'NONE',  ( 1.419645182057546291E-13, -8.000000000000003553, 40.66025403784432513 ) ) ;
#204 = DIRECTION ( 'NONE',  ( 0.000000000000000000, 1.000000000000000000, 0.000000000000000000 ) ) ;
#205 = PERSON_AND_ORGANIZATION_ROLE ( 'classification_officer' ) ;
#206 = CYLINDRICAL_SURFACE ( 'NONE', #257, 3.999999999999998224 ) ;
#207 = DIRECTION ( 'NONE',  ( 4.275831445896958607E-31, 1.000000000000000000, 1.224646799147353207E-16 ) ) ;
#208 = CALENDAR_DATE ( 2023, 31, 3 ) ;
#209 = CARTESIAN_POINT ( 'NONE',  ( 7.681258945454893382E-14, -2.808228084571129683E-15, 22.00000000000000000 ) ) ;
#210 = PERSON_AND_ORGANIZATION_ROLE ( 'creator' ) ;
#211 = CIRCLE ( 'NONE', #313, 2.999999999999998224 ) ;
#212 = LOCAL_TIME ( 8, 31, 53.00000000000000000, #360 ) ;
#213 = EDGE_LOOP ( 'NONE', ( #297, #164 ) ) ;
#214 = DIRECTION ( 'NONE',  ( 0.000000000000000000, 1.000000000000000000, 0.000000000000000000 ) ) ;
#215 = EDGE_CURVE ( 'NONE', #13, #287, #55, .T. ) ;
#216 = CLOSED_SHELL ( 'NONE', ( #95, #332, #166, #248 ) ) ;
#217 = ORIENTED_EDGE ( 'NONE', *, *, #271, .F. ) ;
#218 = APPROVAL_DATE_TIME ( #337, #190 ) ;
#219 = APPLICATION_PROTOCOL_DEFINITION ( 'international standard', 'config_control_design', 1994, #107 ) ;
#220 = DATE_AND_TIME ( #132, #50 ) ;
#221 = AXIS2_PLACEMENT_3D ( 'NONE', #157, #65, #69 ) ;
#222 = AXIS2_PLACEMENT_3D ( 'NONE', #152, #334, #182 ) ;
#223 = CARTESIAN_POINT ( 'NONE',  ( 8.375640870937106879E-14, 2.999999999999995559, 22.00000000000000000 ) ) ;
#224 = ORIENTED_EDGE ( 'NONE', *, *, #27, .T. ) ;
#225 = DIRECTION ( 'NONE',  ( -4.456761796588770537E-31, -1.000000000000000000, -1.276467311168695266E-16 ) ) ;
#226 = EDGE_LOOP ( 'NONE', ( #128, #80 ) ) ;
#227 = LINE ( 'NONE', #203, #84 ) ;
#228 = DIRECTION ( 'NONE',  ( 3.491481338843133355E-15, -1.276467311168695266E-16, 1.000000000000000000 ) ) ;
#229 = EDGE_CURVE ( 'NONE', #139, #76, #1, .T. ) ;
#230 = ORIENTED_EDGE ( 'NONE', *, *, #215, .T. ) ;
#231 = DIRECTION ( 'NONE',  ( 0.000000000000000000, -1.000000000000000000, 0.000000000000000000 ) ) ;
#232 = CARTESIAN_POINT ( 'NONE',  ( 2.793185071074506684E-13, -9.797174393178826052E-15, 80.00000000000000000 ) ) ;
#233 = AXIS2_PLACEMENT_3D ( 'NONE', #232, #58, #204 ) ;
#234 = VECTOR ( 'NONE', #14, 1000.000000000000000 ) ;
#235 = LINE ( 'NONE', #17, #234 ) ;
#236 = CARTESIAN_POINT ( 'NONE',  ( 1.419645182057546291E-13, -5.190148514312322742E-15, 40.66025403784432513 ) ) ;
#237 = CARTESIAN_POINT ( 'NONE',  ( 1.836740073402420503E-13, -4.000000000000001776, 25.73205080756886076 ) ) ;
#238 = COORDINATED_UNIVERSAL_TIME_OFFSET ( 1, 0, .AHEAD. ) ;
#239 = PERSON ( 'UNSPECIFIED', 'UNSPECIFIED', 'UNSPECIFIED', ('UNSPECIFIED'), ('UNSPECIFIED'), ('UNSPECIFIED') ) ;
#240 = CARTESIAN_POINT ( 'NONE',  ( 1.429442356450725102E-13, 7.999999999999992895, 40.66025403784432513 ) ) ;
#241 = PRODUCT ( '372711', '372711', '', ( #310 ) ) ;
#242 = LINE ( 'NONE', #90, #316 ) ;
#243 = EDGE_CURVE ( 'NONE', #259, #18, #305, .T. ) ;
#244 = EDGE_LOOP ( 'NONE', ( #33, #192, #112, #137 ) ) ;
#245 = VECTOR ( 'NONE', #285, 1000.000000000000000 ) ;
#246 = DIRECTION ( 'NONE',  ( 3.491481338843133355E-15, -1.276467311168695266E-16, 1.000000000000000000 ) ) ;
#247 = EDGE_CURVE ( 'NONE', #109, #8, #141, .T. ) ;
#248 = ADVANCED_FACE ( 'NONE', ( #330 ), #70, .F. ) ;
#249 = CC_DESIGN_APPROVAL ( #126, ( #140 ) ) ;
#250 = DIRECTION ( 'NONE',  ( 1.000000000000000000, 0.000000000000000000, 0.000000000000000000 ) ) ;
#251 = AXIS2_PLACEMENT_3D ( 'NONE', #138, #199, #324 ) ;
#252 = EDGE_CURVE ( 'NONE', #18, #13, #46, .T. ) ;
#253 = AXIS2_PLACEMENT_3D ( 'NONE', #236, #61, #326 ) ;
#254 = DIRECTION ( 'NONE',  ( -4.456761796588770537E-31, -1.000000000000000000, -1.276467311168695266E-16 ) ) ;
#255 =( NAMED_UNIT ( * ) SI_UNIT ( $, .STERADIAN. ) SOLID_ANGLE_UNIT ( ) );
#256 = AXIS2_PLACEMENT_3D ( 'NONE', #35, #352, #207 ) ;
#257 = AXIS2_PLACEMENT_3D ( 'NONE', #196, #171, #10 ) ;
#258 = ORIENTED_EDGE ( 'NONE', *, *, #144, .T. ) ;
#259 = VERTEX_POINT ( 'NONE', #88 ) ;
#260 = DIRECTION ( 'NONE',  ( 3.491481338843133355E-15, -1.276467311168695266E-16, 1.000000000000000000 ) ) ;
#261 = ORIENTED_EDGE ( 'NONE', *, *, #252, .T. ) ;
#262 = CARTESIAN_POINT ( 'NONE',  ( -5.025764373196586666E-30, -2.999999999999996447, -1.439436126232260573E-15 ) ) ;
#263 = ORIENTED_EDGE ( 'NONE', *, *, #318, .T. ) ;
#264 = EDGE_LOOP ( 'NONE', ( #354, #261, #159, #110 ) ) ;
#265 = FACE_OUTER_BOUND ( 'NONE', #244, .T. ) ;
#266 = CIRCLE ( 'NONE', #251, 2.999999999999998224 ) ;
#267 = PRODUCT_DEFINITION_FORMATION_WITH_SPECIFIED_SOURCE ( 'ANY', '', #241, .NOT_KNOWN. ) ;
#268 = EDGE_LOOP ( 'NONE', ( #342, #335, #293, #217 ) ) ;
#269 = ORIENTED_EDGE ( 'NONE', *, *, #318, .F. ) ;
#270 = DIRECTION ( 'NONE',  ( 0.000000000000000000, 1.000000000000000000, 0.000000000000000000 ) ) ;
#271 = EDGE_CURVE ( 'NONE', #287, #139, #242, .T. ) ;
#272 = PERSON_AND_ORGANIZATION ( #239, #34 ) ;
#273 = CIRCLE ( 'NONE', #31, 4.000000000000002665 ) ;
#274 = FACE_OUTER_BOUND ( 'NONE', #338, .T. ) ;
#275 = DIRECTION ( 'NONE',  ( 3.491481338843133355E-15, -1.276467311168695266E-16, 1.000000000000000000 ) ) ;
#276 = CARTESIAN_POINT ( 'NONE',  ( -3.688735834219957169E-30, 1.114095898418278362E-31, -1.056495932881652338E-15 ) ) ;
#277 = ADVANCED_FACE ( 'NONE', ( #274 ), #206, .T. ) ;
#278 =( GEOMETRIC_REPRESENTATION_CONTEXT ( 3 ) GLOBAL_UNCERTAINTY_ASSIGNED_CONTEXT ( ( #345 ) ) GLOBAL_UNIT_ASSIGNED_CONTEXT ( ( #37, #306, #255 ) ) REPRESENTATION_CONTEXT ( 'NONE', 'WORKASPACE' ) );
#279 = EDGE_CURVE ( 'NONE', #13, #76, #235, .T. ) ;
#280 = ADVANCED_BREP_SHAPE_REPRESENTATION ( '372711', ( #291, #296, #102 ), #278 ) ;
#281 = CC_DESIGN_DATE_AND_TIME_ASSIGNMENT ( #220, #288, ( #120 ) ) ;
#282 = SHAPE_DEFINITION_REPRESENTATION ( #319, #280 ) ;
#283 = CIRCLE ( 'NONE', #169, 2.999999999999996447 ) ;
#284 = AXIS2_PLACEMENT_3D ( 'NONE', #91, #275, #325 ) ;
#285 = DIRECTION ( 'NONE',  ( -2.382254525458709186E-15, -0.7071067811865493491, -0.7071067811865456854 ) ) ;
#286 = ORIENTED_EDGE ( 'NONE', *, *, #134, .F. ) ;
#287 = VERTEX_POINT ( 'NONE', #302 ) ;
#288 = DATE_TIME_ROLE ( 'creation_date' ) ;
#289 = LINE ( 'NONE', #356, #67 ) ;
#290 = FACE_OUTER_BOUND ( 'NONE', #264, .T. ) ;
#291 = MANIFOLD_SOLID_BREP ( 'Corps-Déplacer/Copier1[1]', #188 ) ;
#292 = EDGE_CURVE ( 'NONE', #28, #105, #68, .T. ) ;
#293 = ORIENTED_EDGE ( 'NONE', *, *, #229, .F. ) ;
#294 = EDGE_LOOP ( 'NONE', ( #3, #83, #53, #269 ) ) ;
#295 = EDGE_CURVE ( 'NONE', #18, #259, #123, .T. ) ;
#296 = MANIFOLD_SOLID_BREP ( 'Corps-Déplacer/Copier1[2]', #216 ) ;
#297 = ORIENTED_EDGE ( 'NONE', *, *, #144, .F. ) ;
#298 = ORIENTED_EDGE ( 'NONE', *, *, #86, .F. ) ;
#299 = DIRECTION ( 'NONE',  ( 0.000000000000000000, -1.000000000000000000, 0.000000000000000000 ) ) ;
#300 = LOCAL_TIME ( 8, 31, 53.00000000000000000, #238 ) ;
#301 = DIRECTION ( 'NONE',  ( 0.000000000000000000, -1.000000000000000000, 0.000000000000000000 ) ) ;
#302 = CARTESIAN_POINT ( 'NONE',  ( 2.765253220363761617E-13, 3.999999999999993339, 79.20000000000000284 ) ) ;
#303 = DIRECTION ( 'NONE',  ( -3.491481338843133355E-15, 1.224646799147353207E-16, -1.000000000000000000 ) ) ;
#304 = CARTESIAN_POINT ( 'NONE',  ( 3.877368876701866604E-14, 2.999999999999996003, 22.00000000000000000 ) ) ;
#305 = CIRCLE ( 'NONE', #344, 3.200000000000003286 ) ;
#306 =( NAMED_UNIT ( * ) PLANE_ANGLE_UNIT ( ) SI_UNIT ( $, .RADIAN. ) );
#307 = CC_DESIGN_PERSON_AND_ORGANIZATION_ASSIGNMENT ( #202, #62, ( #267 ) ) ;
#308 = ORIENTED_EDGE ( 'NONE', *, *, #279, .F. ) ;
#309 = CIRCLE ( 'NONE', #54, 3.999999999999998224 ) ;
#310 = MECHANICAL_CONTEXT ( 'NONE', #107, 'mechanical' ) ;
#311 = DIRECTION ( 'NONE',  ( 0.000000000000000000, 1.000000000000000000, 0.000000000000000000 ) ) ;
#312 = EDGE_CURVE ( 'NONE', #347, #358, #362, .T. ) ;
#313 = AXIS2_PLACEMENT_3D ( 'NONE', #7, #135, #79 ) ;
#314 = CC_DESIGN_APPROVAL ( #190, ( #267 ) ) ;
#315 = CARTESIAN_POINT ( 'NONE',  ( 2.793185071074506684E-13, -9.797174393178826052E-15, 80.00000000000000000 ) ) ;
#316 = VECTOR ( 'NONE', #320, 1000.000000000000000 ) ;
#317 = ORIENTED_EDGE ( 'NONE', *, *, #27, .F. ) ;
#318 = EDGE_CURVE ( 'NONE', #105, #76, #227, .T. ) ;
#319 = PRODUCT_DEFINITION_SHAPE ( 'NONE', 'NONE',  #120 ) ;
#320 = DIRECTION ( 'NONE',  ( -3.491481338843133355E-15, 1.224646799147353207E-16, -1.000000000000000000 ) ) ;
#321 = FACE_OUTER_BOUND ( 'NONE', #294, .T. ) ;
#322 = AXIS2_PLACEMENT_3D ( 'NONE', #117, #89, #299 ) ;
#323 = DIRECTION ( 'NONE',  ( -2.468850131082258244E-15, 0.7071067811865495711, -0.7071067811865454633 ) ) ;
#324 = DIRECTION ( 'NONE',  ( 0.000000000000000000, -1.000000000000000000, 0.000000000000000000 ) ) ;
#325 = DIRECTION ( 'NONE',  ( 0.000000000000000000, -1.000000000000000000, 0.000000000000000000 ) ) ;
#326 = DIRECTION ( 'NONE',  ( 0.000000000000000000, -1.000000000000000000, 0.000000000000000000 ) ) ;
#327 = CARTESIAN_POINT ( 'NONE',  ( 7.681258945454893382E-14, -3.000000000000000888, 22.00000000000000000 ) ) ;
#328 = DIRECTION ( 'NONE',  ( 3.491481338843133355E-15, -1.276467311168695266E-16, 1.000000000000000000 ) ) ;
#329 = CC_DESIGN_PERSON_AND_ORGANIZATION_ASSIGNMENT ( #149, #22, ( #241 ) ) ;
#330 = FACE_OUTER_BOUND ( 'NONE', #213, .T. ) ;
#331 = APPROVAL_ROLE ( '' ) ;
#332 = ADVANCED_FACE ( 'NONE', ( #64 ), #176, .T. ) ;
#333 = AXIS2_PLACEMENT_3D ( 'NONE', #357, #93, #92 ) ;
#334 = DIRECTION ( 'NONE',  ( 3.491481338843133355E-15, -1.224646799147353207E-16, 1.000000000000000000 ) ) ;
#335 = ORIENTED_EDGE ( 'NONE', *, *, #279, .T. ) ;
#336 = APPROVAL_PERSON_ORGANIZATION ( #127, #136, #331 ) ;
#337 = DATE_AND_TIME ( #106, #94 ) ;
#338 = EDGE_LOOP ( 'NONE', ( #308, #230, #130, #298 ) ) ;
#339 = ORIENTED_EDGE ( 'NONE', *, *, #86, .T. ) ;
#340 = CC_DESIGN_PERSON_AND_ORGANIZATION_ASSIGNMENT ( #45, #186, ( #120 ) ) ;
#341 = CARTESIAN_POINT ( 'NONE',  ( 2.783627874196064465E-13, -3.200000000000013056, 80.00000000000000000 ) ) ;
#342 = ORIENTED_EDGE ( 'NONE', *, *, #201, .T. ) ;
#343 = PERSON_AND_ORGANIZATION ( #239, #34 ) ;
#344 = AXIS2_PLACEMENT_3D ( 'NONE', #44, #19, #119 ) ;
#345 = UNCERTAINTY_MEASURE_WITH_UNIT (LENGTH_MEASURE( 1.000000000000000082E-05 ), #37, 'distance_accuracy_value', 'NONE');
#346 = CARTESIAN_POINT ( 'NONE',  ( 0.000000000000000000, 0.000000000000000000, 0.000000000000000000 ) ) ;
#347 = VERTEX_POINT ( 'NONE', #304 ) ;
#348 = DIRECTION ( 'NONE',  ( 3.372511997194914833E-15, -0.2588190451025215721, 0.9659258262890679791 ) ) ;
#349 = CC_DESIGN_DATE_AND_TIME_ASSIGNMENT ( #125, #108, ( #140 ) ) ;
#350 = VECTOR ( 'NONE', #260, 1000.000000000000000 ) ;
#351 = AXIS2_PLACEMENT_3D ( 'NONE', #276, #246, #254 ) ;
#352 = DIRECTION ( 'NONE',  ( -3.491481338843133355E-15, 1.224646799147353207E-16, -1.000000000000000000 ) ) ;
#353 = CARTESIAN_POINT ( 'NONE',  ( 2.793185071074506684E-13, -9.797174393178826052E-15, 80.00000000000000000 ) ) ;
#354 = ORIENTED_EDGE ( 'NONE', *, *, #243, .T. ) ;
#355 = ORIENTED_EDGE ( 'NONE', *, *, #295, .F. ) ;
#356 = CARTESIAN_POINT ( 'NONE',  ( -1.978412509992453811E-30, -2.999999999999997335, -5.666398637112522355E-16 ) ) ;
#357 = CARTESIAN_POINT ( 'NONE',  ( -6.413839710158237013E-31, 0.000000000000000000, -1.836996703606440502E-16 ) ) ;
#358 = VERTEX_POINT ( 'NONE', #178 ) ;
#359 = CC_DESIGN_APPROVAL ( #136, ( #120 ) ) ;
#360 = COORDINATED_UNIVERSAL_TIME_OFFSET ( 1, 0, .AHEAD. ) ;
#361 = CONICAL_SURFACE ( 'NONE', #233, 3.200000000000003286, 0.7853981633974510546 ) ;
#362 = CIRCLE ( 'NONE', #284, 2.999999999999998224 ) ;
#363 = EDGE_CURVE ( 'NONE', #259, #287, #143, .T. ) ;
ENDSEC;
END-ISO-10303-21;
