ISO-10303-21;
HEADER;
FILE_DESCRIPTION (( 'STEP AP203' ),
    '1' );
FILE_NAME ('372710.step',
    '2023-03-31T06:31:53',
    ( '' ),
    ( '' ),
    'SwSTEP 2.0',
    'SolidWorks 2022',
    '' );
FILE_SCHEMA (( 'CONFIG_CONTROL_DESIGN' ));
ENDSEC;

DATA;
#1 = CIRCLE ( 'NONE', #270, 2.999999999999996447 ) ;
#2 = PERSON_AND_ORGANIZATION ( #352, #248 ) ;
#3 = PERSON_AND_ORGANIZATION_ROLE ( 'creator' ) ;
#4 = AXIS2_PLACEMENT_3D ( 'NONE', #235, #208, #300 ) ;
#5 = ADVANCED_FACE ( 'NONE', ( #198 ), #362, .T. ) ;
#6 = CARTESIAN_POINT ( 'NONE',  ( 2.085331606427438046E-13, -3.200000000000005951, 60.00000000000000000 ) ) ;
#7 = EDGE_LOOP ( 'NONE', ( #314, #197 ) ) ;
#8 = DIRECTION ( 'NONE',  ( 4.275831445896959482E-31, 1.000000000000000000, 1.224646799147353454E-16 ) ) ;
#9 = AXIS2_PLACEMENT_3D ( 'NONE', #249, #259, #8 ) ;
#10 = ORIENTED_EDGE ( 'NONE', *, *, #159, .T. ) ;
#11 = DIRECTION ( 'NONE',  ( -1.953992523340275511E-14, -1.000000000000000000, 0.000000000000000000 ) ) ;
#12 = ORIENTED_EDGE ( 'NONE', *, *, #232, .T. ) ;
#13 = ORIENTED_EDGE ( 'NONE', *, *, #125, .T. ) ;
#14 = EDGE_LOOP ( 'NONE', ( #229, #287, #285, #350 ) ) ;
#15 = EDGE_LOOP ( 'NONE', ( #120, #348, #134, #215 ) ) ;
#16 = VECTOR ( 'NONE', #151, 1000.000000000000000 ) ;
#17 = DIRECTION ( 'NONE',  ( 0.000000000000000000, -1.000000000000000000, 0.000000000000000000 ) ) ;
#18 = CC_DESIGN_PERSON_AND_ORGANIZATION_ASSIGNMENT ( #2, #240, ( #279 ) ) ;
#19 = CARTESIAN_POINT ( 'NONE',  ( 2.094888803305880013E-13, -7.347880794884118356E-15, 60.00000000000000000 ) ) ;
#20 = CARTESIAN_POINT ( 'NONE',  ( 1.308119285379361725E-13, 3.999999999999993339, 15.73205080756886076 ) ) ;
#21 = PRODUCT ( '372710', '372710', '', ( #200 ) ) ;
#22 = CIRCLE ( 'NONE', #233, 3.999999999999997335 ) ;
#23 = CALENDAR_DATE ( 2023, 31, 3 ) ;
#24 = PERSON_AND_ORGANIZATION ( #352, #248 ) ;
#25 = COORDINATED_UNIVERSAL_TIME_OFFSET ( 1, 0, .AHEAD. ) ;
#26 = CC_DESIGN_SECURITY_CLASSIFICATION ( #279, ( #150 ) ) ;
#27 = ORIENTED_EDGE ( 'NONE', *, *, #232, .F. ) ;
#28 = UNCERTAINTY_MEASURE_WITH_UNIT (LENGTH_MEASURE( 1.000000000000000082E-05 ), #292, 'distance_accuracy_value', 'NONE');
#29 = CARTESIAN_POINT ( 'NONE',  ( 2.066956952595134946E-13, 3.999999999999990674, 59.20000000000000284 ) ) ;
#30 = VECTOR ( 'NONE', #196, 1000.000000000000000 ) ;
#31 = FACE_OUTER_BOUND ( 'NONE', #91, .T. ) ;
#32 = DIRECTION ( 'NONE',  ( -4.275831445896958607E-31, -1.000000000000000000, -1.224646799147353207E-16 ) ) ;
#33 = VERTEX_POINT ( 'NONE', #201 ) ;
#34 = CC_DESIGN_PERSON_AND_ORGANIZATION_ASSIGNMENT ( #43, #296, ( #21 ) ) ;
#35 = AXIS2_PLACEMENT_3D ( 'NONE', #115, #37, #317 ) ;
#36 = ORIENTED_EDGE ( 'NONE', *, *, #82, .F. ) ;
#37 = DIRECTION ( 'NONE',  ( 3.491481338843133355E-15, -1.276467311168695266E-16, 1.000000000000000000 ) ) ;
#38 = DIRECTION ( 'NONE',  ( -3.491481338843133355E-15, 1.224646799147353207E-16, -1.000000000000000000 ) ) ;
#39 = ORIENTED_EDGE ( 'NONE', *, *, #154, .F. ) ;
#40 = DIRECTION ( 'NONE',  ( 0.000000000000000000, 1.000000000000000000, 0.000000000000000000 ) ) ;
#41 = CARTESIAN_POINT ( 'NONE',  ( 4.189777606611760026E-14, -1.531760773402434319E-15, 12.00000000000000000 ) ) ;
#42 = DIRECTION ( 'NONE',  ( 0.000000000000000000, 1.000000000000000000, 0.000000000000000000 ) ) ;
#43 = PERSON_AND_ORGANIZATION ( #352, #248 ) ;
#44 = CARTESIAN_POINT ( 'NONE',  ( 4.189777606611760026E-14, -1.531760773402434319E-15, 12.00000000000000000 ) ) ;
#45 = CC_DESIGN_PERSON_AND_ORGANIZATION_ASSIGNMENT ( #107, #274, ( #150 ) ) ;
#46 = AXIS2_PLACEMENT_3D ( 'NONE', #44, #66, #17 ) ;
#47 = LINE ( 'NONE', #236, #341 ) ;
#48 = CIRCLE ( 'NONE', #52, 2.999999999999996447 ) ;
#49 = CARTESIAN_POINT ( 'NONE',  ( -1.978412509992453461E-30, -2.999999999999996003, -5.666398637112520383E-16 ) ) ;
#50 = FACE_OUTER_BOUND ( 'NONE', #111, .T. ) ;
#51 = AXIS2_PLACEMENT_3D ( 'NONE', #153, #74, #77 ) ;
#52 = AXIS2_PLACEMENT_3D ( 'NONE', #98, #174, #358 ) ;
#53 = CALENDAR_DATE ( 2023, 31, 3 ) ;
#54 = PRODUCT_RELATED_PRODUCT_CATEGORY ( 'detail', '', ( #21 ) ) ;
#55 = PERSON_AND_ORGANIZATION ( #352, #248 ) ;
#56 = CARTESIAN_POINT ( 'NONE',  ( 5.492816181635872417E-14, -2.008144859350672654E-15, 15.73205080756886076 ) ) ;
#57 = DIRECTION ( 'NONE',  ( 4.275831445896959482E-31, 1.000000000000000000, 1.224646799147353454E-16 ) ) ;
#58 = LOCAL_TIME ( 8, 31, 53.00000000000000000, #75 ) ;
#59 = ORIENTED_EDGE ( 'NONE', *, *, #301, .T. ) ;
#60 = ORIENTED_EDGE ( 'NONE', *, *, #202, .T. ) ;
#61 = DIRECTION ( 'NONE',  ( -3.491481338843133355E-15, 1.276467311168695266E-16, -1.000000000000000000 ) ) ;
#62 = CARTESIAN_POINT ( 'NONE',  ( 4.189777606611760026E-14, -1.531760773402434319E-15, 12.00000000000000000 ) ) ;
#63 = ORIENTED_EDGE ( 'NONE', *, *, #262, .T. ) ;
#64 = APPLICATION_PROTOCOL_DEFINITION ( 'international standard', 'config_control_design', 1994, #281 ) ;
#65 = FACE_OUTER_BOUND ( 'NONE', #346, .T. ) ;
#66 = DIRECTION ( 'NONE',  ( 3.491481338843133355E-15, -1.276467311168695266E-16, 1.000000000000000000 ) ) ;
#67 = CARTESIAN_POINT ( 'NONE',  ( 2.094888803305880013E-13, 3.199999999999990852, 60.00000000000000000 ) ) ;
#68 = APPLICATION_PROTOCOL_DEFINITION ( 'international standard', 'config_control_design', 1994, #339 ) ;
#69 = LINE ( 'NONE', #175, #242 ) ;
#70 = DIRECTION ( 'NONE',  ( 3.491481338843133355E-15, -1.224646799147353207E-16, 1.000000000000000000 ) ) ;
#71 = CONICAL_SURFACE ( 'NONE', #276, 3.199999999999998401, 0.7853981633974507215 ) ;
#72 = APPROVAL_PERSON_ORGANIZATION ( #304, #183, #187 ) ;
#73 = CARTESIAN_POINT ( 'NONE',  ( -6.413839710158237013E-31, 0.000000000000000000, -1.836996703606440502E-16 ) ) ;
#74 = DIRECTION ( 'NONE',  ( -3.491481338843133355E-15, 1.224646799147353207E-16, -1.000000000000000000 ) ) ;
#75 = COORDINATED_UNIVERSAL_TIME_OFFSET ( 1, 0, .AHEAD. ) ;
#76 = APPROVAL_DATE_TIME ( #302, #183 ) ;
#77 = DIRECTION ( 'NONE',  ( 0.000000000000000000, 1.000000000000000000, 0.000000000000000000 ) ) ;
#78 = DATE_AND_TIME ( #23, #58 ) ;
#79 = AXIS2_PLACEMENT_3D ( 'NONE', #290, #299, #260 ) ;
#80 = DATE_AND_TIME ( #133, #337 ) ;
#81 = SECURITY_CLASSIFICATION_LEVEL ( 'unclassified' ) ;
#82 = EDGE_CURVE ( 'NONE', #312, #145, #106, .T. ) ;
#83 = CIRCLE ( 'NONE', #51, 3.199999999999998401 ) ;
#84 = EDGE_LOOP ( 'NONE', ( #251, #13, #217, #342 ) ) ;
#85 = CARTESIAN_POINT ( 'NONE',  ( 3.673940397442061840E-16, 2.999999999999996003, 1.992405229899627545E-16 ) ) ;
#86 = DIRECTION ( 'NONE',  ( 0.000000000000000000, -1.000000000000000000, 0.000000000000000000 ) ) ;
#87 = CARTESIAN_POINT ( 'NONE',  ( 2.131628207280301504E-14, 2.999999999999996447, -6.735557395311186511E-16 ) ) ;
#88 = CIRCLE ( 'NONE', #186, 3.999999999999994671 ) ;
#89 = ADVANCED_FACE ( 'NONE', ( #204 ), #293, .F. ) ;
#90 = EDGE_CURVE ( 'NONE', #261, #205, #1, .T. ) ;
#91 = EDGE_LOOP ( 'NONE', ( #169, #318 ) ) ;
#92 = CYLINDRICAL_SURFACE ( 'NONE', #4, 2.999999999999996003 ) ;
#93 = ORIENTED_EDGE ( 'NONE', *, *, #125, .F. ) ;
#94 = CARTESIAN_POINT ( 'NONE',  ( 4.189777606611760026E-14, 2.999519565323707552E-32, 12.00000000000000000 ) ) ;
#95 = VECTOR ( 'NONE', #207, 1000.000000000000000 ) ;
#96 = AXIS2_PLACEMENT_3D ( 'NONE', #203, #230, #100 ) ;
#97 = ADVANCED_BREP_SHAPE_REPRESENTATION ( '372710', ( #131, #252, #96 ), #357 ) ;
#98 = CARTESIAN_POINT ( 'NONE',  ( -3.688735834219957169E-30, 1.114095898418278362E-31, -1.056495932881652338E-15 ) ) ;
#99 = DIRECTION ( 'NONE',  ( -4.456761796588771413E-31, -1.000000000000000000, -1.276467311168695266E-16 ) ) ;
#100 = DIRECTION ( 'NONE',  ( 1.000000000000000000, 0.000000000000000000, 0.000000000000000000 ) ) ;
#101 = DIRECTION ( 'NONE',  ( 3.491481338843133355E-15, -1.276467311168695266E-16, 1.000000000000000000 ) ) ;
#102 = DIRECTION ( 'NONE',  ( 3.372511997194914833E-15, -0.2588190451025215166, 0.9659258262890679791 ) ) ;
#103 = DIRECTION ( 'NONE',  ( -2.468850131082259033E-15, 0.7071067811865493491, -0.7071067811865456854 ) ) ;
#104 = CC_DESIGN_APPROVAL ( #128, ( #150 ) ) ;
#105 = CYLINDRICAL_SURFACE ( 'NONE', #211, 3.999999999999994671 ) ;
#106 = CIRCLE ( 'NONE', #214, 3.999999999999997335 ) ;
#107 = PERSON_AND_ORGANIZATION ( #352, #248 ) ;
#108 = CLOSED_SHELL ( 'NONE', ( #191, #335, #5, #213 ) ) ;
#109 = DIRECTION ( 'NONE',  ( 3.491481338843133355E-15, -1.224646799147353207E-16, 1.000000000000000000 ) ) ;
#110 = CC_DESIGN_DATE_AND_TIME_ASSIGNMENT ( #80, #336, ( #279 ) ) ;
#111 = EDGE_LOOP ( 'NONE', ( #152, #27 ) ) ;
#112 = FACE_OUTER_BOUND ( 'NONE', #199, .T. ) ;
#113 = AXIS2_PLACEMENT_3D ( 'NONE', #349, #161, #345 ) ;
#114 = ORIENTED_EDGE ( 'NONE', *, *, #245, .F. ) ;
#115 = CARTESIAN_POINT ( 'NONE',  ( 4.189777606611760026E-14, -1.531760773402434319E-15, 12.00000000000000000 ) ) ;
#116 = DIRECTION ( 'NONE',  ( 0.000000000000000000, -1.000000000000000000, 0.000000000000000000 ) ) ;
#117 = ORIENTED_EDGE ( 'NONE', *, *, #188, .F. ) ;
#118 = ORIENTED_EDGE ( 'NONE', *, *, #344, .T. ) ;
#119 = EDGE_CURVE ( 'NONE', #312, #220, #234, .T. ) ;
#120 = ORIENTED_EDGE ( 'NONE', *, *, #82, .T. ) ;
#121 = ORIENTED_EDGE ( 'NONE', *, *, #160, .F. ) ;
#122 = CC_DESIGN_APPROVAL ( #183, ( #279 ) ) ;
#123 = DIRECTION ( 'NONE',  ( 0.000000000000000000, 1.000000000000000000, 0.000000000000000000 ) ) ;
#124 = CARTESIAN_POINT ( 'NONE',  ( 4.884159532093972892E-14, 2.999999999999993783, 12.00000000000000000 ) ) ;
#125 = EDGE_CURVE ( 'NONE', #138, #194, #355, .T. ) ;
#126 = FACE_OUTER_BOUND ( 'NONE', #84, .T. ) ;
#127 = CALENDAR_DATE ( 2023, 31, 3 ) ;
#128 = APPROVAL ( #241, 'UNSPECIFIED' ) ;
#129 = APPROVAL_ROLE ( '' ) ;
#130 = DATE_TIME_ROLE ( 'creation_date' ) ;
#131 = MANIFOLD_SOLID_BREP ( 'Corps-Déplacer/Copier1[1]', #255 ) ;
#132 = CONICAL_SURFACE ( 'NONE', #316, 3.199999999999998401, 0.7853981633974507215 ) ;
#133 = CALENDAR_DATE ( 2023, 31, 3 ) ;
#134 = ORIENTED_EDGE ( 'NONE', *, *, #295, .F. ) ;
#135 = EDGE_CURVE ( 'NONE', #322, #33, #221, .T. ) ;
#136 = AXIS2_PLACEMENT_3D ( 'NONE', #73, #170, #99 ) ;
#137 = ADVANCED_FACE ( 'NONE', ( #65 ), #71, .T. ) ;
#138 = VERTEX_POINT ( 'NONE', #124 ) ;
#139 = CARTESIAN_POINT ( 'NONE',  ( 2.066956952595134946E-13, -7.249909050952329922E-15, 59.20000000000000284 ) ) ;
#140 = VERTEX_POINT ( 'NONE', #178 ) ;
#141 = LINE ( 'NONE', #85, #30 ) ;
#142 = ORIENTED_EDGE ( 'NONE', *, *, #305, .F. ) ;
#143 = LINE ( 'NONE', #192, #190 ) ;
#144 = LINE ( 'NONE', #206, #16 ) ;
#145 = VERTEX_POINT ( 'NONE', #359 ) ;
#146 = DIRECTION ( 'NONE',  ( 3.491481338843133355E-15, -1.276467311168695266E-16, 1.000000000000000000 ) ) ;
#147 = CARTESIAN_POINT ( 'NONE',  ( 0.000000000000000000, 0.000000000000000000, 0.000000000000000000 ) ) ;
#148 = CARTESIAN_POINT ( 'NONE',  ( 2.066956952595134946E-13, -7.249909050952329922E-15, 59.20000000000000284 ) ) ;
#149 = FACE_OUTER_BOUND ( 'NONE', #7, .T. ) ;
#150 = PRODUCT_DEFINITION_FORMATION_WITH_SPECIFIED_SOURCE ( 'ANY', '', #21, .NOT_KNOWN. ) ;
#151 = DIRECTION ( 'NONE',  ( -2.382254525458710370E-15, -0.7071067811865491270, -0.7071067811865459074 ) ) ;
#152 = ORIENTED_EDGE ( 'NONE', *, *, #226, .F. ) ;
#153 = CARTESIAN_POINT ( 'NONE',  ( 2.094888803305880013E-13, -7.347880794884118356E-15, 60.00000000000000000 ) ) ;
#154 = EDGE_CURVE ( 'NONE', #145, #140, #69, .T. ) ;
#155 = APPROVAL_ROLE ( '' ) ;
#156 = AXIS2_PLACEMENT_3D ( 'NONE', #360, #334, #332 ) ;
#157 = APPROVAL_DATE_TIME ( #78, #315 ) ;
#158 = COORDINATED_UNIVERSAL_TIME_OFFSET ( 1, 0, .AHEAD. ) ;
#159 = EDGE_CURVE ( 'NONE', #282, #145, #144, .T. ) ;
#160 = EDGE_CURVE ( 'NONE', #194, #140, #47, .T. ) ;
#161 = DIRECTION ( 'NONE',  ( 3.491481338843133355E-15, -1.276467311168695266E-16, 1.000000000000000000 ) ) ;
#162 = ADVANCED_FACE ( 'NONE', ( #50 ), #329, .F. ) ;
#163 = EDGE_LOOP ( 'NONE', ( #39, #118, #284, #288 ) ) ;
#164 = FACE_OUTER_BOUND ( 'NONE', #15, .T. ) ;
#165 = CIRCLE ( 'NONE', #35, 2.999999999999995559 ) ;
#166 = PLANE ( 'NONE',  #172 ) ;
#167 = VERTEX_POINT ( 'NONE', #268 ) ;
#168 = PRODUCT_DEFINITION ( 'UNKNOWN', '', #150, #246 ) ;
#169 = ORIENTED_EDGE ( 'NONE', *, *, #305, .T. ) ;
#170 = DIRECTION ( 'NONE',  ( 3.491481338843133355E-15, -1.276467311168695266E-16, 1.000000000000000000 ) ) ;
#171 = CIRCLE ( 'NONE', #185, 2.999999999999995559 ) ;
#172 = AXIS2_PLACEMENT_3D ( 'NONE', #347, #109, #32 ) ;
#173 = ORIENTED_EDGE ( 'NONE', *, *, #159, .F. ) ;
#174 = DIRECTION ( 'NONE',  ( 3.491481338843133355E-15, -1.276467311168695266E-16, 1.000000000000000000 ) ) ;
#175 = CARTESIAN_POINT ( 'NONE',  ( 4.898587196589389163E-16, -3.999999999999994671, -4.898587196589422689E-16 ) ) ;
#176 = DIRECTION ( 'NONE',  ( 0.000000000000000000, 1.000000000000000000, 0.000000000000000000 ) ) ;
#177 =( NAMED_UNIT ( * ) SI_UNIT ( $, .STERADIAN. ) SOLID_ANGLE_UNIT ( ) );
#178 = CARTESIAN_POINT ( 'NONE',  ( 1.313017872575950626E-13, -3.999999999999996447, 15.73205080756886076 ) ) ;
#179 = CC_DESIGN_DATE_AND_TIME_ASSIGNMENT ( #272, #130, ( #168 ) ) ;
#180 = DIRECTION ( 'NONE',  ( -3.491481338843133355E-15, 1.224646799147353207E-16, -1.000000000000000000 ) ) ;
#181 = AXIS2_PLACEMENT_3D ( 'NONE', #94, #354, #325 ) ;
#182 = ORIENTED_EDGE ( 'NONE', *, *, #295, .T. ) ;
#183 = APPROVAL ( #309, 'UNSPECIFIED' ) ;
#184 = COORDINATED_UNIVERSAL_TIME_OFFSET ( 1, 0, .AHEAD. ) ;
#185 = AXIS2_PLACEMENT_3D ( 'NONE', #41, #146, #116 ) ;
#186 = AXIS2_PLACEMENT_3D ( 'NONE', #218, #61, #11 ) ;
#187 = APPROVAL_ROLE ( '' ) ;
#188 = EDGE_CURVE ( 'NONE', #194, #138, #171, .T. ) ;
#189 = CALENDAR_DATE ( 2023, 31, 3 ) ;
#190 = VECTOR ( 'NONE', #286, 1000.000000000000000 ) ;
#191 = ADVANCED_FACE ( 'NONE', ( #225 ), #92, .T. ) ;
#192 = CARTESIAN_POINT ( 'NONE',  ( 1.080294222566411767E-13, 7.999999999999991118, 30.66025403784432513 ) ) ;
#193 = ORIENTED_EDGE ( 'NONE', *, *, #226, .T. ) ;
#194 = VERTEX_POINT ( 'NONE', #303 ) ;
#195 = CIRCLE ( 'NONE', #244, 3.999999999999994671 ) ;
#196 = DIRECTION ( 'NONE',  ( 3.491481338843133355E-15, -1.276467311168695266E-16, 1.000000000000000000 ) ) ;
#197 = ORIENTED_EDGE ( 'NONE', *, *, #90, .F. ) ;
#198 = FACE_OUTER_BOUND ( 'NONE', #14, .T. ) ;
#199 = EDGE_LOOP ( 'NONE', ( #258, #59, #182, #121 ) ) ;
#200 = MECHANICAL_CONTEXT ( 'NONE', #339, 'mechanical' ) ;
#201 = CARTESIAN_POINT ( 'NONE',  ( 4.189777606611760026E-14, -2.999999999999997335, 12.00000000000000000 ) ) ;
#202 = EDGE_CURVE ( 'NONE', #167, #312, #209, .T. ) ;
#203 = CARTESIAN_POINT ( 'NONE',  ( 0.000000000000000000, 0.000000000000000000, 0.000000000000000000 ) ) ;
#204 = FACE_OUTER_BOUND ( 'NONE', #227, .T. ) ;
#205 = VERTEX_POINT ( 'NONE', #294 ) ;
#206 = CARTESIAN_POINT ( 'NONE',  ( 2.098807673063151487E-13, -3.200000000000005951, 60.00000000000000000 ) ) ;
#207 = DIRECTION ( 'NONE',  ( 3.491481338843133355E-15, -1.276467311168695266E-16, 1.000000000000000000 ) ) ;
#208 = DIRECTION ( 'NONE',  ( 3.491481338843133355E-15, -1.276467311168695266E-16, 1.000000000000000000 ) ) ;
#209 = LINE ( 'NONE', #67, #265 ) ;
#210 = COORDINATED_UNIVERSAL_TIME_OFFSET ( 1, 0, .AHEAD. ) ;
#211 = AXIS2_PLACEMENT_3D ( 'NONE', #147, #263, #57 ) ;
#212 = APPROVAL_DATE_TIME ( #275, #128 ) ;
#213 = ADVANCED_FACE ( 'NONE', ( #149 ), #237, .F. ) ;
#214 = AXIS2_PLACEMENT_3D ( 'NONE', #148, #320, #123 ) ;
#215 = ORIENTED_EDGE ( 'NONE', *, *, #119, .F. ) ;
#216 = APPROVAL_PERSON_ORGANIZATION ( #24, #128, #129 ) ;
#217 = ORIENTED_EDGE ( 'NONE', *, *, #160, .T. ) ;
#218 = CARTESIAN_POINT ( 'NONE',  ( 5.492816181635872417E-14, -2.008144859350672654E-15, 15.73205080756886076 ) ) ;
#219 = ADVANCED_FACE ( 'NONE', ( #126 ), #331, .T. ) ;
#220 = VERTEX_POINT ( 'NONE', #20 ) ;
#221 = CIRCLE ( 'NONE', #46, 2.999999999999995559 ) ;
#222 = DIRECTION ( 'NONE',  ( 0.000000000000000000, 1.000000000000000000, 0.000000000000000000 ) ) ;
#223 = CONICAL_SURFACE ( 'NONE', #113, 7.999999999999994671, 0.2617993877991501850 ) ;
#224 = ORIENTED_EDGE ( 'NONE', *, *, #361, .T. ) ;
#225 = FACE_OUTER_BOUND ( 'NONE', #356, .T. ) ;
#226 = EDGE_CURVE ( 'NONE', #167, #282, #83, .T. ) ;
#227 = EDGE_LOOP ( 'NONE', ( #117, #93 ) ) ;
#228 = CARTESIAN_POINT ( 'NONE',  ( -3.688735834219957169E-30, 1.114095898418278362E-31, -1.056495932881652338E-15 ) ) ;
#229 = ORIENTED_EDGE ( 'NONE', *, *, #262, .F. ) ;
#230 = DIRECTION ( 'NONE',  ( 0.000000000000000000, 0.000000000000000000, 1.000000000000000000 ) ) ;
#231 = DIRECTION ( 'NONE',  ( -4.456761796588770537E-31, -1.000000000000000000, -1.276467311168695266E-16 ) ) ;
#232 = EDGE_CURVE ( 'NONE', #282, #167, #247, .T. ) ;
#233 = AXIS2_PLACEMENT_3D ( 'NONE', #139, #253, #40 ) ;
#234 = LINE ( 'NONE', #264, #313 ) ;
#235 = CARTESIAN_POINT ( 'NONE',  ( -6.413839710158237013E-31, 0.000000000000000000, -1.836996703606440502E-16 ) ) ;
#236 = CARTESIAN_POINT ( 'NONE',  ( 1.070497048173232955E-13, -7.999999999999998224, 30.66025403784432513 ) ) ;
#237 = PLANE ( 'NONE',  #238 ) ;
#238 = AXIS2_PLACEMENT_3D ( 'NONE', #328, #70, #363 ) ;
#239 = APPROVAL_PERSON_ORGANIZATION ( #353, #315, #155 ) ;
#240 = PERSON_AND_ORGANIZATION_ROLE ( 'classification_officer' ) ;
#241 = APPROVAL_STATUS ( 'not_yet_approved' ) ;
#242 = VECTOR ( 'NONE', #297, 1000.000000000000000 ) ;
#243 = SHAPE_DEFINITION_REPRESENTATION ( #333, #97 ) ;
#244 = AXIS2_PLACEMENT_3D ( 'NONE', #56, #343, #86 ) ;
#245 = EDGE_CURVE ( 'NONE', #205, #33, #298, .T. ) ;
#246 = DESIGN_CONTEXT ( 'detailed design', #281, 'design' ) ;
#247 = CIRCLE ( 'NONE', #278, 3.199999999999998401 ) ;
#248 = ORGANIZATION ( 'UNSPECIFIED', 'UNSPECIFIED', '' ) ;
#249 = CARTESIAN_POINT ( 'NONE',  ( 0.000000000000000000, 0.000000000000000000, 0.000000000000000000 ) ) ;
#250 = CYLINDRICAL_SURFACE ( 'NONE', #9, 3.999999999999994671 ) ;
#251 = ORIENTED_EDGE ( 'NONE', *, *, #301, .F. ) ;
#252 = MANIFOLD_SOLID_BREP ( 'Corps-Déplacer/Copier1[2]', #108 ) ;
#253 = DIRECTION ( 'NONE',  ( -3.491481338843133355E-15, 1.224646799147353207E-16, -1.000000000000000000 ) ) ;
#254 = EDGE_LOOP ( 'NONE', ( #193, #10, #36, #351 ) ) ;
#255 = CLOSED_SHELL ( 'NONE', ( #307, #271, #321, #257, #137, #162, #219, #89 ) ) ;
#256 = CC_DESIGN_APPROVAL ( #315, ( #168 ) ) ;
#257 = ADVANCED_FACE ( 'NONE', ( #269 ), #105, .T. ) ;
#258 = ORIENTED_EDGE ( 'NONE', *, *, #188, .T. ) ;
#259 = DIRECTION ( 'NONE',  ( -3.491481338843133355E-15, 1.224646799147353207E-16, -1.000000000000000000 ) ) ;
#260 = DIRECTION ( 'NONE',  ( 4.275831445896958607E-31, 1.000000000000000000, 1.224646799147353207E-16 ) ) ;
#261 = VERTEX_POINT ( 'NONE', #87 ) ;
#262 = EDGE_CURVE ( 'NONE', #261, #322, #141, .T. ) ;
#263 = DIRECTION ( 'NONE',  ( -3.491481338843133355E-15, 1.224646799147353207E-16, -1.000000000000000000 ) ) ;
#264 = CARTESIAN_POINT ( 'NONE',  ( 1.710332578358781341E-30, 3.999999999999994671, 4.898587196589406912E-16 ) ) ;
#265 = VECTOR ( 'NONE', #103, 1000.000000000000000 ) ;
#266 = LOCAL_TIME ( 8, 31, 53.00000000000000000, #25 ) ;
#267 = DIRECTION ( 'NONE',  ( 0.000000000000000000, -1.000000000000000000, 0.000000000000000000 ) ) ;
#268 = CARTESIAN_POINT ( 'NONE',  ( 2.094888803305880013E-13, 3.199999999999990852, 60.00000000000000000 ) ) ;
#269 = FACE_OUTER_BOUND ( 'NONE', #163, .T. ) ;
#270 = AXIS2_PLACEMENT_3D ( 'NONE', #228, #101, #231 ) ;
#271 = ADVANCED_FACE ( 'NONE', ( #283 ), #132, .T. ) ;
#272 = DATE_AND_TIME ( #53, #306 ) ;
#273 = CC_DESIGN_PERSON_AND_ORGANIZATION_ASSIGNMENT ( #338, #308, ( #150 ) ) ;
#274 = PERSON_AND_ORGANIZATION_ROLE ( 'creator' ) ;
#275 = DATE_AND_TIME ( #189, #310 ) ;
#276 = AXIS2_PLACEMENT_3D ( 'NONE', #19, #38, #176 ) ;
#277 = CARTESIAN_POINT ( 'NONE',  ( 2.094888803305880013E-13, -7.347880794884118356E-15, 60.00000000000000000 ) ) ;
#278 = AXIS2_PLACEMENT_3D ( 'NONE', #291, #180, #42 ) ;
#279 = SECURITY_CLASSIFICATION ( '', '', #81 ) ;
#280 = CARTESIAN_POINT ( 'NONE',  ( 2.131628207280300558E-14, 2.999999999999993783, 12.00000000000000000 ) ) ;
#281 = APPLICATION_CONTEXT ( 'configuration controlled 3d designs of mechanical parts and assemblies' ) ;
#282 = VERTEX_POINT ( 'NONE', #6 ) ;
#283 = FACE_OUTER_BOUND ( 'NONE', #254, .T. ) ;
#284 = ORIENTED_EDGE ( 'NONE', *, *, #119, .T. ) ;
#285 = ORIENTED_EDGE ( 'NONE', *, *, #245, .T. ) ;
#286 = DIRECTION ( 'NONE',  ( 3.404208188709233130E-15, 0.2588190451025213501, 0.9659258262890680902 ) ) ;
#287 = ORIENTED_EDGE ( 'NONE', *, *, #90, .T. ) ;
#288 = ORIENTED_EDGE ( 'NONE', *, *, #330, .F. ) ;
#289 =( NAMED_UNIT ( * ) PLANE_ANGLE_UNIT ( ) SI_UNIT ( $, .RADIAN. ) );
#290 = CARTESIAN_POINT ( 'NONE',  ( 2.094888803305880013E-13, 2.399615652258959856E-32, 60.00000000000000000 ) ) ;
#291 = CARTESIAN_POINT ( 'NONE',  ( 2.094888803305880013E-13, -7.347880794884118356E-15, 60.00000000000000000 ) ) ;
#292 =( LENGTH_UNIT ( ) NAMED_UNIT ( * ) SI_UNIT ( .MILLI., .METRE. ) );
#293 = PLANE ( 'NONE',  #181 ) ;
#294 = CARTESIAN_POINT ( 'NONE',  ( -5.025764373196586666E-30, -2.999999999999996447, -1.439436126232260573E-15 ) ) ;
#295 = EDGE_CURVE ( 'NONE', #220, #140, #88, .T. ) ;
#296 = PERSON_AND_ORGANIZATION_ROLE ( 'design_owner' ) ;
#297 = DIRECTION ( 'NONE',  ( -3.491481338843133355E-15, 1.224646799147353207E-16, -1.000000000000000000 ) ) ;
#298 = LINE ( 'NONE', #49, #95 ) ;
#299 = DIRECTION ( 'NONE',  ( -3.491481338843133355E-15, 1.224646799147353207E-16, -1.000000000000000000 ) ) ;
#300 = DIRECTION ( 'NONE',  ( -4.456761796588771413E-31, -1.000000000000000000, -1.276467311168695266E-16 ) ) ;
#301 = EDGE_CURVE ( 'NONE', #138, #220, #143, .T. ) ;
#302 = DATE_AND_TIME ( #127, #266 ) ;
#303 = CARTESIAN_POINT ( 'NONE',  ( 4.189777606611760026E-14, -2.999999999999997335, 12.00000000000000000 ) ) ;
#304 = PERSON_AND_ORGANIZATION ( #352, #248 ) ;
#305 = EDGE_CURVE ( 'NONE', #33, #322, #165, .T. ) ;
#306 = LOCAL_TIME ( 8, 31, 53.00000000000000000, #158 ) ;
#307 = ADVANCED_FACE ( 'NONE', ( #112 ), #223, .T. ) ;
#308 = PERSON_AND_ORGANIZATION_ROLE ( 'design_supplier' ) ;
#309 = APPROVAL_STATUS ( 'not_yet_approved' ) ;
#310 = LOCAL_TIME ( 8, 31, 53.00000000000000000, #184 ) ;
#311 = ORIENTED_EDGE ( 'NONE', *, *, #344, .F. ) ;
#312 = VERTEX_POINT ( 'NONE', #29 ) ;
#313 = VECTOR ( 'NONE', #326, 1000.000000000000000 ) ;
#314 = ORIENTED_EDGE ( 'NONE', *, *, #361, .F. ) ;
#315 = APPROVAL ( #324, 'UNSPECIFIED' ) ;
#316 = AXIS2_PLACEMENT_3D ( 'NONE', #277, #319, #222 ) ;
#317 = DIRECTION ( 'NONE',  ( 0.000000000000000000, -1.000000000000000000, 0.000000000000000000 ) ) ;
#318 = ORIENTED_EDGE ( 'NONE', *, *, #135, .T. ) ;
#319 = DIRECTION ( 'NONE',  ( -3.491481338843133355E-15, 1.224646799147353207E-16, -1.000000000000000000 ) ) ;
#320 = DIRECTION ( 'NONE',  ( -3.491481338843133355E-15, 1.224646799147353207E-16, -1.000000000000000000 ) ) ;
#321 = ADVANCED_FACE ( 'NONE', ( #164 ), #250, .T. ) ;
#322 = VERTEX_POINT ( 'NONE', #280 ) ;
#323 = AXIS2_PLACEMENT_3D ( 'NONE', #62, #327, #267 ) ;
#324 = APPROVAL_STATUS ( 'not_yet_approved' ) ;
#325 = DIRECTION ( 'NONE',  ( -4.275831445896958607E-31, -1.000000000000000000, -1.224646799147353207E-16 ) ) ;
#326 = DIRECTION ( 'NONE',  ( -3.491481338843133355E-15, 1.224646799147353207E-16, -1.000000000000000000 ) ) ;
#327 = DIRECTION ( 'NONE',  ( 3.491481338843133355E-15, -1.276467311168695266E-16, 1.000000000000000000 ) ) ;
#328 = CARTESIAN_POINT ( 'NONE',  ( -6.413786353521998128E-31, 2.249653418127172114E-32, -1.836981421658447292E-16 ) ) ;
#329 = PLANE ( 'NONE',  #79 ) ;
#330 = EDGE_CURVE ( 'NONE', #140, #220, #195, .T. ) ;
#331 = CONICAL_SURFACE ( 'NONE', #156, 7.999999999999994671, 0.2617993877991501850 ) ;
#332 = DIRECTION ( 'NONE',  ( 0.000000000000000000, -1.000000000000000000, 0.000000000000000000 ) ) ;
#333 = PRODUCT_DEFINITION_SHAPE ( 'NONE', 'NONE',  #168 ) ;
#334 = DIRECTION ( 'NONE',  ( 3.491481338843133355E-15, -1.276467311168695266E-16, 1.000000000000000000 ) ) ;
#335 = ADVANCED_FACE ( 'NONE', ( #31 ), #166, .T. ) ;
#336 = DATE_TIME_ROLE ( 'classification_date' ) ;
#337 = LOCAL_TIME ( 8, 31, 53.00000000000000000, #210 ) ;
#338 = PERSON_AND_ORGANIZATION ( #352, #248 ) ;
#339 = APPLICATION_CONTEXT ( 'configuration controlled 3d designs of mechanical parts and assemblies' ) ;
#340 = CC_DESIGN_PERSON_AND_ORGANIZATION_ASSIGNMENT ( #55, #3, ( #168 ) ) ;
#341 = VECTOR ( 'NONE', #102, 1000.000000000000114 ) ;
#342 = ORIENTED_EDGE ( 'NONE', *, *, #330, .T. ) ;
#343 = DIRECTION ( 'NONE',  ( -3.491481338843133355E-15, 1.276467311168695266E-16, -1.000000000000000000 ) ) ;
#344 = EDGE_CURVE ( 'NONE', #145, #312, #22, .T. ) ;
#345 = DIRECTION ( 'NONE',  ( 0.000000000000000000, -1.000000000000000000, 0.000000000000000000 ) ) ;
#346 = EDGE_LOOP ( 'NONE', ( #173, #12, #60, #311 ) ) ;
#347 = CARTESIAN_POINT ( 'NONE',  ( 4.189777606611760026E-14, 2.999519565323707552E-32, 12.00000000000000000 ) ) ;
#348 = ORIENTED_EDGE ( 'NONE', *, *, #154, .T. ) ;
#349 = CARTESIAN_POINT ( 'NONE',  ( 1.070497048173232955E-13, -3.913681203143627969E-15, 30.66025403784432513 ) ) ;
#350 = ORIENTED_EDGE ( 'NONE', *, *, #135, .F. ) ;
#351 = ORIENTED_EDGE ( 'NONE', *, *, #202, .F. ) ;
#352 = PERSON ( 'UNSPECIFIED', 'UNSPECIFIED', 'UNSPECIFIED', ('UNSPECIFIED'), ('UNSPECIFIED'), ('UNSPECIFIED') ) ;
#353 = PERSON_AND_ORGANIZATION ( #352, #248 ) ;
#354 = DIRECTION ( 'NONE',  ( 3.491481338843133355E-15, -1.224646799147353207E-16, 1.000000000000000000 ) ) ;
#355 = CIRCLE ( 'NONE', #323, 2.999999999999995559 ) ;
#356 = EDGE_LOOP ( 'NONE', ( #224, #63, #142, #114 ) ) ;
#357 =( GEOMETRIC_REPRESENTATION_CONTEXT ( 3 ) GLOBAL_UNCERTAINTY_ASSIGNED_CONTEXT ( ( #28 ) ) GLOBAL_UNIT_ASSIGNED_CONTEXT ( ( #292, #289, #177 ) ) REPRESENTATION_CONTEXT ( 'NONE', 'WORKASPACE' ) );
#358 = DIRECTION ( 'NONE',  ( -4.456761796588770537E-31, -1.000000000000000000, -1.276467311168695266E-16 ) ) ;
#359 = CARTESIAN_POINT ( 'NONE',  ( 1.313017872575949616E-13, -4.000000000000004441, 59.20000000000000284 ) ) ;
#360 = CARTESIAN_POINT ( 'NONE',  ( 1.070497048173232955E-13, -3.913681203143627969E-15, 30.66025403784432513 ) ) ;
#361 = EDGE_CURVE ( 'NONE', #205, #261, #48, .T. ) ;
#362 = CYLINDRICAL_SURFACE ( 'NONE', #136, 2.999999999999996003 ) ;
#363 = DIRECTION ( 'NONE',  ( -4.275831445896958607E-31, -1.000000000000000000, -1.224646799147353207E-16 ) ) ;
ENDSEC;
END-ISO-10303-21;
