ISO-10303-21;
HEADER;
FILE_DESCRIPTION (( 'STEP AP203' ),
    '1' );
FILE_NAME ('372709.step',
    '2023-03-31T06:31:52',
    ( '' ),
    ( '' ),
    'SwSTEP 2.0',
    'SolidWorks 2022',
    '' );
FILE_SCHEMA (( 'CONFIG_CONTROL_DESIGN' ));
ENDSEC;

DATA;
#1 = APPROVAL_PERSON_ORGANIZATION ( #232, #257, #117 ) ;
#2 = COORDINATED_UNIVERSAL_TIME_OFFSET ( 1, 0, .AHEAD. ) ;
#3 = APPLICATION_CONTEXT ( 'configuration controlled 3d designs of mechanical parts and assemblies' ) ;
#4 = EDGE_LOOP ( 'NONE', ( #152, #195 ) ) ;
#5 = DIRECTION ( 'NONE',  ( 3.491481338843133355E-15, -1.224646799147353207E-16, 1.000000000000000000 ) ) ;
#6 = CALENDAR_DATE ( 2023, 31, 3 ) ;
#7 = AXIS2_PLACEMENT_3D ( 'NONE', #43, #23, #203 ) ;
#8 = DATE_TIME_ROLE ( 'creation_date' ) ;
#9 = DIRECTION ( 'NONE',  ( 4.275831445896958607E-31, 1.000000000000000000, 1.224646799147352961E-16 ) ) ;
#10 = FACE_OUTER_BOUND ( 'NONE', #289, .T. ) ;
#11 = DIRECTION ( 'NONE',  ( 0.000000000000000000, 1.000000000000000000, 0.000000000000000000 ) ) ;
#12 = DIRECTION ( 'NONE',  ( 0.000000000000000000, 1.000000000000000000, 0.000000000000000000 ) ) ;
#13 = PRODUCT_RELATED_PRODUCT_CATEGORY ( 'detail', '', ( #149 ) ) ;
#14 = DIRECTION ( 'NONE',  ( -4.275831445896958607E-31, -1.000000000000000000, -1.224646799147353207E-16 ) ) ;
#15 = DIRECTION ( 'NONE',  ( -3.491481338843133355E-15, 1.224646799147353207E-16, -1.000000000000000000 ) ) ;
#16 = ORIENTED_EDGE ( 'NONE', *, *, #226, .T. ) ;
#17 = VERTEX_POINT ( 'NONE', #303 ) ;
#18 = APPLICATION_PROTOCOL_DEFINITION ( 'international standard', 'config_control_design', 1994, #3 ) ;
#19 = FACE_OUTER_BOUND ( 'NONE', #107, .T. ) ;
#20 = CARTESIAN_POINT ( 'NONE',  ( 1.282749433769084604E-30, 2.999999999999993339, 3.673940397442050993E-16 ) ) ;
#21 = DIRECTION ( 'NONE',  ( -3.491481338843133355E-15, 1.224646799147353207E-16, -1.000000000000000000 ) ) ;
#22 = CARTESIAN_POINT ( 'NONE',  ( 3.673940397442045077E-16, -2.999999999999998224, -3.673940397442070222E-16 ) ) ;
#23 = DIRECTION ( 'NONE',  ( 0.000000000000000000, 0.000000000000000000, 1.000000000000000000 ) ) ;
#24 = AXIS2_PLACEMENT_3D ( 'NONE', #32, #60, #160 ) ;
#25 = DIRECTION ( 'NONE',  ( 3.491481338843133355E-15, -1.224646799147353207E-16, 1.000000000000000000 ) ) ;
#26 = APPROVAL_DATE_TIME ( #212, #249 ) ;
#27 = CARTESIAN_POINT ( 'NONE',  ( 1.326762908760390423E-13, -4.653657836759941941E-15, 38.00000000000000000 ) ) ;
#28 = DESIGN_CONTEXT ( 'detailed design', #3, 'design' ) ;
#29 = APPROVAL_PERSON_ORGANIZATION ( #119, #249, #172 ) ;
#30 = FACE_OUTER_BOUND ( 'NONE', #4, .T. ) ;
#31 = DIRECTION ( 'NONE',  ( 4.275831445896958607E-31, 1.000000000000000000, 1.224646799147353454E-16 ) ) ;
#32 = CARTESIAN_POINT ( 'NONE',  ( 2.772236183041447758E-13, -9.723695585229984332E-15, 79.39999999999999147 ) ) ;
#33 = DIRECTION ( 'NONE',  ( 0.000000000000000000, 1.000000000000000000, 0.000000000000000000 ) ) ;
#34 = FACE_OUTER_BOUND ( 'NONE', #292, .T. ) ;
#35 = VERTEX_POINT ( 'NONE', #268 ) ;
#36 = ORIENTED_EDGE ( 'NONE', *, *, #207, .F. ) ;
#37 = CIRCLE ( 'NONE', #183, 2.999999999999990674 ) ;
#38 = PERSON_AND_ORGANIZATION_ROLE ( 'creator' ) ;
#39 = ORIENTED_EDGE ( 'NONE', *, *, #158, .F. ) ;
#40 = APPLICATION_PROTOCOL_DEFINITION ( 'international standard', 'config_control_design', 1994, #258 ) ;
#41 = VECTOR ( 'NONE', #125, 1000.000000000000000 ) ;
#42 = DIRECTION ( 'NONE',  ( 0.000000000000000000, 1.000000000000000000, 0.000000000000000000 ) ) ;
#43 = CARTESIAN_POINT ( 'NONE',  ( 0.000000000000000000, 0.000000000000000000, 0.000000000000000000 ) ) ;
#44 = CARTESIAN_POINT ( 'NONE',  ( 3.673940397442038667E-16, -2.999999999999993339, -3.673940397442063812E-16 ) ) ;
#45 = CARTESIAN_POINT ( 'NONE',  ( 2.772236183041447758E-13, -9.723695585229984332E-15, 79.39999999999999147 ) ) ;
#46 = AXIS2_PLACEMENT_3D ( 'NONE', #165, #15, #116 ) ;
#47 = VERTEX_POINT ( 'NONE', #218 ) ;
#48 = APPROVAL_STATUS ( 'not_yet_approved' ) ;
#49 = CC_DESIGN_PERSON_AND_ORGANIZATION_ASSIGNMENT ( #196, #109, ( #193 ) ) ;
#50 = DIRECTION ( 'NONE',  ( 0.000000000000000000, 1.000000000000000000, 0.000000000000000000 ) ) ;
#51 = APPROVAL_DATE_TIME ( #279, #104 ) ;
#52 = CIRCLE ( 'NONE', #68, 2.999999999999995559 ) ;
#53 = ORIENTED_EDGE ( 'NONE', *, *, #185, .T. ) ;
#54 = PLANE ( 'NONE',  #246 ) ;
#55 = CARTESIAN_POINT ( 'NONE',  ( 2.796124223392460732E-13, -2.400000000000011458, 80.00000000000000000 ) ) ;
#56 = CARTESIAN_POINT ( 'NONE',  ( -4.275832226095729073E-31, 2.999999999999990674, -1.224647022605161898E-16 ) ) ;
#57 = CARTESIAN_POINT ( 'NONE',  ( 0.000000000000000000, 0.000000000000000000, 0.000000000000000000 ) ) ;
#58 = APPROVAL_STATUS ( 'not_yet_approved' ) ;
#59 = AXIS2_PLACEMENT_3D ( 'NONE', #228, #312, #175 ) ;
#60 = DIRECTION ( 'NONE',  ( -3.491481338843133355E-15, 1.224646799147353207E-16, -1.000000000000000000 ) ) ;
#61 = CALENDAR_DATE ( 2023, 31, 3 ) ;
#62 = DIRECTION ( 'NONE',  ( 4.275831445896958607E-31, 1.000000000000000000, 1.224646799147352961E-16 ) ) ;
#63 = ORIENTED_EDGE ( 'NONE', *, *, #74, .F. ) ;
#64 = DIRECTION ( 'NONE',  ( 3.491481338843133355E-15, -1.224646799147353207E-16, 1.000000000000000000 ) ) ;
#65 = DIRECTION ( 'NONE',  ( -3.491481338843133355E-15, 1.224646799147353207E-16, -1.000000000000000000 ) ) ;
#66 = CYLINDRICAL_SURFACE ( 'NONE', #310, 2.999999999999998224 ) ;
#67 = ORIENTED_EDGE ( 'NONE', *, *, #248, .T. ) ;
#68 = AXIS2_PLACEMENT_3D ( 'NONE', #27, #177, #274 ) ;
#69 = CARTESIAN_POINT ( 'NONE',  ( 2.793185071074506684E-13, -9.797174393178826052E-15, 80.00000000000000000 ) ) ;
#70 = APPROVAL_STATUS ( 'not_yet_approved' ) ;
#71 = CARTESIAN_POINT ( 'NONE',  ( 6.670553947776362560E-14, -3.000000000000000444, 38.00000000000000000 ) ) ;
#72 = CARTESIAN_POINT ( 'NONE',  ( 2.786017173415675146E-13, -2.400000000000011458, 80.00000000000000000 ) ) ;
#73 = AXIS2_PLACEMENT_3D ( 'NONE', #164, #264, #33 ) ;
#74 = EDGE_CURVE ( 'NONE', #216, #35, #82, .T. ) ;
#75 = MANIFOLD_SOLID_BREP ( 'Corps-Déplacer/Copier1[2]', #281 ) ;
#76 = CARTESIAN_POINT ( 'NONE',  ( 1.326762908760390423E-13, 2.249639673992776285E-32, 38.00000000000000000 ) ) ;
#77 = CARTESIAN_POINT ( 'NONE',  ( 2.793185071074506684E-13, -9.797174393178826052E-15, 80.00000000000000000 ) ) ;
#78 = PRODUCT_DEFINITION_FORMATION_WITH_SPECIFIED_SOURCE ( 'ANY', '', #149, .NOT_KNOWN. ) ;
#79 = LOCAL_TIME ( 8, 31, 52.00000000000000000, #220 ) ;
#80 = PERSON_AND_ORGANIZATION ( #136, #94 ) ;
#81 = APPROVAL_ROLE ( '' ) ;
#82 = CIRCLE ( 'NONE', #130, 2.999999999999995559 ) ;
#83 = CC_DESIGN_APPROVAL ( #257, ( #193 ) ) ;
#84 = EDGE_CURVE ( 'NONE', #89, #17, #254, .T. ) ;
#85 = ORIENTED_EDGE ( 'NONE', *, *, #176, .T. ) ;
#86 = SHAPE_DEFINITION_REPRESENTATION ( #100, #180 ) ;
#87 = ADVANCED_FACE ( 'NONE', ( #262 ), #201, .T. ) ;
#88 = ORIENTED_EDGE ( 'NONE', *, *, #146, .F. ) ;
#89 = VERTEX_POINT ( 'NONE', #102 ) ;
#90 = ORIENTED_EDGE ( 'NONE', *, *, #146, .T. ) ;
#91 = DIRECTION ( 'NONE',  ( -2.382254525458724175E-15, -0.7071067811865451302, -0.7071067811865499042 ) ) ;
#92 = ORIENTED_EDGE ( 'NONE', *, *, #84, .F. ) ;
#93 = DIRECTION ( 'NONE',  ( 4.275831445896958607E-31, 1.000000000000000000, 1.224646799147353454E-16 ) ) ;
#94 = ORGANIZATION ( 'UNSPECIFIED', 'UNSPECIFIED', '' ) ;
#95 = VECTOR ( 'NONE', #311, 1000.000000000000000 ) ;
#96 = ORIENTED_EDGE ( 'NONE', *, *, #161, .F. ) ;
#97 = CYLINDRICAL_SURFACE ( 'NONE', #313, 2.999999999999998224 ) ;
#98 = DIRECTION ( 'NONE',  ( 0.000000000000000000, 1.000000000000000000, 0.000000000000000000 ) ) ;
#99 = ADVANCED_FACE ( 'NONE', ( #230 ), #285, .T. ) ;
#100 = PRODUCT_DEFINITION_SHAPE ( 'NONE', 'NONE',  #112 ) ;
#101 = PERSON_AND_ORGANIZATION ( #136, #94 ) ;
#102 = CARTESIAN_POINT ( 'NONE',  ( 2.772236183041447758E-13, 2.999999999999991562, 79.39999999999999147 ) ) ;
#103 = AXIS2_PLACEMENT_3D ( 'NONE', #225, #169, #269 ) ;
#104 = APPROVAL ( #48, 'UNSPECIFIED' ) ;
#105 = DIRECTION ( 'NONE',  ( -3.491481338843133355E-15, 1.224646799147353207E-16, -1.000000000000000000 ) ) ;
#106 = EDGE_LOOP ( 'NONE', ( #88, #118, #128, #39 ) ) ;
#107 = EDGE_LOOP ( 'NONE', ( #306, #252, #302, #287 ) ) ;
#108 = CIRCLE ( 'NONE', #73, 2.999999999999995559 ) ;
#109 = PERSON_AND_ORGANIZATION_ROLE ( 'classification_officer' ) ;
#110 = CARTESIAN_POINT ( 'NONE',  ( -8.551663281893283178E-31, 2.999519702152153373E-32, -2.449293710023605213E-16 ) ) ;
#111 = CARTESIAN_POINT ( 'NONE',  ( 2.793185071074506684E-13, 2.399999999999991473, 80.00000000000000000 ) ) ;
#112 = PRODUCT_DEFINITION ( 'UNKNOWN', '', #78, #28 ) ;
#113 = COORDINATED_UNIVERSAL_TIME_OFFSET ( 1, 0, .AHEAD. ) ;
#114 = AXIS2_PLACEMENT_3D ( 'NONE', #45, #127, #98 ) ;
#115 = PLANE ( 'NONE',  #46 ) ;
#116 = DIRECTION ( 'NONE',  ( 4.275831445896958607E-31, 1.000000000000000000, 1.224646799147353207E-16 ) ) ;
#117 = APPROVAL_ROLE ( '' ) ;
#118 = ORIENTED_EDGE ( 'NONE', *, *, #261, .T. ) ;
#119 = PERSON_AND_ORGANIZATION ( #136, #94 ) ;
#120 = CC_DESIGN_PERSON_AND_ORGANIZATION_ASSIGNMENT ( #101, #245, ( #149 ) ) ;
#121 = APPROVAL_PERSON_ORGANIZATION ( #80, #104, #81 ) ;
#122 =( NAMED_UNIT ( * ) SI_UNIT ( $, .STERADIAN. ) SOLID_ANGLE_UNIT ( ) );
#123 = CYLINDRICAL_SURFACE ( 'NONE', #155, 2.999999999999993339 ) ;
#124 = DIRECTION ( 'NONE',  ( -3.491481338843133355E-15, 1.224646799147353207E-16, -1.000000000000000000 ) ) ;
#125 = DIRECTION ( 'NONE',  ( -3.491481338843133355E-15, 1.224646799147353207E-16, -1.000000000000000000 ) ) ;
#126 = CC_DESIGN_SECURITY_CLASSIFICATION ( #193, ( #78 ) ) ;
#127 = DIRECTION ( 'NONE',  ( -3.491481338843133355E-15, 1.224646799147353207E-16, -1.000000000000000000 ) ) ;
#128 = ORIENTED_EDGE ( 'NONE', *, *, #305, .T. ) ;
#129 = CC_DESIGN_PERSON_AND_ORGANIZATION_ASSIGNMENT ( #301, #141, ( #78 ) ) ;
#130 = AXIS2_PLACEMENT_3D ( 'NONE', #243, #240, #12 ) ;
#131 = PERSON_AND_ORGANIZATION ( #136, #94 ) ;
#132 = CC_DESIGN_DATE_AND_TIME_ASSIGNMENT ( #234, #8, ( #112 ) ) ;
#133 = PERSON_AND_ORGANIZATION_ROLE ( 'creator' ) ;
#134 = LOCAL_TIME ( 8, 31, 52.00000000000000000, #113 ) ;
#135 = DATE_AND_TIME ( #307, #79 ) ;
#136 = PERSON ( 'UNSPECIFIED', 'UNSPECIFIED', 'UNSPECIFIED', ('UNSPECIFIED'), ('UNSPECIFIED'), ('UNSPECIFIED') ) ;
#137 = CARTESIAN_POINT ( 'NONE',  ( 2.793185071074506684E-13, -9.797174393178826052E-15, 80.00000000000000000 ) ) ;
#138 = EDGE_CURVE ( 'NONE', #35, #216, #52, .T. ) ;
#139 = PLANE ( 'NONE',  #174 ) ;
#140 = CARTESIAN_POINT ( 'NONE',  ( 0.000000000000000000, 0.000000000000000000, 0.000000000000000000 ) ) ;
#141 = PERSON_AND_ORGANIZATION_ROLE ( 'design_supplier' ) ;
#142 = AXIS2_PLACEMENT_3D ( 'NONE', #137, #237, #11 ) ;
#143 = ORIENTED_EDGE ( 'NONE', *, *, #161, .T. ) ;
#144 = EDGE_LOOP ( 'NONE', ( #53, #265, #210, #96 ) ) ;
#145 = CARTESIAN_POINT ( 'NONE',  ( 2.793185071074506684E-13, 2.399999999999991473, 80.00000000000000000 ) ) ;
#146 = EDGE_CURVE ( 'NONE', #168, #17, #209, .T. ) ;
#147 = VECTOR ( 'NONE', #91, 1000.000000000000114 ) ;
#148 = LINE ( 'NONE', #20, #95 ) ;
#149 = PRODUCT ( '372709', '372709', '', ( #296 ) ) ;
#150 =( NAMED_UNIT ( * ) PLANE_ANGLE_UNIT ( ) SI_UNIT ( $, .RADIAN. ) );
#151 = LOCAL_TIME ( 8, 31, 52.00000000000000000, #2 ) ;
#152 = ORIENTED_EDGE ( 'NONE', *, *, #74, .T. ) ;
#153 = COORDINATED_UNIVERSAL_TIME_OFFSET ( 1, 0, .AHEAD. ) ;
#154 = ADVANCED_FACE ( 'NONE', ( #30 ), #139, .F. ) ;
#155 = AXIS2_PLACEMENT_3D ( 'NONE', #186, #283, #62 ) ;
#156 = ORIENTED_EDGE ( 'NONE', *, *, #204, .F. ) ;
#157 = FACE_OUTER_BOUND ( 'NONE', #213, .T. ) ;
#158 = EDGE_CURVE ( 'NONE', #17, #89, #206, .T. ) ;
#159 = ORIENTED_EDGE ( 'NONE', *, *, #185, .F. ) ;
#160 = DIRECTION ( 'NONE',  ( 0.000000000000000000, 1.000000000000000000, 0.000000000000000000 ) ) ;
#161 = EDGE_CURVE ( 'NONE', #47, #221, #148, .T. ) ;
#162 = ORIENTED_EDGE ( 'NONE', *, *, #207, .T. ) ;
#163 = EDGE_CURVE ( 'NONE', #235, #266, #294, .T. ) ;
#164 = CARTESIAN_POINT ( 'NONE',  ( 1.326762908760390423E-13, -4.653657836759941941E-15, 38.00000000000000000 ) ) ;
#165 = CARTESIAN_POINT ( 'NONE',  ( 2.793185071074506684E-13, 1.799711739194215445E-32, 80.00000000000000000 ) ) ;
#166 = ORIENTED_EDGE ( 'NONE', *, *, #204, .T. ) ;
#167 = LINE ( 'NONE', #111, #205 ) ;
#168 = VERTEX_POINT ( 'NONE', #72 ) ;
#169 = DIRECTION ( 'NONE',  ( -3.491481338843133355E-15, 1.224646799147353207E-16, -1.000000000000000000 ) ) ;
#170 = DIRECTION ( 'NONE',  ( -4.275831445896958607E-31, -1.000000000000000000, -1.224646799147353207E-16 ) ) ;
#171 = CC_DESIGN_PERSON_AND_ORGANIZATION_ASSIGNMENT ( #253, #38, ( #78 ) ) ;
#172 = APPROVAL_ROLE ( '' ) ;
#173 = CARTESIAN_POINT ( 'NONE',  ( 0.000000000000000000, 0.000000000000000000, 0.000000000000000000 ) ) ;
#174 = AXIS2_PLACEMENT_3D ( 'NONE', #76, #25, #170 ) ;
#175 = DIRECTION ( 'NONE',  ( 0.000000000000000000, 1.000000000000000000, 0.000000000000000000 ) ) ;
#176 = EDGE_CURVE ( 'NONE', #17, #35, #271, .T. ) ;
#177 = DIRECTION ( 'NONE',  ( -3.491481338843133355E-15, 1.224646799147353207E-16, -1.000000000000000000 ) ) ;
#178 =( GEOMETRIC_REPRESENTATION_CONTEXT ( 3 ) GLOBAL_UNCERTAINTY_ASSIGNED_CONTEXT ( ( #255 ) ) GLOBAL_UNIT_ASSIGNED_CONTEXT ( ( #191, #150, #122 ) ) REPRESENTATION_CONTEXT ( 'NONE', 'WORKASPACE' ) );
#179 = LINE ( 'NONE', #181, #270 ) ;
#180 = ADVANCED_BREP_SHAPE_REPRESENTATION ( '372709', ( #288, #75, #7 ), #178 ) ;
#181 = CARTESIAN_POINT ( 'NONE',  ( 1.282749433769086881E-30, 2.999999999999998224, 3.673940397442057896E-16 ) ) ;
#182 = CALENDAR_DATE ( 2023, 31, 3 ) ;
#183 = AXIS2_PLACEMENT_3D ( 'NONE', #259, #247, #222 ) ;
#184 = DIRECTION ( 'NONE',  ( -4.275831445896958607E-31, -1.000000000000000000, -1.224646799147353207E-16 ) ) ;
#185 = EDGE_CURVE ( 'NONE', #47, #235, #217, .T. ) ;
#186 = CARTESIAN_POINT ( 'NONE',  ( 0.000000000000000000, 0.000000000000000000, 0.000000000000000000 ) ) ;
#187 = ORIENTED_EDGE ( 'NONE', *, *, #305, .F. ) ;
#188 = CYLINDRICAL_SURFACE ( 'NONE', #260, 2.999999999999993339 ) ;
#189 = DATE_TIME_ROLE ( 'classification_date' ) ;
#190 = ORIENTED_EDGE ( 'NONE', *, *, #84, .T. ) ;
#191 =( LENGTH_UNIT ( ) NAMED_UNIT ( * ) SI_UNIT ( .MILLI., .METRE. ) );
#192 = CLOSED_SHELL ( 'NONE', ( #87, #280, #154, #256, #99, #293 ) ) ;
#193 = SECURITY_CLASSIFICATION ( '', '', #286 ) ;
#194 = EDGE_CURVE ( 'NONE', #89, #216, #179, .T. ) ;
#195 = ORIENTED_EDGE ( 'NONE', *, *, #138, .T. ) ;
#196 = PERSON_AND_ORGANIZATION ( #136, #94 ) ;
#197 = ADVANCED_FACE ( 'NONE', ( #251 ), #54, .T. ) ;
#198 = EDGE_LOOP ( 'NONE', ( #159, #36 ) ) ;
#199 = ORIENTED_EDGE ( 'NONE', *, *, #163, .F. ) ;
#200 = DIRECTION ( 'NONE',  ( -2.468850131082272838E-15, 0.7071067811865453523, -0.7071067811865496822 ) ) ;
#201 = CONICAL_SURFACE ( 'NONE', #142, 2.400000000000001688, 0.7853981633974450594 ) ;
#202 = CC_DESIGN_APPROVAL ( #104, ( #78 ) ) ;
#203 = DIRECTION ( 'NONE',  ( 1.000000000000000000, 0.000000000000000000, 0.000000000000000000 ) ) ;
#204 = EDGE_CURVE ( 'NONE', #308, #168, #211, .T. ) ;
#205 = VECTOR ( 'NONE', #200, 1000.000000000000000 ) ;
#206 = CIRCLE ( 'NONE', #114, 3.000000000000000888 ) ;
#207 = EDGE_CURVE ( 'NONE', #235, #47, #108, .T. ) ;
#208 = ORIENTED_EDGE ( 'NONE', *, *, #194, .F. ) ;
#209 = LINE ( 'NONE', #55, #147 ) ;
#210 = ORIENTED_EDGE ( 'NONE', *, *, #248, .F. ) ;
#211 = CIRCLE ( 'NONE', #267, 2.400000000000001688 ) ;
#212 = DATE_AND_TIME ( #297, #151 ) ;
#213 = EDGE_LOOP ( 'NONE', ( #67, #16 ) ) ;
#214 = APPROVAL_DATE_TIME ( #135, #257 ) ;
#215 = ADVANCED_FACE ( 'NONE', ( #300 ), #188, .T. ) ;
#216 = VERTEX_POINT ( 'NONE', #304 ) ;
#217 = CIRCLE ( 'NONE', #59, 2.999999999999995559 ) ;
#218 = CARTESIAN_POINT ( 'NONE',  ( 1.326762908760390423E-13, 2.999999999999991118, 38.00000000000000000 ) ) ;
#219 = DIRECTION ( 'NONE',  ( 0.000000000000000000, 1.000000000000000000, 0.000000000000000000 ) ) ;
#220 = COORDINATED_UNIVERSAL_TIME_OFFSET ( 1, 0, .AHEAD. ) ;
#221 = VERTEX_POINT ( 'NONE', #56 ) ;
#222 = DIRECTION ( 'NONE',  ( 4.275831445896958607E-31, 1.000000000000000000, 1.224646799147353207E-16 ) ) ;
#223 = ADVANCED_FACE ( 'NONE', ( #157 ), #290, .F. ) ;
#224 = LOCAL_TIME ( 8, 31, 52.00000000000000000, #298 ) ;
#225 = CARTESIAN_POINT ( 'NONE',  ( -1.710332656378656636E-30, 5.999039404304306745E-32, -4.898587420047210426E-16 ) ) ;
#226 = EDGE_CURVE ( 'NONE', #266, #221, #37, .T. ) ;
#227 = CARTESIAN_POINT ( 'NONE',  ( 6.670553947776370133E-14, -2.999999999999990674, -8.572527817491587080E-16 ) ) ;
#228 = CARTESIAN_POINT ( 'NONE',  ( 1.326762908760390423E-13, -4.653657836759941941E-15, 38.00000000000000000 ) ) ;
#229 = LOCAL_TIME ( 8, 31, 52.00000000000000000, #153 ) ;
#230 = FACE_OUTER_BOUND ( 'NONE', #106, .T. ) ;
#231 = VECTOR ( 'NONE', #124, 1000.000000000000000 ) ;
#232 = PERSON_AND_ORGANIZATION ( #136, #94 ) ;
#233 = CIRCLE ( 'NONE', #242, 2.400000000000001688 ) ;
#234 = DATE_AND_TIME ( #6, #224 ) ;
#235 = VERTEX_POINT ( 'NONE', #71 ) ;
#236 = DIRECTION ( 'NONE',  ( -3.491481338843133355E-15, 1.224646799147353207E-16, -1.000000000000000000 ) ) ;
#237 = DIRECTION ( 'NONE',  ( -3.491481338843133355E-15, 1.224646799147353207E-16, -1.000000000000000000 ) ) ;
#238 = CARTESIAN_POINT ( 'NONE',  ( 2.793185071074506684E-13, -9.797174393178826052E-15, 80.00000000000000000 ) ) ;
#239 = FACE_OUTER_BOUND ( 'NONE', #284, .T. ) ;
#240 = DIRECTION ( 'NONE',  ( -3.491481338843133355E-15, 1.224646799147353207E-16, -1.000000000000000000 ) ) ;
#241 = DIRECTION ( 'NONE',  ( -3.491481338843133355E-15, 1.224646799147353207E-16, -1.000000000000000000 ) ) ;
#242 = AXIS2_PLACEMENT_3D ( 'NONE', #69, #21, #42 ) ;
#243 = CARTESIAN_POINT ( 'NONE',  ( 1.326762908760390423E-13, -4.653657836759941941E-15, 38.00000000000000000 ) ) ;
#244 = ORIENTED_EDGE ( 'NONE', *, *, #226, .F. ) ;
#245 = PERSON_AND_ORGANIZATION_ROLE ( 'design_owner' ) ;
#246 = AXIS2_PLACEMENT_3D ( 'NONE', #278, #5, #14 ) ;
#247 = DIRECTION ( 'NONE',  ( -3.491481338843133355E-15, 1.224646799147353207E-16, -1.000000000000000000 ) ) ;
#248 = EDGE_CURVE ( 'NONE', #221, #266, #295, .T. ) ;
#249 = APPROVAL ( #70, 'UNSPECIFIED' ) ;
#250 = AXIS2_PLACEMENT_3D ( 'NONE', #77, #105, #50 ) ;
#251 = FACE_OUTER_BOUND ( 'NONE', #198, .T. ) ;
#252 = ORIENTED_EDGE ( 'NONE', *, *, #158, .T. ) ;
#253 = PERSON_AND_ORGANIZATION ( #136, #94 ) ;
#254 = CIRCLE ( 'NONE', #24, 3.000000000000000888 ) ;
#255 = UNCERTAINTY_MEASURE_WITH_UNIT (LENGTH_MEASURE( 1.000000000000000082E-05 ), #191, 'distance_accuracy_value', 'NONE');
#256 = ADVANCED_FACE ( 'NONE', ( #19 ), #97, .T. ) ;
#257 = APPROVAL ( #58, 'UNSPECIFIED' ) ;
#258 = APPLICATION_CONTEXT ( 'configuration controlled 3d designs of mechanical parts and assemblies' ) ;
#259 = CARTESIAN_POINT ( 'NONE',  ( -1.710332656378656636E-30, 5.999039404304306745E-32, -4.898587420047210426E-16 ) ) ;
#260 = AXIS2_PLACEMENT_3D ( 'NONE', #57, #236, #9 ) ;
#261 = EDGE_CURVE ( 'NONE', #168, #308, #233, .T. ) ;
#262 = FACE_OUTER_BOUND ( 'NONE', #263, .T. ) ;
#263 = EDGE_LOOP ( 'NONE', ( #166, #90, #92, #187 ) ) ;
#264 = DIRECTION ( 'NONE',  ( -3.491481338843133355E-15, 1.224646799147353207E-16, -1.000000000000000000 ) ) ;
#265 = ORIENTED_EDGE ( 'NONE', *, *, #163, .T. ) ;
#266 = VERTEX_POINT ( 'NONE', #227 ) ;
#267 = AXIS2_PLACEMENT_3D ( 'NONE', #238, #65, #219 ) ;
#268 = CARTESIAN_POINT ( 'NONE',  ( 2.053173486298360640E-13, -3.000000000000000444, 38.00000000000000000 ) ) ;
#269 = DIRECTION ( 'NONE',  ( 4.275831445896958607E-31, 1.000000000000000000, 1.224646799147353207E-16 ) ) ;
#270 = VECTOR ( 'NONE', #276, 1000.000000000000000 ) ;
#271 = LINE ( 'NONE', #22, #231 ) ;
#272 = ADVANCED_FACE ( 'NONE', ( #239 ), #123, .T. ) ;
#273 = AXIS2_PLACEMENT_3D ( 'NONE', #110, #64, #184 ) ;
#274 = DIRECTION ( 'NONE',  ( 0.000000000000000000, 1.000000000000000000, 0.000000000000000000 ) ) ;
#275 = CC_DESIGN_APPROVAL ( #249, ( #112 ) ) ;
#276 = DIRECTION ( 'NONE',  ( -3.491481338843133355E-15, 1.224646799147353207E-16, -1.000000000000000000 ) ) ;
#277 = CC_DESIGN_DATE_AND_TIME_ASSIGNMENT ( #291, #189, ( #193 ) ) ;
#278 = CARTESIAN_POINT ( 'NONE',  ( 1.326762908760390423E-13, 2.249639673992776285E-32, 38.00000000000000000 ) ) ;
#279 = DATE_AND_TIME ( #182, #229 ) ;
#280 = ADVANCED_FACE ( 'NONE', ( #34 ), #66, .T. ) ;
#281 = CLOSED_SHELL ( 'NONE', ( #215, #223, #272, #197 ) ) ;
#282 = ORIENTED_EDGE ( 'NONE', *, *, #261, .F. ) ;
#283 = DIRECTION ( 'NONE',  ( -3.491481338843133355E-15, 1.224646799147353207E-16, -1.000000000000000000 ) ) ;
#284 = EDGE_LOOP ( 'NONE', ( #199, #162, #143, #244 ) ) ;
#285 = CONICAL_SURFACE ( 'NONE', #250, 2.400000000000001688, 0.7853981633974450594 ) ;
#286 = SECURITY_CLASSIFICATION_LEVEL ( 'unclassified' ) ;
#287 = ORIENTED_EDGE ( 'NONE', *, *, #138, .F. ) ;
#288 = MANIFOLD_SOLID_BREP ( 'Corps-Déplacer/Copier1[1]', #192 ) ;
#289 = EDGE_LOOP ( 'NONE', ( #156, #282 ) ) ;
#290 = PLANE ( 'NONE',  #273 ) ;
#291 = DATE_AND_TIME ( #61, #134 ) ;
#292 = EDGE_LOOP ( 'NONE', ( #190, #85, #63, #208 ) ) ;
#293 = ADVANCED_FACE ( 'NONE', ( #10 ), #115, .F. ) ;
#294 = LINE ( 'NONE', #44, #41 ) ;
#295 = CIRCLE ( 'NONE', #103, 2.999999999999990674 ) ;
#296 = MECHANICAL_CONTEXT ( 'NONE', #258, 'mechanical' ) ;
#297 = CALENDAR_DATE ( 2023, 31, 3 ) ;
#298 = COORDINATED_UNIVERSAL_TIME_OFFSET ( 1, 0, .AHEAD. ) ;
#299 = CC_DESIGN_PERSON_AND_ORGANIZATION_ASSIGNMENT ( #131, #133, ( #112 ) ) ;
#300 = FACE_OUTER_BOUND ( 'NONE', #144, .T. ) ;
#301 = PERSON_AND_ORGANIZATION ( #136, #94 ) ;
#302 = ORIENTED_EDGE ( 'NONE', *, *, #194, .T. ) ;
#303 = CARTESIAN_POINT ( 'NONE',  ( 2.053173486298359882E-13, -3.000000000000010658, 79.39999999999999147 ) ) ;
#304 = CARTESIAN_POINT ( 'NONE',  ( 1.326762908760390423E-13, 2.999999999999991118, 38.00000000000000000 ) ) ;
#305 = EDGE_CURVE ( 'NONE', #308, #89, #167, .T. ) ;
#306 = ORIENTED_EDGE ( 'NONE', *, *, #176, .F. ) ;
#307 = CALENDAR_DATE ( 2023, 31, 3 ) ;
#308 = VERTEX_POINT ( 'NONE', #145 ) ;
#309 = DIRECTION ( 'NONE',  ( -3.491481338843133355E-15, 1.224646799147353207E-16, -1.000000000000000000 ) ) ;
#310 = AXIS2_PLACEMENT_3D ( 'NONE', #140, #241, #31 ) ;
#311 = DIRECTION ( 'NONE',  ( -3.491481338843133355E-15, 1.224646799147353207E-16, -1.000000000000000000 ) ) ;
#312 = DIRECTION ( 'NONE',  ( -3.491481338843133355E-15, 1.224646799147353207E-16, -1.000000000000000000 ) ) ;
#313 = AXIS2_PLACEMENT_3D ( 'NONE', #173, #309, #93 ) ;
ENDSEC;
END-ISO-10303-21;
