ISO-10303-21;
HEADER;
FILE_DESCRIPTION (( 'STEP AP203' ),
    '1' );
FILE_NAME ('372708.step',
    '2023-03-31T06:31:52',
    ( '' ),
    ( '' ),
    'SwSTEP 2.0',
    'SolidWorks 2022',
    '' );
FILE_SCHEMA (( 'CONFIG_CONTROL_DESIGN' ));
ENDSEC;

DATA;
#1 = VERTEX_POINT ( 'NONE', #229 ) ;
#2 = PERSON_AND_ORGANIZATION ( #208, #240 ) ;
#3 = CC_DESIGN_PERSON_AND_ORGANIZATION_ASSIGNMENT ( #151, #34, ( #203 ) ) ;
#4 = PERSON_AND_ORGANIZATION ( #208, #240 ) ;
#5 = DATE_AND_TIME ( #64, #24 ) ;
#6 = CARTESIAN_POINT ( 'NONE',  ( 3.673940397442045077E-16, -2.999999999999998224, -3.673940397442070222E-16 ) ) ;
#7 = AXIS2_PLACEMENT_3D ( 'NONE', #57, #124, #9 ) ;
#8 = ORIENTED_EDGE ( 'NONE', *, *, #294, .T. ) ;
#9 = DIRECTION ( 'NONE',  ( 4.275831445896958607E-31, 1.000000000000000000, 1.224646799147353207E-16 ) ) ;
#10 = DIRECTION ( 'NONE',  ( -3.491481338843133355E-15, 1.224646799147353207E-16, -1.000000000000000000 ) ) ;
#11 = APPLICATION_CONTEXT ( 'configuration controlled 3d designs of mechanical parts and assemblies' ) ;
#12 = LOCAL_TIME ( 8, 31, 52.00000000000000000, #233 ) ;
#13 = LINE ( 'NONE', #38, #23 ) ;
#14 = APPROVAL_STATUS ( 'not_yet_approved' ) ;
#15 =( NAMED_UNIT ( * ) SI_UNIT ( $, .STERADIAN. ) SOLID_ANGLE_UNIT ( ) );
#16 = LINE ( 'NONE', #180, #91 ) ;
#17 = DIRECTION ( 'NONE',  ( 0.000000000000000000, 1.000000000000000000, 0.000000000000000000 ) ) ;
#18 = SHAPE_DEFINITION_REPRESENTATION ( #222, #291 ) ;
#19 = CARTESIAN_POINT ( 'NONE',  ( 1.047444401652940007E-13, -3.673940397442059178E-15, 30.00000000000000000 ) ) ;
#20 = DIRECTION ( 'NONE',  ( 0.000000000000000000, 1.000000000000000000, 0.000000000000000000 ) ) ;
#21 = DIRECTION ( 'NONE',  ( 4.275831445896958607E-31, 1.000000000000000000, 1.224646799147353207E-16 ) ) ;
#22 = DIRECTION ( 'NONE',  ( -3.491481338843133355E-15, 1.224646799147353207E-16, -1.000000000000000000 ) ) ;
#23 = VECTOR ( 'NONE', #187, 1000.000000000000114 ) ;
#24 = LOCAL_TIME ( 8, 31, 52.00000000000000000, #202 ) ;
#25 = DIRECTION ( 'NONE',  ( 0.000000000000000000, 1.000000000000000000, 0.000000000000000000 ) ) ;
#26 = MECHANICAL_CONTEXT ( 'NONE', #11, 'mechanical' ) ;
#27 = EDGE_CURVE ( 'NONE', #296, #121, #13, .T. ) ;
#28 = CIRCLE ( 'NONE', #117, 2.400000000000001688 ) ;
#29 = VERTEX_POINT ( 'NONE', #126 ) ;
#30 = CARTESIAN_POINT ( 'NONE',  ( 2.444036937190193601E-13, 1.799711739194217087E-32, 70.00000000000000000 ) ) ;
#31 = FACE_OUTER_BOUND ( 'NONE', #65, .T. ) ;
#32 = CYLINDRICAL_SURFACE ( 'NONE', #40, 2.999999999999998224 ) ;
#33 = CARTESIAN_POINT ( 'NONE',  ( 1.047444401652940007E-13, -3.673940397442059178E-15, 30.00000000000000000 ) ) ;
#34 = PERSON_AND_ORGANIZATION_ROLE ( 'design_supplier' ) ;
#35 = EDGE_CURVE ( 'NONE', #29, #204, #201, .T. ) ;
#36 =( NAMED_UNIT ( * ) PLANE_ANGLE_UNIT ( ) SI_UNIT ( $, .RADIAN. ) );
#37 = DIRECTION ( 'NONE',  ( -3.491481338843133355E-15, 1.224646799147353207E-16, -1.000000000000000000 ) ) ;
#38 = CARTESIAN_POINT ( 'NONE',  ( 2.444036937190193601E-13, 2.399999999999992806, 70.00000000000000000 ) ) ;
#39 = PERSON_AND_ORGANIZATION ( #208, #240 ) ;
#40 = AXIS2_PLACEMENT_3D ( 'NONE', #135, #112, #266 ) ;
#41 = EDGE_LOOP ( 'NONE', ( #176, #205 ) ) ;
#42 = CLOSED_SHELL ( 'NONE', ( #313, #149, #79, #50 ) ) ;
#43 = AXIS2_PLACEMENT_3D ( 'NONE', #70, #46, #265 ) ;
#44 = DIRECTION ( 'NONE',  ( -3.491481338843133355E-15, 1.224646799147353207E-16, -1.000000000000000000 ) ) ;
#45 = FACE_OUTER_BOUND ( 'NONE', #41, .T. ) ;
#46 = DIRECTION ( 'NONE',  ( -3.491481338843133355E-15, 1.224646799147353207E-16, -1.000000000000000000 ) ) ;
#47 = AXIS2_PLACEMENT_3D ( 'NONE', #207, #63, #237 ) ;
#48 = CONICAL_SURFACE ( 'NONE', #114, 2.400000000000001688, 0.7853981633974453924 ) ;
#49 = ORIENTED_EDGE ( 'NONE', *, *, #35, .T. ) ;
#50 = ADVANCED_FACE ( 'NONE', ( #232 ), #260, .T. ) ;
#51 = DATE_AND_TIME ( #197, #264 ) ;
#52 = CARTESIAN_POINT ( 'NONE',  ( 2.423088049157134675E-13, 2.999999999999992895, 69.40000000000000568 ) ) ;
#53 = CIRCLE ( 'NONE', #271, 3.000000000000001332 ) ;
#54 = CYLINDRICAL_SURFACE ( 'NONE', #220, 2.999999999999992895 ) ;
#55 = FACE_OUTER_BOUND ( 'NONE', #150, .T. ) ;
#56 = ORIENTED_EDGE ( 'NONE', *, *, #308, .T. ) ;
#57 = CARTESIAN_POINT ( 'NONE',  ( -1.710321079297537539E-30, 5.998998797370000203E-32, -4.898554261969033220E-16 ) ) ;
#58 = APPROVAL ( #14, 'UNSPECIFIED' ) ;
#59 = DIRECTION ( 'NONE',  ( 3.491481338843133355E-15, -1.224646799147353207E-16, 1.000000000000000000 ) ) ;
#60 = ORIENTED_EDGE ( 'NONE', *, *, #90, .F. ) ;
#61 = PERSON_AND_ORGANIZATION_ROLE ( 'creator' ) ;
#62 = DIRECTION ( 'NONE',  ( -4.275831445896958607E-31, -1.000000000000000000, -1.224646799147353207E-16 ) ) ;
#63 = DIRECTION ( 'NONE',  ( 3.491481338843133355E-15, -1.224646799147353207E-16, 1.000000000000000000 ) ) ;
#64 = CALENDAR_DATE ( 2023, 31, 3 ) ;
#65 = EDGE_LOOP ( 'NONE', ( #301, #80, #118, #209 ) ) ;
#66 = APPROVAL_PERSON_ORGANIZATION ( #160, #58, #67 ) ;
#67 = APPROVAL_ROLE ( '' ) ;
#68 = DIRECTION ( 'NONE',  ( -3.491481338843133355E-15, 1.224646799147353207E-16, -1.000000000000000000 ) ) ;
#69 = CARTESIAN_POINT ( 'NONE',  ( 2.423088049157134675E-13, -8.499048786082631273E-15, 69.40000000000000568 ) ) ;
#70 = CARTESIAN_POINT ( 'NONE',  ( 0.000000000000000000, 0.000000000000000000, 0.000000000000000000 ) ) ;
#71 = VECTOR ( 'NONE', #168, 1000.000000000000000 ) ;
#72 = PRODUCT_DEFINITION ( 'UNKNOWN', '', #203, #253 ) ;
#73 = CARTESIAN_POINT ( 'NONE',  ( -8.551605396487687697E-31, 2.999499398685000102E-32, -2.449277130984516610E-16 ) ) ;
#74 = DIRECTION ( 'NONE',  ( -3.491481338843133355E-15, 1.224646799147353207E-16, -1.000000000000000000 ) ) ;
#75 = DIRECTION ( 'NONE',  ( 1.000000000000000000, 0.000000000000000000, 0.000000000000000000 ) ) ;
#76 = CIRCLE ( 'NONE', #306, 2.999999999999994671 ) ;
#77 = PRODUCT ( '372708', '372708', '', ( #26 ) ) ;
#78 = CC_DESIGN_DATE_AND_TIME_ASSIGNMENT ( #258, #186, ( #87 ) ) ;
#79 = ADVANCED_FACE ( 'NONE', ( #280 ), #212, .T. ) ;
#80 = ORIENTED_EDGE ( 'NONE', *, *, #145, .T. ) ;
#81 = CONICAL_SURFACE ( 'NONE', #225, 2.400000000000001688, 0.7853981633974453924 ) ;
#82 = ORIENTED_EDGE ( 'NONE', *, *, #206, .F. ) ;
#83 = ORIENTED_EDGE ( 'NONE', *, *, #251, .F. ) ;
#84 = DIRECTION ( 'NONE',  ( -3.491481338843133355E-15, 1.224646799147353207E-16, -1.000000000000000000 ) ) ;
#85 = DIRECTION ( 'NONE',  ( -3.491481338843133355E-15, 1.224646799147353207E-16, -1.000000000000000000 ) ) ;
#86 = APPROVAL_PERSON_ORGANIZATION ( #39, #184, #129 ) ;
#87 = SECURITY_CLASSIFICATION ( '', '', #262 ) ;
#88 = DIRECTION ( 'NONE',  ( -3.491481338843133355E-15, 1.224646799147353207E-16, -1.000000000000000000 ) ) ;
#89 = DIRECTION ( 'NONE',  ( -3.491481338843133355E-15, 1.224646799147353207E-16, -1.000000000000000000 ) ) ;
#90 = EDGE_CURVE ( 'NONE', #281, #223, #305, .T. ) ;
#91 = VECTOR ( 'NONE', #159, 1000.000000000000000 ) ;
#92 = CARTESIAN_POINT ( 'NONE',  ( 5.273961412239118684E-14, -2.999999999999990674, -8.572494659412921766E-16 ) ) ;
#93 = AXIS2_PLACEMENT_3D ( 'NONE', #115, #22, #309 ) ;
#94 = DIRECTION ( 'NONE',  ( 4.275831445896958607E-31, 1.000000000000000000, 1.224646799147353207E-16 ) ) ;
#95 = ORIENTED_EDGE ( 'NONE', *, *, #198, .T. ) ;
#96 = PERSON_AND_ORGANIZATION ( #208, #240 ) ;
#97 = VERTEX_POINT ( 'NONE', #92 ) ;
#98 = DATE_AND_TIME ( #106, #300 ) ;
#99 = CC_DESIGN_APPROVAL ( #58, ( #203 ) ) ;
#100 = ORIENTED_EDGE ( 'NONE', *, *, #193, .F. ) ;
#101 = CARTESIAN_POINT ( 'NONE',  ( 0.000000000000000000, 0.000000000000000000, 0.000000000000000000 ) ) ;
#102 = ADVANCED_FACE ( 'NONE', ( #55 ), #270, .F. ) ;
#103 = FACE_OUTER_BOUND ( 'NONE', #169, .T. ) ;
#104 = VECTOR ( 'NONE', #37, 1000.000000000000000 ) ;
#105 = CARTESIAN_POINT ( 'NONE',  ( 2.444036937190193601E-13, -8.572527594031472993E-15, 70.00000000000000000 ) ) ;
#106 = CALENDAR_DATE ( 2023, 31, 3 ) ;
#107 = FACE_OUTER_BOUND ( 'NONE', #247, .T. ) ;
#108 = CC_DESIGN_PERSON_AND_ORGANIZATION_ASSIGNMENT ( #96, #307, ( #72 ) ) ;
#109 = CARTESIAN_POINT ( 'NONE',  ( 1.047444401652940007E-13, 2.999999999999991562, 30.00000000000000000 ) ) ;
#110 = DIRECTION ( 'NONE',  ( -3.491481338843133355E-15, 1.224646799147353207E-16, -1.000000000000000000 ) ) ;
#111 = DIRECTION ( 'NONE',  ( 3.491481338843133355E-15, -1.224646799147353207E-16, 1.000000000000000000 ) ) ;
#112 = DIRECTION ( 'NONE',  ( -3.491481338843133355E-15, 1.224646799147353207E-16, -1.000000000000000000 ) ) ;
#113 = PLANE ( 'NONE',  #194 ) ;
#114 = AXIS2_PLACEMENT_3D ( 'NONE', #122, #84, #25 ) ;
#115 = CARTESIAN_POINT ( 'NONE',  ( 2.423088049157134675E-13, -8.499048786082631273E-15, 69.40000000000000568 ) ) ;
#116 = VERTEX_POINT ( 'NONE', #166 ) ;
#117 = AXIS2_PLACEMENT_3D ( 'NONE', #132, #89, #20 ) ;
#118 = ORIENTED_EDGE ( 'NONE', *, *, #27, .T. ) ;
#119 = EDGE_LOOP ( 'NONE', ( #227, #292, #83, #147 ) ) ;
#120 = CARTESIAN_POINT ( 'NONE',  ( 2.444036937190193601E-13, 2.399999999999992806, 70.00000000000000000 ) ) ;
#121 = VERTEX_POINT ( 'NONE', #52 ) ;
#122 = CARTESIAN_POINT ( 'NONE',  ( 2.444036937190193601E-13, -8.572527594031472993E-15, 70.00000000000000000 ) ) ;
#123 = CALENDAR_DATE ( 2023, 31, 3 ) ;
#124 = DIRECTION ( 'NONE',  ( -3.491481338843133355E-15, 1.224646799147353207E-16, -1.000000000000000000 ) ) ;
#125 = CIRCLE ( 'NONE', #290, 2.400000000000001688 ) ;
#126 = CARTESIAN_POINT ( 'NONE',  ( 1.047444401652940007E-13, 2.999999999999991562, 30.00000000000000000 ) ) ;
#127 = CC_DESIGN_PERSON_AND_ORGANIZATION_ASSIGNMENT ( #213, #61, ( #203 ) ) ;
#128 = PLANE ( 'NONE',  #235 ) ;
#129 = APPROVAL_ROLE ( '' ) ;
#130 = ADVANCED_FACE ( 'NONE', ( #31 ), #48, .T. ) ;
#131 = CIRCLE ( 'NONE', #93, 3.000000000000001332 ) ;
#132 = CARTESIAN_POINT ( 'NONE',  ( 2.444036937190193601E-13, -8.572527594031472993E-15, 70.00000000000000000 ) ) ;
#133 = LINE ( 'NONE', #134, #167 ) ;
#134 = CARTESIAN_POINT ( 'NONE',  ( 2.446976089508147649E-13, -2.400000000000010125, 70.00000000000000000 ) ) ;
#135 = CARTESIAN_POINT ( 'NONE',  ( 0.000000000000000000, 0.000000000000000000, 0.000000000000000000 ) ) ;
#136 = AXIS2_PLACEMENT_3D ( 'NONE', #33, #74, #221 ) ;
#137 = APPROVAL_STATUS ( 'not_yet_approved' ) ;
#138 = EDGE_CURVE ( 'NONE', #116, #121, #131, .T. ) ;
#139 = ORIENTED_EDGE ( 'NONE', *, *, #198, .F. ) ;
#140 = APPROVAL_DATE_TIME ( #51, #302 ) ;
#141 = COORDINATED_UNIVERSAL_TIME_OFFSET ( 1, 0, .AHEAD. ) ;
#142 = AXIS2_PLACEMENT_3D ( 'NONE', #101, #144, #75 ) ;
#143 = MANIFOLD_SOLID_BREP ( 'Corps-Déplacer/Copier1[1]', #154 ) ;
#144 = DIRECTION ( 'NONE',  ( 0.000000000000000000, 0.000000000000000000, 1.000000000000000000 ) ) ;
#145 = EDGE_CURVE ( 'NONE', #1, #296, #28, .T. ) ;
#146 = DIRECTION ( 'NONE',  ( -3.491481338843133355E-15, 1.224646799147353207E-16, -1.000000000000000000 ) ) ;
#147 = ORIENTED_EDGE ( 'NONE', *, *, #250, .F. ) ;
#148 = COORDINATED_UNIVERSAL_TIME_OFFSET ( 1, 0, .AHEAD. ) ;
#149 = ADVANCED_FACE ( 'NONE', ( #45 ), #113, .F. ) ;
#150 = EDGE_LOOP ( 'NONE', ( #171, #183 ) ) ;
#151 = PERSON_AND_ORGANIZATION ( #208, #240 ) ;
#152 = CC_DESIGN_PERSON_AND_ORGANIZATION_ASSIGNMENT ( #4, #196, ( #77 ) ) ;
#153 = CARTESIAN_POINT ( 'NONE',  ( 1.282749433769084429E-30, 2.999999999999992895, 3.673940397442050500E-16 ) ) ;
#154 = CLOSED_SHELL ( 'NONE', ( #268, #173, #242, #276, #130, #102 ) ) ;
#155 = CIRCLE ( 'NONE', #7, 2.999999999999990674 ) ;
#156 = EDGE_LOOP ( 'NONE', ( #293, #303, #246, #178 ) ) ;
#157 = PERSON_AND_ORGANIZATION_ROLE ( 'classification_officer' ) ;
#158 = EDGE_LOOP ( 'NONE', ( #82, #257, #189, #100 ) ) ;
#159 = DIRECTION ( 'NONE',  ( -3.491481338843133355E-15, 1.224646799147353207E-16, -1.000000000000000000 ) ) ;
#160 = PERSON_AND_ORGANIZATION ( #208, #240 ) ;
#161 = LINE ( 'NONE', #241, #279 ) ;
#162 = DIRECTION ( 'NONE',  ( -4.275831445896958607E-31, -1.000000000000000000, -1.224646799147353207E-16 ) ) ;
#163 = DIRECTION ( 'NONE',  ( 0.000000000000000000, 1.000000000000000000, 0.000000000000000000 ) ) ;
#164 = AXIS2_PLACEMENT_3D ( 'NONE', #30, #200, #94 ) ;
#165 = CYLINDRICAL_SURFACE ( 'NONE', #43, 2.999999999999998224 ) ;
#166 = CARTESIAN_POINT ( 'NONE',  ( 1.738940165802478007E-13, -3.000000000000009770, 69.40000000000000568 ) ) ;
#167 = VECTOR ( 'NONE', #312, 1000.000000000000000 ) ;
#168 = DIRECTION ( 'NONE',  ( -3.491481338843133355E-15, 1.224646799147353207E-16, -1.000000000000000000 ) ) ;
#169 = EDGE_LOOP ( 'NONE', ( #211, #8, #139, #185 ) ) ;
#170 = DIRECTION ( 'NONE',  ( 4.275831445896958607E-31, 1.000000000000000000, 1.224646799147352961E-16 ) ) ;
#171 = ORIENTED_EDGE ( 'NONE', *, *, #182, .F. ) ;
#172 = CIRCLE ( 'NONE', #210, 2.999999999999990674 ) ;
#173 = ADVANCED_FACE ( 'NONE', ( #287 ), #165, .T. ) ;
#174 = PERSON_AND_ORGANIZATION ( #208, #240 ) ;
#175 = DIRECTION ( 'NONE',  ( 0.000000000000000000, 1.000000000000000000, 0.000000000000000000 ) ) ;
#176 = ORIENTED_EDGE ( 'NONE', *, *, #251, .T. ) ;
#177 = VERTEX_POINT ( 'NONE', #219 ) ;
#178 = ORIENTED_EDGE ( 'NONE', *, *, #217, .F. ) ;
#179 = LINE ( 'NONE', #6, #71 ) ;
#180 = CARTESIAN_POINT ( 'NONE',  ( 1.282749433769086881E-30, 2.999999999999998224, 3.673940397442057896E-16 ) ) ;
#181 = CC_DESIGN_SECURITY_CLASSIFICATION ( #87, ( #203 ) ) ;
#182 = EDGE_CURVE ( 'NONE', #296, #1, #125, .T. ) ;
#183 = ORIENTED_EDGE ( 'NONE', *, *, #145, .F. ) ;
#184 = APPROVAL ( #282, 'UNSPECIFIED' ) ;
#185 = ORIENTED_EDGE ( 'NONE', *, *, #27, .F. ) ;
#186 = DATE_TIME_ROLE ( 'classification_date' ) ;
#187 = DIRECTION ( 'NONE',  ( -2.468850131082271655E-15, 0.7071067811865455743, -0.7071067811865493491 ) ) ;
#188 = COORDINATED_UNIVERSAL_TIME_OFFSET ( 1, 0, .AHEAD. ) ;
#189 = ORIENTED_EDGE ( 'NONE', *, *, #250, .T. ) ;
#190 = DIRECTION ( 'NONE',  ( -3.491481338843133355E-15, 1.224646799147353207E-16, -1.000000000000000000 ) ) ;
#191 = AXIS2_PLACEMENT_3D ( 'NONE', #283, #10, #17 ) ;
#192 = CC_DESIGN_APPROVAL ( #302, ( #72 ) ) ;
#193 = EDGE_CURVE ( 'NONE', #97, #177, #172, .T. ) ;
#194 = AXIS2_PLACEMENT_3D ( 'NONE', #73, #111, #162 ) ;
#195 = CC_DESIGN_DATE_AND_TIME_ASSIGNMENT ( #5, #256, ( #72 ) ) ;
#196 = PERSON_AND_ORGANIZATION_ROLE ( 'design_owner' ) ;
#197 = CALENDAR_DATE ( 2023, 31, 3 ) ;
#198 = EDGE_CURVE ( 'NONE', #121, #116, #53, .T. ) ;
#199 = ORIENTED_EDGE ( 'NONE', *, *, #224, .F. ) ;
#200 = DIRECTION ( 'NONE',  ( -3.491481338843133355E-15, 1.224646799147353207E-16, -1.000000000000000000 ) ) ;
#201 = CIRCLE ( 'NONE', #191, 2.999999999999994671 ) ;
#202 = COORDINATED_UNIVERSAL_TIME_OFFSET ( 1, 0, .AHEAD. ) ;
#203 = PRODUCT_DEFINITION_FORMATION_WITH_SPECIFIED_SOURCE ( 'ANY', '', #77, .NOT_KNOWN. ) ;
#204 = VERTEX_POINT ( 'NONE', #304 ) ;
#205 = ORIENTED_EDGE ( 'NONE', *, *, #193, .T. ) ;
#206 = EDGE_CURVE ( 'NONE', #223, #97, #161, .T. ) ;
#207 = CARTESIAN_POINT ( 'NONE',  ( 1.047444401652940007E-13, 2.249639673992777380E-32, 30.00000000000000000 ) ) ;
#208 = PERSON ( 'UNSPECIFIED', 'UNSPECIFIED', 'UNSPECIFIED', ('UNSPECIFIED'), ('UNSPECIFIED'), ('UNSPECIFIED') ) ;
#209 = ORIENTED_EDGE ( 'NONE', *, *, #138, .F. ) ;
#210 = AXIS2_PLACEMENT_3D ( 'NONE', #214, #44, #21 ) ;
#211 = ORIENTED_EDGE ( 'NONE', *, *, #182, .T. ) ;
#212 = CYLINDRICAL_SURFACE ( 'NONE', #244, 2.999999999999992895 ) ;
#213 = PERSON_AND_ORGANIZATION ( #208, #240 ) ;
#214 = CARTESIAN_POINT ( 'NONE',  ( -1.710321079297537539E-30, 5.998998797370000203E-32, -4.898554261969033220E-16 ) ) ;
#215 = EDGE_CURVE ( 'NONE', #223, #281, #248, .T. ) ;
#216 = DIRECTION ( 'NONE',  ( -3.491481338843133355E-15, 1.224646799147353207E-16, -1.000000000000000000 ) ) ;
#217 = EDGE_CURVE ( 'NONE', #204, #29, #76, .T. ) ;
#218 = DIRECTION ( 'NONE',  ( 0.000000000000000000, 1.000000000000000000, 0.000000000000000000 ) ) ;
#219 = CARTESIAN_POINT ( 'NONE',  ( -4.275716455284538985E-31, 2.999999999999990674, -1.224613864526984692E-16 ) ) ;
#220 = AXIS2_PLACEMENT_3D ( 'NONE', #272, #245, #170 ) ;
#221 = DIRECTION ( 'NONE',  ( 0.000000000000000000, 1.000000000000000000, 0.000000000000000000 ) ) ;
#222 = PRODUCT_DEFINITION_SHAPE ( 'NONE', 'NONE',  #72 ) ;
#223 = VERTEX_POINT ( 'NONE', #277 ) ;
#224 = EDGE_CURVE ( 'NONE', #121, #29, #16, .T. ) ;
#225 = AXIS2_PLACEMENT_3D ( 'NONE', #105, #190, #299 ) ;
#226 = EDGE_LOOP ( 'NONE', ( #95, #56, #236, #199 ) ) ;
#227 = ORIENTED_EDGE ( 'NONE', *, *, #90, .T. ) ;
#228 =( LENGTH_UNIT ( ) NAMED_UNIT ( * ) SI_UNIT ( .MILLI., .METRE. ) );
#229 = CARTESIAN_POINT ( 'NONE',  ( 2.436869039531362063E-13, -2.400000000000010125, 70.00000000000000000 ) ) ;
#230 = CARTESIAN_POINT ( 'NONE',  ( 1.047444401652940007E-13, -3.673940397442059178E-15, 30.00000000000000000 ) ) ;
#231 = APPLICATION_CONTEXT ( 'configuration controlled 3d designs of mechanical parts and assemblies' ) ;
#232 = FACE_OUTER_BOUND ( 'NONE', #298, .T. ) ;
#233 = COORDINATED_UNIVERSAL_TIME_OFFSET ( 1, 0, .AHEAD. ) ;
#234 = CARTESIAN_POINT ( 'NONE',  ( 1.047444401652940007E-13, 2.249639673992777380E-32, 30.00000000000000000 ) ) ;
#235 = AXIS2_PLACEMENT_3D ( 'NONE', #234, #59, #62 ) ;
#236 = ORIENTED_EDGE ( 'NONE', *, *, #35, .F. ) ;
#237 = DIRECTION ( 'NONE',  ( -4.275831445896958607E-31, -1.000000000000000000, -1.224646799147353207E-16 ) ) ;
#238 = FACE_OUTER_BOUND ( 'NONE', #156, .T. ) ;
#239 = CALENDAR_DATE ( 2023, 31, 3 ) ;
#240 = ORGANIZATION ( 'UNSPECIFIED', 'UNSPECIFIED', '' ) ;
#241 = CARTESIAN_POINT ( 'NONE',  ( 3.673940397442038174E-16, -2.999999999999992895, -3.673940397442062826E-16 ) ) ;
#242 = ADVANCED_FACE ( 'NONE', ( #107 ), #128, .F. ) ;
#243 = CC_DESIGN_PERSON_AND_ORGANIZATION_ASSIGNMENT ( #174, #157, ( #87 ) ) ;
#244 = AXIS2_PLACEMENT_3D ( 'NONE', #278, #146, #255 ) ;
#245 = DIRECTION ( 'NONE',  ( -3.491481338843133355E-15, 1.224646799147353207E-16, -1.000000000000000000 ) ) ;
#246 = ORIENTED_EDGE ( 'NONE', *, *, #224, .T. ) ;
#247 = EDGE_LOOP ( 'NONE', ( #49, #252 ) ) ;
#248 = CIRCLE ( 'NONE', #311, 2.999999999999994671 ) ;
#249 = UNCERTAINTY_MEASURE_WITH_UNIT (LENGTH_MEASURE( 1.000000000000000082E-05 ), #228, 'distance_accuracy_value', 'NONE');
#250 = EDGE_CURVE ( 'NONE', #281, #177, #254, .T. ) ;
#251 = EDGE_CURVE ( 'NONE', #177, #97, #155, .T. ) ;
#252 = ORIENTED_EDGE ( 'NONE', *, *, #217, .T. ) ;
#253 = DESIGN_CONTEXT ( 'detailed design', #231, 'design' ) ;
#254 = LINE ( 'NONE', #153, #104 ) ;
#255 = DIRECTION ( 'NONE',  ( 4.275831445896958607E-31, 1.000000000000000000, 1.224646799147352961E-16 ) ) ;
#256 = DATE_TIME_ROLE ( 'creation_date' ) ;
#257 = ORIENTED_EDGE ( 'NONE', *, *, #215, .T. ) ;
#258 = DATE_AND_TIME ( #123, #285 ) ;
#259 = MANIFOLD_SOLID_BREP ( 'Corps-Déplacer/Copier1[2]', #42 ) ;
#260 = PLANE ( 'NONE',  #47 ) ;
#261 = DATE_AND_TIME ( #239, #12 ) ;
#262 = SECURITY_CLASSIFICATION_LEVEL ( 'unclassified' ) ;
#263 = DIRECTION ( 'NONE',  ( 0.000000000000000000, 1.000000000000000000, 0.000000000000000000 ) ) ;
#264 = LOCAL_TIME ( 8, 31, 52.00000000000000000, #141 ) ;
#265 = DIRECTION ( 'NONE',  ( 4.275831445896958607E-31, 1.000000000000000000, 1.224646799147353454E-16 ) ) ;
#266 = DIRECTION ( 'NONE',  ( 4.275831445896958607E-31, 1.000000000000000000, 1.224646799147353454E-16 ) ) ;
#267 = APPLICATION_PROTOCOL_DEFINITION ( 'international standard', 'config_control_design', 1994, #231 ) ;
#268 = ADVANCED_FACE ( 'NONE', ( #103 ), #81, .T. ) ;
#269 = CC_DESIGN_APPROVAL ( #184, ( #87 ) ) ;
#270 = PLANE ( 'NONE',  #164 ) ;
#271 = AXIS2_PLACEMENT_3D ( 'NONE', #69, #88, #218 ) ;
#272 = CARTESIAN_POINT ( 'NONE',  ( 0.000000000000000000, 0.000000000000000000, 0.000000000000000000 ) ) ;
#273 = APPROVAL_ROLE ( '' ) ;
#274 = APPLICATION_PROTOCOL_DEFINITION ( 'international standard', 'config_control_design', 1994, #11 ) ;
#275 = FACE_OUTER_BOUND ( 'NONE', #119, .T. ) ;
#276 = ADVANCED_FACE ( 'NONE', ( #238 ), #32, .T. ) ;
#277 = CARTESIAN_POINT ( 'NONE',  ( 5.273961412239113635E-14, -2.999999999999998224, 30.00000000000000000 ) ) ;
#278 = CARTESIAN_POINT ( 'NONE',  ( 0.000000000000000000, 0.000000000000000000, 0.000000000000000000 ) ) ;
#279 = VECTOR ( 'NONE', #85, 1000.000000000000000 ) ;
#280 = FACE_OUTER_BOUND ( 'NONE', #158, .T. ) ;
#281 = VERTEX_POINT ( 'NONE', #109 ) ;
#282 = APPROVAL_STATUS ( 'not_yet_approved' ) ;
#283 = CARTESIAN_POINT ( 'NONE',  ( 1.047444401652940007E-13, -3.673940397442059178E-15, 30.00000000000000000 ) ) ;
#284 = ORIENTED_EDGE ( 'NONE', *, *, #215, .F. ) ;
#285 = LOCAL_TIME ( 8, 31, 52.00000000000000000, #188 ) ;
#286 = APPROVAL_DATE_TIME ( #98, #58 ) ;
#287 = FACE_OUTER_BOUND ( 'NONE', #226, .T. ) ;
#288 = PRODUCT_RELATED_PRODUCT_CATEGORY ( 'detail', '', ( #77 ) ) ;
#289 =( GEOMETRIC_REPRESENTATION_CONTEXT ( 3 ) GLOBAL_UNCERTAINTY_ASSIGNED_CONTEXT ( ( #249 ) ) GLOBAL_UNIT_ASSIGNED_CONTEXT ( ( #228, #36, #15 ) ) REPRESENTATION_CONTEXT ( 'NONE', 'WORKASPACE' ) );
#290 = AXIS2_PLACEMENT_3D ( 'NONE', #310, #68, #263 ) ;
#291 = ADVANCED_BREP_SHAPE_REPRESENTATION ( '372708', ( #143, #259, #142 ), #289 ) ;
#292 = ORIENTED_EDGE ( 'NONE', *, *, #206, .T. ) ;
#293 = ORIENTED_EDGE ( 'NONE', *, *, #308, .F. ) ;
#294 = EDGE_CURVE ( 'NONE', #1, #116, #133, .T. ) ;
#295 = APPROVAL_PERSON_ORGANIZATION ( #2, #302, #273 ) ;
#296 = VERTEX_POINT ( 'NONE', #120 ) ;
#297 = APPROVAL_DATE_TIME ( #261, #184 ) ;
#298 = EDGE_LOOP ( 'NONE', ( #60, #284 ) ) ;
#299 = DIRECTION ( 'NONE',  ( 0.000000000000000000, 1.000000000000000000, 0.000000000000000000 ) ) ;
#300 = LOCAL_TIME ( 8, 31, 52.00000000000000000, #148 ) ;
#301 = ORIENTED_EDGE ( 'NONE', *, *, #294, .F. ) ;
#302 = APPROVAL ( #137, 'UNSPECIFIED' ) ;
#303 = ORIENTED_EDGE ( 'NONE', *, *, #138, .T. ) ;
#304 = CARTESIAN_POINT ( 'NONE',  ( 1.738940165802479016E-13, -2.999999999999998224, 30.00000000000000000 ) ) ;
#305 = CIRCLE ( 'NONE', #136, 2.999999999999994671 ) ;
#306 = AXIS2_PLACEMENT_3D ( 'NONE', #230, #110, #175 ) ;
#307 = PERSON_AND_ORGANIZATION_ROLE ( 'creator' ) ;
#308 = EDGE_CURVE ( 'NONE', #116, #204, #179, .T. ) ;
#309 = DIRECTION ( 'NONE',  ( 0.000000000000000000, 1.000000000000000000, 0.000000000000000000 ) ) ;
#310 = CARTESIAN_POINT ( 'NONE',  ( 2.444036937190193601E-13, -8.572527594031472993E-15, 70.00000000000000000 ) ) ;
#311 = AXIS2_PLACEMENT_3D ( 'NONE', #19, #216, #163 ) ;
#312 = DIRECTION ( 'NONE',  ( -2.382254525458723780E-15, -0.7071067811865453523, -0.7071067811865496822 ) ) ;
#313 = ADVANCED_FACE ( 'NONE', ( #275 ), #54, .T. ) ;
ENDSEC;
END-ISO-10303-21;
