ISO-10303-21;
HEADER;
FILE_DESCRIPTION (( 'STEP AP203' ),
    '1' );
FILE_NAME ('372707.step',
    '2023-03-31T06:31:51',
    ( '' ),
    ( '' ),
    'SwSTEP 2.0',
    'SolidWorks 2022',
    '' );
FILE_SCHEMA (( 'CONFIG_CONTROL_DESIGN' ));
ENDSEC;

DATA;
#1 = DIRECTION ( 'NONE',  ( 0.000000000000000000, 1.000000000000000000, 0.000000000000000000 ) ) ;
#2 = EDGE_CURVE ( 'NONE', #297, #173, #91, .T. ) ;
#3 = APPROVAL_DATE_TIME ( #226, #266 ) ;
#4 = ORIENTED_EDGE ( 'NONE', *, *, #264, .F. ) ;
#5 = COORDINATED_UNIVERSAL_TIME_OFFSET ( 1, 0, .AHEAD. ) ;
#6 = ORIENTED_EDGE ( 'NONE', *, *, #264, .T. ) ;
#7 = SECURITY_CLASSIFICATION ( '', '', #177 ) ;
#8 = PERSON_AND_ORGANIZATION ( #32, #49 ) ;
#9 = ORIENTED_EDGE ( 'NONE', *, *, #139, .F. ) ;
#10 = PERSON_AND_ORGANIZATION ( #32, #49 ) ;
#11 = EDGE_LOOP ( 'NONE', ( #118, #293, #254, #29 ) ) ;
#12 = MECHANICAL_CONTEXT ( 'NONE', #206, 'mechanical' ) ;
#13 = ORIENTED_EDGE ( 'NONE', *, *, #152, .T. ) ;
#14 = AXIS2_PLACEMENT_3D ( 'NONE', #42, #159, #309 ) ;
#15 = LOCAL_TIME ( 8, 31, 51.00000000000000000, #150 ) ;
#16 = FACE_OUTER_BOUND ( 'NONE', #197, .T. ) ;
#17 = CYLINDRICAL_SURFACE ( 'NONE', #142, 2.999999999999992450 ) ;
#18 = CARTESIAN_POINT ( 'NONE',  ( -4.275706400411707808E-31, 2.999999999999990674, -1.224610984696948398E-16 ) ) ;
#19 = DIRECTION ( 'NONE',  ( -2.382254525458723780E-15, -0.7071067811865453523, -0.7071067811865496822 ) ) ;
#20 = DIRECTION ( 'NONE',  ( 0.000000000000000000, 1.000000000000000000, 0.000000000000000000 ) ) ;
#21 = CYLINDRICAL_SURFACE ( 'NONE', #43, 2.999999999999996003 ) ;
#22 = AXIS2_PLACEMENT_3D ( 'NONE', #182, #131, #260 ) ;
#23 = CC_DESIGN_PERSON_AND_ORGANIZATION_ASSIGNMENT ( #175, #145, ( #310 ) ) ;
#24 = CARTESIAN_POINT ( 'NONE',  ( 0.000000000000000000, 0.000000000000000000, 0.000000000000000000 ) ) ;
#25 = APPROVAL ( #275, 'UNSPECIFIED' ) ;
#26 = CONICAL_SURFACE ( 'NONE', #156, 2.399999999999999023, 0.7853981633974453924 ) ;
#27 = APPROVAL_ROLE ( '' ) ;
#28 = PERSON_AND_ORGANIZATION_ROLE ( 'creator' ) ;
#29 = ORIENTED_EDGE ( 'NONE', *, *, #312, .F. ) ;
#30 = VERTEX_POINT ( 'NONE', #209 ) ;
#31 = AXIS2_PLACEMENT_3D ( 'NONE', #204, #67, #40 ) ;
#32 = PERSON ( 'UNSPECIFIED', 'UNSPECIFIED', 'UNSPECIFIED', ('UNSPECIFIED'), ('UNSPECIFIED'), ('UNSPECIFIED') ) ;
#33 = PERSON_AND_ORGANIZATION ( #32, #49 ) ;
#34 = PERSON_AND_ORGANIZATION ( #32, #49 ) ;
#35 = VERTEX_POINT ( 'NONE', #234 ) ;
#36 = VERTEX_POINT ( 'NONE', #18 ) ;
#37 = CIRCLE ( 'NONE', #214, 2.999999999999998668 ) ;
#38 = LINE ( 'NONE', #157, #125 ) ;
#39 = DIRECTION ( 'NONE',  ( 3.491481338843133355E-15, -1.224646799147353207E-16, 1.000000000000000000 ) ) ;
#40 = DIRECTION ( 'NONE',  ( 4.275831445896959482E-31, 1.000000000000000000, 1.224646799147353207E-16 ) ) ;
#41 = CONICAL_SURFACE ( 'NONE', #58, 2.399999999999999023, 0.7853981633974453924 ) ;
#42 = CARTESIAN_POINT ( 'NONE',  ( 2.094888803305880013E-13, -7.347880794884118356E-15, 60.00000000000000000 ) ) ;
#43 = AXIS2_PLACEMENT_3D ( 'NONE', #74, #289, #237 ) ;
#44 = DIRECTION ( 'NONE',  ( 0.000000000000000000, 1.000000000000000000, 0.000000000000000000 ) ) ;
#45 = DIRECTION ( 'NONE',  ( -4.275831445896958607E-31, -1.000000000000000000, -1.224646799147353207E-16 ) ) ;
#46 = CC_DESIGN_DATE_AND_TIME_ASSIGNMENT ( #246, #278, ( #7 ) ) ;
#47 = CARTESIAN_POINT ( 'NONE',  ( 7.332110811570580046E-14, 2.999999999999991118, 21.00000000000000000 ) ) ;
#48 = CLOSED_SHELL ( 'NONE', ( #269, #252, #187, #184, #128, #79 ) ) ;
#49 = ORGANIZATION ( 'UNSPECIFIED', 'UNSPECIFIED', '' ) ;
#50 = LINE ( 'NONE', #190, #306 ) ;
#51 = FACE_OUTER_BOUND ( 'NONE', #62, .T. ) ;
#52 = CC_DESIGN_PERSON_AND_ORGANIZATION_ASSIGNMENT ( #33, #28, ( #132 ) ) ;
#53 = COORDINATED_UNIVERSAL_TIME_OFFSET ( 1, 0, .AHEAD. ) ;
#54 = ORIENTED_EDGE ( 'NONE', *, *, #199, .T. ) ;
#55 = DATE_AND_TIME ( #271, #15 ) ;
#56 = APPROVAL_ROLE ( '' ) ;
#57 = ORIENTED_EDGE ( 'NONE', *, *, #308, .F. ) ;
#58 = AXIS2_PLACEMENT_3D ( 'NONE', #258, #285, #20 ) ;
#59 = CALENDAR_DATE ( 2023, 31, 3 ) ;
#60 = EDGE_LOOP ( 'NONE', ( #81, #6, #151, #181 ) ) ;
#61 = EDGE_CURVE ( 'NONE', #30, #245, #38, .T. ) ;
#62 = EDGE_LOOP ( 'NONE', ( #144, #78 ) ) ;
#63 = DIRECTION ( 'NONE',  ( 4.275831445896958607E-31, 1.000000000000000000, 1.224646799147353207E-16 ) ) ;
#64 = PLANE ( 'NONE',  #133 ) ;
#65 = DIRECTION ( 'NONE',  ( -3.491481338843133355E-15, 1.224646799147353207E-16, -1.000000000000000000 ) ) ;
#66 = CARTESIAN_POINT ( 'NONE',  ( 7.332110811570580046E-14, -2.571758278209441661E-15, 21.00000000000000000 ) ) ;
#67 = DIRECTION ( 'NONE',  ( -3.491481338843133355E-15, 1.224646799147353207E-16, -1.000000000000000000 ) ) ;
#68 = AXIS2_PLACEMENT_3D ( 'NONE', #188, #194, #166 ) ;
#69 = DIRECTION ( 'NONE',  ( -3.491481338843133355E-15, 1.224646799147353207E-16, -1.000000000000000000 ) ) ;
#70 =( NAMED_UNIT ( * ) PLANE_ANGLE_UNIT ( ) SI_UNIT ( $, .RADIAN. ) );
#71 = DIRECTION ( 'NONE',  ( 4.275831445896958607E-31, 1.000000000000000000, 1.224646799147353207E-16 ) ) ;
#72 = AXIS2_PLACEMENT_3D ( 'NONE', #73, #238, #267 ) ;
#73 = CARTESIAN_POINT ( 'NONE',  ( 7.332110811570580046E-14, -2.571758278209441661E-15, 21.00000000000000000 ) ) ;
#74 = CARTESIAN_POINT ( 'NONE',  ( 0.000000000000000000, 0.000000000000000000, 0.000000000000000000 ) ) ;
#75 = VERTEX_POINT ( 'NONE', #307 ) ;
#76 = CIRCLE ( 'NONE', #22, 2.999999999999993339 ) ;
#77 = SHAPE_DEFINITION_REPRESENTATION ( #92, #129 ) ;
#78 = ORIENTED_EDGE ( 'NONE', *, *, #302, .T. ) ;
#79 = ADVANCED_FACE ( 'NONE', ( #16 ), #301, .F. ) ;
#80 = CALENDAR_DATE ( 2023, 31, 3 ) ;
#81 = ORIENTED_EDGE ( 'NONE', *, *, #153, .T. ) ;
#82 = APPROVAL_PERSON_ORGANIZATION ( #200, #266, #299 ) ;
#83 = PERSON_AND_ORGANIZATION_ROLE ( 'design_supplier' ) ;
#84 = MANIFOLD_SOLID_BREP ( 'Corps-Déplacer/Copier1[2]', #164 ) ;
#85 = FACE_OUTER_BOUND ( 'NONE', #224, .T. ) ;
#86 = CARTESIAN_POINT ( 'NONE',  ( 1.407249438612380275E-13, -3.000000000000006217, 59.39999999999999147 ) ) ;
#87 = AXIS2_PLACEMENT_3D ( 'NONE', #213, #114, #45 ) ;
#88 = ORIENTED_EDGE ( 'NONE', *, *, #291, .F. ) ;
#89 = CARTESIAN_POINT ( 'NONE',  ( 2.094888803305880013E-13, 1.799711739194217087E-32, 60.00000000000000000 ) ) ;
#90 = EDGE_CURVE ( 'NONE', #36, #119, #248, .T. ) ;
#91 = LINE ( 'NONE', #110, #202 ) ;
#92 = PRODUCT_DEFINITION_SHAPE ( 'NONE', 'NONE',  #132 ) ;
#93 = PRODUCT ( '372707', '372707', '', ( #12 ) ) ;
#94 = CARTESIAN_POINT ( 'NONE',  ( 3.702794809759707412E-14, -2.999999999999996003, 21.00000000000000000 ) ) ;
#95 = CIRCLE ( 'NONE', #250, 2.999999999999993339 ) ;
#96 = APPLICATION_PROTOCOL_DEFINITION ( 'international standard', 'config_control_design', 1994, #206 ) ;
#97 = ORIENTED_EDGE ( 'NONE', *, *, #153, .F. ) ;
#98 = PERSON_AND_ORGANIZATION ( #32, #49 ) ;
#99 = AXIS2_PLACEMENT_3D ( 'NONE', #240, #219, #311 ) ;
#100 = COORDINATED_UNIVERSAL_TIME_OFFSET ( 1, 0, .AHEAD. ) ;
#101 = EDGE_LOOP ( 'NONE', ( #97, #276 ) ) ;
#102 = ORIENTED_EDGE ( 'NONE', *, *, #244, .T. ) ;
#103 = CIRCLE ( 'NONE', #99, 2.999999999999998668 ) ;
#104 = FACE_OUTER_BOUND ( 'NONE', #60, .T. ) ;
#105 = FACE_OUTER_BOUND ( 'NONE', #124, .T. ) ;
#106 = ADVANCED_FACE ( 'NONE', ( #85 ), #17, .T. ) ;
#107 = DIRECTION ( 'NONE',  ( -3.491481338843133355E-15, 1.224646799147353207E-16, -1.000000000000000000 ) ) ;
#108 = APPROVAL ( #243, 'UNSPECIFIED' ) ;
#109 = AXIS2_PLACEMENT_3D ( 'NONE', #180, #107, #154 ) ;
#110 = CARTESIAN_POINT ( 'NONE',  ( 2.097827955623833808E-13, -2.400000000000006128, 60.00000000000000000 ) ) ;
#111 = CARTESIAN_POINT ( 'NONE',  ( 0.000000000000000000, 0.000000000000000000, 0.000000000000000000 ) ) ;
#112 = DIRECTION ( 'NONE',  ( -3.491481338843133355E-15, 1.224646799147353207E-16, -1.000000000000000000 ) ) ;
#113 = CC_DESIGN_APPROVAL ( #266, ( #310 ) ) ;
#114 = DIRECTION ( 'NONE',  ( 3.491481338843133355E-15, -1.224646799147353207E-16, 1.000000000000000000 ) ) ;
#115 = PLANE ( 'NONE',  #87 ) ;
#116 = CC_DESIGN_PERSON_AND_ORGANIZATION_ASSIGNMENT ( #196, #168, ( #7 ) ) ;
#117 = APPROVAL_STATUS ( 'not_yet_approved' ) ;
#118 = ORIENTED_EDGE ( 'NONE', *, *, #147, .T. ) ;
#119 = VERTEX_POINT ( 'NONE', #211 ) ;
#120 = VECTOR ( 'NONE', #208, 1000.000000000000000 ) ;
#121 = CALENDAR_DATE ( 2023, 31, 3 ) ;
#122 = ORIENTED_EDGE ( 'NONE', *, *, #172, .T. ) ;
#123 = PERSON_AND_ORGANIZATION_ROLE ( 'design_owner' ) ;
#124 = EDGE_LOOP ( 'NONE', ( #295, #149, #255, #88 ) ) ;
#125 = VECTOR ( 'NONE', #256, 1000.000000000000000 ) ;
#126 = CIRCLE ( 'NONE', #72, 2.999999999999993339 ) ;
#127 = DIRECTION ( 'NONE',  ( -3.491481338843133355E-15, 1.224646799147353207E-16, -1.000000000000000000 ) ) ;
#128 = ADVANCED_FACE ( 'NONE', ( #105 ), #41, .T. ) ;
#129 = ADVANCED_BREP_SHAPE_REPRESENTATION ( '372707', ( #183, #84, #270 ), #165 ) ;
#130 = LINE ( 'NONE', #233, #120 ) ;
#131 = DIRECTION ( 'NONE',  ( -3.491481338843133355E-15, 1.224646799147353207E-16, -1.000000000000000000 ) ) ;
#132 = PRODUCT_DEFINITION ( 'UNKNOWN', '', #310, #189 ) ;
#133 = AXIS2_PLACEMENT_3D ( 'NONE', #262, #39, #230 ) ;
#134 = LINE ( 'NONE', #303, #257 ) ;
#135 = PLANE ( 'NONE',  #68 ) ;
#136 = CYLINDRICAL_SURFACE ( 'NONE', #261, 2.999999999999992450 ) ;
#137 = CARTESIAN_POINT ( 'NONE',  ( 2.094888803305880013E-13, -7.347880794884118356E-15, 60.00000000000000000 ) ) ;
#138 = DIRECTION ( 'NONE',  ( -3.491481338843133355E-15, 1.224646799147353207E-16, -1.000000000000000000 ) ) ;
#139 = EDGE_CURVE ( 'NONE', #35, #245, #191, .T. ) ;
#140 = LINE ( 'NONE', #162, #287 ) ;
#141 = CALENDAR_DATE ( 2023, 31, 3 ) ;
#142 = AXIS2_PLACEMENT_3D ( 'NONE', #111, #178, #63 ) ;
#143 = LOCAL_TIME ( 8, 31, 51.00000000000000000, #292 ) ;
#144 = ORIENTED_EDGE ( 'NONE', *, *, #90, .T. ) ;
#145 = PERSON_AND_ORGANIZATION_ROLE ( 'creator' ) ;
#146 = ORIENTED_EDGE ( 'NONE', *, *, #308, .T. ) ;
#147 = EDGE_CURVE ( 'NONE', #75, #297, #220, .T. ) ;
#148 = DIRECTION ( 'NONE',  ( 1.000000000000000000, 0.000000000000000000, 0.000000000000000000 ) ) ;
#149 = ORIENTED_EDGE ( 'NONE', *, *, #176, .T. ) ;
#150 = COORDINATED_UNIVERSAL_TIME_OFFSET ( 1, 0, .AHEAD. ) ;
#151 = ORIENTED_EDGE ( 'NONE', *, *, #90, .F. ) ;
#152 = EDGE_CURVE ( 'NONE', #30, #173, #37, .T. ) ;
#153 = EDGE_CURVE ( 'NONE', #174, #251, #76, .T. ) ;
#154 = DIRECTION ( 'NONE',  ( 4.275831445896958607E-31, 1.000000000000000000, 1.224646799147353207E-16 ) ) ;
#155 = AXIS2_PLACEMENT_3D ( 'NONE', #158, #179, #161 ) ;
#156 = AXIS2_PLACEMENT_3D ( 'NONE', #137, #112, #239 ) ;
#157 = CARTESIAN_POINT ( 'NONE',  ( 1.282749433769086006E-30, 2.999999999999996003, 3.673940397442054938E-16 ) ) ;
#158 = CARTESIAN_POINT ( 'NONE',  ( 2.094888803305880013E-13, -7.347880794884118356E-15, 60.00000000000000000 ) ) ;
#159 = DIRECTION ( 'NONE',  ( -3.491481338843133355E-15, 1.224646799147353207E-16, -1.000000000000000000 ) ) ;
#160 = AXIS2_PLACEMENT_3D ( 'NONE', #222, #218, #71 ) ;
#161 = DIRECTION ( 'NONE',  ( 0.000000000000000000, 1.000000000000000000, 0.000000000000000000 ) ) ;
#162 = CARTESIAN_POINT ( 'NONE',  ( 2.094888803305880013E-13, 2.399999999999991473, 60.00000000000000000 ) ) ;
#163 = DIRECTION ( 'NONE',  ( -3.491481338843133355E-15, 1.224646799147353207E-16, -1.000000000000000000 ) ) ;
#164 = CLOSED_SHELL ( 'NONE', ( #207, #235, #106, #212 ) ) ;
#165 =( GEOMETRIC_REPRESENTATION_CONTEXT ( 3 ) GLOBAL_UNCERTAINTY_ASSIGNED_CONTEXT ( ( #247 ) ) GLOBAL_UNIT_ASSIGNED_CONTEXT ( ( #192, #70, #241 ) ) REPRESENTATION_CONTEXT ( 'NONE', 'WORKASPACE' ) );
#166 = DIRECTION ( 'NONE',  ( -4.275831445896958607E-31, -1.000000000000000000, -1.224646799147353207E-16 ) ) ;
#167 = DIRECTION ( 'NONE',  ( -2.468850131082271655E-15, 0.7071067811865455743, -0.7071067811865493491 ) ) ;
#168 = PERSON_AND_ORGANIZATION_ROLE ( 'classification_officer' ) ;
#169 = EDGE_LOOP ( 'NONE', ( #146, #229 ) ) ;
#170 = APPROVAL_PERSON_ORGANIZATION ( #8, #108, #27 ) ;
#171 = APPROVAL_DATE_TIME ( #223, #108 ) ;
#172 = EDGE_CURVE ( 'NONE', #174, #36, #134, .T. ) ;
#173 = VERTEX_POINT ( 'NONE', #86 ) ;
#174 = VERTEX_POINT ( 'NONE', #305 ) ;
#175 = PERSON_AND_ORGANIZATION ( #32, #49 ) ;
#176 = EDGE_CURVE ( 'NONE', #297, #75, #294, .T. ) ;
#177 = SECURITY_CLASSIFICATION_LEVEL ( 'unclassified' ) ;
#178 = DIRECTION ( 'NONE',  ( -3.491481338843133355E-15, 1.224646799147353207E-16, -1.000000000000000000 ) ) ;
#179 = DIRECTION ( 'NONE',  ( -3.491481338843133355E-15, 1.224646799147353207E-16, -1.000000000000000000 ) ) ;
#180 = CARTESIAN_POINT ( 'NONE',  ( -1.710320073810254334E-30, 5.998995270595364895E-32, -4.898551382138996187E-16 ) ) ;
#181 = ORIENTED_EDGE ( 'NONE', *, *, #172, .F. ) ;
#182 = CARTESIAN_POINT ( 'NONE',  ( 7.332110811570580046E-14, -2.571758278209441661E-15, 21.00000000000000000 ) ) ;
#183 = MANIFOLD_SOLID_BREP ( 'Corps-Déplacer/Copier1[1]', #48 ) ;
#184 = ADVANCED_FACE ( 'NONE', ( #236 ), #259, .T. ) ;
#185 = LOCAL_TIME ( 8, 31, 51.00000000000000000, #100 ) ;
#186 = CARTESIAN_POINT ( 'NONE',  ( 0.000000000000000000, 0.000000000000000000, 0.000000000000000000 ) ) ;
#187 = ADVANCED_FACE ( 'NONE', ( #283 ), #64, .F. ) ;
#188 = CARTESIAN_POINT ( 'NONE',  ( -8.551600369051271670E-31, 2.999497635297682448E-32, -2.449275691069498094E-16 ) ) ;
#189 = DESIGN_CONTEXT ( 'detailed design', #231, 'design' ) ;
#190 = CARTESIAN_POINT ( 'NONE',  ( 3.673940397442037681E-16, -2.999999999999992450, -3.673940397442062333E-16 ) ) ;
#191 = CIRCLE ( 'NONE', #277, 2.999999999999993339 ) ;
#192 =( LENGTH_UNIT ( ) NAMED_UNIT ( * ) SI_UNIT ( .MILLI., .METRE. ) );
#193 = CC_DESIGN_PERSON_AND_ORGANIZATION_ASSIGNMENT ( #34, #123, ( #93 ) ) ;
#194 = DIRECTION ( 'NONE',  ( 3.491481338843133355E-15, -1.224646799147353207E-16, 1.000000000000000000 ) ) ;
#195 = ORIENTED_EDGE ( 'NONE', *, *, #61, .F. ) ;
#196 = PERSON_AND_ORGANIZATION ( #32, #49 ) ;
#197 = EDGE_LOOP ( 'NONE', ( #296, #280 ) ) ;
#198 = ORIENTED_EDGE ( 'NONE', *, *, #302, .F. ) ;
#199 = EDGE_CURVE ( 'NONE', #173, #35, #130, .T. ) ;
#200 = PERSON_AND_ORGANIZATION ( #32, #49 ) ;
#201 = ORIENTED_EDGE ( 'NONE', *, *, #199, .F. ) ;
#202 = VECTOR ( 'NONE', #19, 1000.000000000000000 ) ;
#203 = APPROVAL_PERSON_ORGANIZATION ( #98, #25, #56 ) ;
#204 = CARTESIAN_POINT ( 'NONE',  ( 0.000000000000000000, 0.000000000000000000, 0.000000000000000000 ) ) ;
#205 = DIRECTION ( 'NONE',  ( 0.000000000000000000, 1.000000000000000000, 0.000000000000000000 ) ) ;
#206 = APPLICATION_CONTEXT ( 'configuration controlled 3d designs of mechanical parts and assemblies' ) ;
#207 = ADVANCED_FACE ( 'NONE', ( #104 ), #136, .T. ) ;
#208 = DIRECTION ( 'NONE',  ( -3.491481338843133355E-15, 1.224646799147353207E-16, -1.000000000000000000 ) ) ;
#209 = CARTESIAN_POINT ( 'NONE',  ( 2.073939915272820834E-13, 2.999999999999991562, 59.39999999999999147 ) ) ;
#210 = PRODUCT_RELATED_PRODUCT_CATEGORY ( 'detail', '', ( #93 ) ) ;
#211 = CARTESIAN_POINT ( 'NONE',  ( 3.702794809759709305E-14, -2.999999999999990674, -8.572491779582336475E-16 ) ) ;
#212 = ADVANCED_FACE ( 'NONE', ( #268 ), #115, .T. ) ;
#213 = CARTESIAN_POINT ( 'NONE',  ( 7.332110811570580046E-14, 2.249639673992777654E-32, 21.00000000000000000 ) ) ;
#214 = AXIS2_PLACEMENT_3D ( 'NONE', #284, #65, #205 ) ;
#215 = CC_DESIGN_SECURITY_CLASSIFICATION ( #7, ( #310 ) ) ;
#216 = CC_DESIGN_DATE_AND_TIME_ASSIGNMENT ( #55, #273, ( #132 ) ) ;
#217 = CARTESIAN_POINT ( 'NONE',  ( 2.087720905647048222E-13, -2.400000000000006128, 60.00000000000000000 ) ) ;
#218 = DIRECTION ( 'NONE',  ( -3.491481338843133355E-15, 1.224646799147353207E-16, -1.000000000000000000 ) ) ;
#219 = DIRECTION ( 'NONE',  ( -3.491481338843133355E-15, 1.224646799147353207E-16, -1.000000000000000000 ) ) ;
#220 = CIRCLE ( 'NONE', #14, 2.399999999999999023 ) ;
#221 = CC_DESIGN_APPROVAL ( #25, ( #132 ) ) ;
#222 = CARTESIAN_POINT ( 'NONE',  ( -1.710320073810254334E-30, 5.998995270595364895E-32, -4.898551382138996187E-16 ) ) ;
#223 = DATE_AND_TIME ( #59, #185 ) ;
#224 = EDGE_LOOP ( 'NONE', ( #4, #102, #122, #198 ) ) ;
#225 = CC_DESIGN_APPROVAL ( #108, ( #7 ) ) ;
#226 = DATE_AND_TIME ( #121, #279 ) ;
#227 = ORIENTED_EDGE ( 'NONE', *, *, #61, .T. ) ;
#228 = DATE_AND_TIME ( #80, #143 ) ;
#229 = ORIENTED_EDGE ( 'NONE', *, *, #139, .T. ) ;
#230 = DIRECTION ( 'NONE',  ( -4.275831445896958607E-31, -1.000000000000000000, -1.224646799147353207E-16 ) ) ;
#231 = APPLICATION_CONTEXT ( 'configuration controlled 3d designs of mechanical parts and assemblies' ) ;
#232 = DIRECTION ( 'NONE',  ( 4.275831445896958607E-31, 1.000000000000000000, 1.224646799147353207E-16 ) ) ;
#233 = CARTESIAN_POINT ( 'NONE',  ( 3.673940397442042119E-16, -2.999999999999996003, -3.673940397442067264E-16 ) ) ;
#234 = CARTESIAN_POINT ( 'NONE',  ( 1.407249438612381285E-13, -2.999999999999996003, 21.00000000000000000 ) ) ;
#235 = ADVANCED_FACE ( 'NONE', ( #51 ), #135, .F. ) ;
#236 = FACE_OUTER_BOUND ( 'NONE', #281, .T. ) ;
#237 = DIRECTION ( 'NONE',  ( 4.275831445896959482E-31, 1.000000000000000000, 1.224646799147353207E-16 ) ) ;
#238 = DIRECTION ( 'NONE',  ( -3.491481338843133355E-15, 1.224646799147353207E-16, -1.000000000000000000 ) ) ;
#239 = DIRECTION ( 'NONE',  ( 0.000000000000000000, 1.000000000000000000, 0.000000000000000000 ) ) ;
#240 = CARTESIAN_POINT ( 'NONE',  ( 2.073939915272820834E-13, -7.274401986935278213E-15, 59.39999999999999147 ) ) ;
#241 =( NAMED_UNIT ( * ) SI_UNIT ( $, .STERADIAN. ) SOLID_ANGLE_UNIT ( ) );
#242 = CIRCLE ( 'NONE', #160, 2.999999999999990674 ) ;
#243 = APPROVAL_STATUS ( 'not_yet_approved' ) ;
#244 = EDGE_CURVE ( 'NONE', #251, #174, #126, .T. ) ;
#245 = VERTEX_POINT ( 'NONE', #47 ) ;
#246 = DATE_AND_TIME ( #141, #300 ) ;
#247 = UNCERTAINTY_MEASURE_WITH_UNIT (LENGTH_MEASURE( 1.000000000000000082E-05 ), #192, 'distance_accuracy_value', 'NONE');
#248 = CIRCLE ( 'NONE', #109, 2.999999999999990674 ) ;
#249 = APPROVAL_DATE_TIME ( #228, #25 ) ;
#250 = AXIS2_PLACEMENT_3D ( 'NONE', #288, #138, #1 ) ;
#251 = VERTEX_POINT ( 'NONE', #94 ) ;
#252 = ADVANCED_FACE ( 'NONE', ( #265 ), #21, .T. ) ;
#253 = APPLICATION_PROTOCOL_DEFINITION ( 'international standard', 'config_control_design', 1994, #231 ) ;
#254 = ORIENTED_EDGE ( 'NONE', *, *, #152, .F. ) ;
#255 = ORIENTED_EDGE ( 'NONE', *, *, #312, .T. ) ;
#256 = DIRECTION ( 'NONE',  ( -3.491481338843133355E-15, 1.224646799147353207E-16, -1.000000000000000000 ) ) ;
#257 = VECTOR ( 'NONE', #286, 1000.000000000000000 ) ;
#258 = CARTESIAN_POINT ( 'NONE',  ( 2.094888803305880013E-13, -7.347880794884118356E-15, 60.00000000000000000 ) ) ;
#259 = CYLINDRICAL_SURFACE ( 'NONE', #31, 2.999999999999996003 ) ;
#260 = DIRECTION ( 'NONE',  ( 0.000000000000000000, 1.000000000000000000, 0.000000000000000000 ) ) ;
#261 = AXIS2_PLACEMENT_3D ( 'NONE', #24, #69, #313 ) ;
#262 = CARTESIAN_POINT ( 'NONE',  ( 7.332110811570580046E-14, 2.249639673992777654E-32, 21.00000000000000000 ) ) ;
#263 = DIRECTION ( 'NONE',  ( 0.000000000000000000, 0.000000000000000000, 1.000000000000000000 ) ) ;
#264 = EDGE_CURVE ( 'NONE', #251, #119, #50, .T. ) ;
#265 = FACE_OUTER_BOUND ( 'NONE', #272, .T. ) ;
#266 = APPROVAL ( #117, 'UNSPECIFIED' ) ;
#267 = DIRECTION ( 'NONE',  ( 0.000000000000000000, 1.000000000000000000, 0.000000000000000000 ) ) ;
#268 = FACE_OUTER_BOUND ( 'NONE', #101, .T. ) ;
#269 = ADVANCED_FACE ( 'NONE', ( #290 ), #26, .T. ) ;
#270 = AXIS2_PLACEMENT_3D ( 'NONE', #186, #263, #148 ) ;
#271 = CALENDAR_DATE ( 2023, 31, 3 ) ;
#272 = EDGE_LOOP ( 'NONE', ( #13, #54, #57, #195 ) ) ;
#273 = DATE_TIME_ROLE ( 'creation_date' ) ;
#274 = ORIENTED_EDGE ( 'NONE', *, *, #291, .T. ) ;
#275 = APPROVAL_STATUS ( 'not_yet_approved' ) ;
#276 = ORIENTED_EDGE ( 'NONE', *, *, #244, .F. ) ;
#277 = AXIS2_PLACEMENT_3D ( 'NONE', #66, #282, #44 ) ;
#278 = DATE_TIME_ROLE ( 'classification_date' ) ;
#279 = LOCAL_TIME ( 8, 31, 51.00000000000000000, #5 ) ;
#280 = ORIENTED_EDGE ( 'NONE', *, *, #176, .F. ) ;
#281 = EDGE_LOOP ( 'NONE', ( #201, #274, #227, #9 ) ) ;
#282 = DIRECTION ( 'NONE',  ( -3.491481338843133355E-15, 1.224646799147353207E-16, -1.000000000000000000 ) ) ;
#283 = FACE_OUTER_BOUND ( 'NONE', #169, .T. ) ;
#284 = CARTESIAN_POINT ( 'NONE',  ( 2.073939915272820834E-13, -7.274401986935278213E-15, 59.39999999999999147 ) ) ;
#285 = DIRECTION ( 'NONE',  ( -3.491481338843133355E-15, 1.224646799147353207E-16, -1.000000000000000000 ) ) ;
#286 = DIRECTION ( 'NONE',  ( -3.491481338843133355E-15, 1.224646799147353207E-16, -1.000000000000000000 ) ) ;
#287 = VECTOR ( 'NONE', #167, 1000.000000000000114 ) ;
#288 = CARTESIAN_POINT ( 'NONE',  ( 7.332110811570580046E-14, -2.571758278209441661E-15, 21.00000000000000000 ) ) ;
#289 = DIRECTION ( 'NONE',  ( -3.491481338843133355E-15, 1.224646799147353207E-16, -1.000000000000000000 ) ) ;
#290 = FACE_OUTER_BOUND ( 'NONE', #11, .T. ) ;
#291 = EDGE_CURVE ( 'NONE', #173, #30, #103, .T. ) ;
#292 = COORDINATED_UNIVERSAL_TIME_OFFSET ( 1, 0, .AHEAD. ) ;
#293 = ORIENTED_EDGE ( 'NONE', *, *, #2, .T. ) ;
#294 = CIRCLE ( 'NONE', #155, 2.399999999999999023 ) ;
#295 = ORIENTED_EDGE ( 'NONE', *, *, #2, .F. ) ;
#296 = ORIENTED_EDGE ( 'NONE', *, *, #147, .F. ) ;
#297 = VERTEX_POINT ( 'NONE', #217 ) ;
#298 = CC_DESIGN_PERSON_AND_ORGANIZATION_ASSIGNMENT ( #10, #83, ( #310 ) ) ;
#299 = APPROVAL_ROLE ( '' ) ;
#300 = LOCAL_TIME ( 8, 31, 51.00000000000000000, #53 ) ;
#301 = PLANE ( 'NONE',  #304 ) ;
#302 = EDGE_CURVE ( 'NONE', #119, #36, #242, .T. ) ;
#303 = CARTESIAN_POINT ( 'NONE',  ( 1.282749433769084254E-30, 2.999999999999992450, 3.673940397442050007E-16 ) ) ;
#304 = AXIS2_PLACEMENT_3D ( 'NONE', #89, #127, #232 ) ;
#305 = CARTESIAN_POINT ( 'NONE',  ( 7.332110811570580046E-14, 2.999999999999991118, 21.00000000000000000 ) ) ;
#306 = VECTOR ( 'NONE', #163, 1000.000000000000000 ) ;
#307 = CARTESIAN_POINT ( 'NONE',  ( 2.094888803305880013E-13, 2.399999999999991473, 60.00000000000000000 ) ) ;
#308 = EDGE_CURVE ( 'NONE', #245, #35, #95, .T. ) ;
#309 = DIRECTION ( 'NONE',  ( 0.000000000000000000, 1.000000000000000000, 0.000000000000000000 ) ) ;
#310 = PRODUCT_DEFINITION_FORMATION_WITH_SPECIFIED_SOURCE ( 'ANY', '', #93, .NOT_KNOWN. ) ;
#311 = DIRECTION ( 'NONE',  ( 0.000000000000000000, 1.000000000000000000, 0.000000000000000000 ) ) ;
#312 = EDGE_CURVE ( 'NONE', #75, #30, #140, .T. ) ;
#313 = DIRECTION ( 'NONE',  ( 4.275831445896958607E-31, 1.000000000000000000, 1.224646799147353207E-16 ) ) ;
ENDSEC;
END-ISO-10303-21;
