ISO-10303-21;
HEADER;
FILE_DESCRIPTION (( 'STEP AP203' ),
    '1' );
FILE_NAME ('372706.step',
    '2023-03-31T06:31:51',
    ( '' ),
    ( '' ),
    'SwSTEP 2.0',
    'SolidWorks 2022',
    '' );
FILE_SCHEMA (( 'CONFIG_CONTROL_DESIGN' ));
ENDSEC;

DATA;
#1 = DIRECTION ( 'NONE',  ( -3.491481338843133355E-15, 1.224646799147353207E-16, -1.000000000000000000 ) ) ;
#2 = ORIENTED_EDGE ( 'NONE', *, *, #257, .F. ) ;
#3 = EDGE_CURVE ( 'NONE', #174, #4, #47, .T. ) ;
#4 = VERTEX_POINT ( 'NONE', #223 ) ;
#5 = DIRECTION ( 'NONE',  ( 4.275831445896958607E-31, 1.000000000000000000, 1.224646799147353207E-16 ) ) ;
#6 = UNCERTAINTY_MEASURE_WITH_UNIT (LENGTH_MEASURE( 1.000000000000000082E-05 ), #154, 'distance_accuracy_value', 'NONE');
#7 = DIRECTION ( 'NONE',  ( 3.491481338843133355E-15, -1.224646799147353207E-16, 1.000000000000000000 ) ) ;
#8 = CLOSED_SHELL ( 'NONE', ( #212, #206, #81, #279, #210, #94 ) ) ;
#9 = CIRCLE ( 'NONE', #295, 2.400000000000003020 ) ;
#10 = CALENDAR_DATE ( 2023, 31, 3 ) ;
#11 = AXIS2_PLACEMENT_3D ( 'NONE', #138, #263, #34 ) ;
#12 = LINE ( 'NONE', #85, #291 ) ;
#13 = SECURITY_CLASSIFICATION_LEVEL ( 'unclassified' ) ;
#14 = LINE ( 'NONE', #66, #43 ) ;
#15 = FACE_OUTER_BOUND ( 'NONE', #184, .T. ) ;
#16 = EDGE_CURVE ( 'NONE', #100, #127, #297, .T. ) ;
#17 = AXIS2_PLACEMENT_3D ( 'NONE', #102, #126, #5 ) ;
#18 = EDGE_LOOP ( 'NONE', ( #54, #26, #268, #289 ) ) ;
#19 = CARTESIAN_POINT ( 'NONE',  ( 2.446976089508147649E-13, -2.400000000000011458, 70.00000000000000000 ) ) ;
#20 = DIRECTION ( 'NONE',  ( -4.275831445896958607E-31, -1.000000000000000000, -1.224646799147353207E-16 ) ) ;
#21 = ORIENTED_EDGE ( 'NONE', *, *, #185, .F. ) ;
#22 = DIRECTION ( 'NONE',  ( -3.491481338843133355E-15, 1.224646799147353207E-16, -1.000000000000000000 ) ) ;
#23 = APPROVAL_ROLE ( '' ) ;
#24 = LINE ( 'NONE', #19, #162 ) ;
#25 = CIRCLE ( 'NONE', #117, 2.400000000000003020 ) ;
#26 = ORIENTED_EDGE ( 'NONE', *, *, #158, .T. ) ;
#27 = ORIENTED_EDGE ( 'NONE', *, *, #80, .F. ) ;
#28 = CC_DESIGN_DATE_AND_TIME_ASSIGNMENT ( #161, #144, ( #40 ) ) ;
#29 = VERTEX_POINT ( 'NONE', #201 ) ;
#30 = AXIS2_PLACEMENT_3D ( 'NONE', #229, #313, #309 ) ;
#31 = CARTESIAN_POINT ( 'NONE',  ( 1.477079065389241932E-13, -3.000000000000011102, 69.40000000000000568 ) ) ;
#32 = DESIGN_CONTEXT ( 'detailed design', #193, 'design' ) ;
#33 = CARTESIAN_POINT ( 'NONE',  ( 5.237222008264700033E-14, 2.249639673992779022E-32, 15.00000000000000000 ) ) ;
#34 = DIRECTION ( 'NONE',  ( 4.275831445896958607E-31, 1.000000000000000000, 1.224646799147353207E-16 ) ) ;
#35 = PERSON_AND_ORGANIZATION_ROLE ( 'creator' ) ;
#36 = ADVANCED_FACE ( 'NONE', ( #285 ), #165, .F. ) ;
#37 = APPROVAL_DATE_TIME ( #296, #160 ) ;
#38 = PLANE ( 'NONE',  #298 ) ;
#39 = AXIS2_PLACEMENT_3D ( 'NONE', #218, #57, #189 ) ;
#40 = SECURITY_CLASSIFICATION ( '', '', #13 ) ;
#41 = CARTESIAN_POINT ( 'NONE',  ( 1.477079065389243447E-13, -2.999999999999994671, 15.00000000000000000 ) ) ;
#42 = MECHANICAL_CONTEXT ( 'NONE', #179, 'mechanical' ) ;
#43 = VECTOR ( 'NONE', #87, 1000.000000000000000 ) ;
#44 = MANIFOLD_SOLID_BREP ( 'Corps-Déplacer/Copier1[2]', #197 ) ;
#45 = CYLINDRICAL_SURFACE ( 'NONE', #89, 2.999999999999992006 ) ;
#46 = ORIENTED_EDGE ( 'NONE', *, *, #157, .F. ) ;
#47 = LINE ( 'NONE', #216, #130 ) ;
#48 = ORIENTED_EDGE ( 'NONE', *, *, #230, .T. ) ;
#49 = DIRECTION ( 'NONE',  ( -3.491481338843133355E-15, 1.224646799147353207E-16, -1.000000000000000000 ) ) ;
#50 = AXIS2_PLACEMENT_3D ( 'NONE', #274, #93, #242 ) ;
#51 = CC_DESIGN_APPROVAL ( #258, ( #40 ) ) ;
#52 = EDGE_LOOP ( 'NONE', ( #75, #105 ) ) ;
#53 = ORIENTED_EDGE ( 'NONE', *, *, #222, .T. ) ;
#54 = ORIENTED_EDGE ( 'NONE', *, *, #257, .T. ) ;
#55 = ADVANCED_FACE ( 'NONE', ( #15 ), #45, .T. ) ;
#56 = APPROVAL_PERSON_ORGANIZATION ( #243, #195, #23 ) ;
#57 = DIRECTION ( 'NONE',  ( -3.491481338843133355E-15, 1.224646799147353207E-16, -1.000000000000000000 ) ) ;
#58 = VERTEX_POINT ( 'NONE', #123 ) ;
#59 = CONICAL_SURFACE ( 'NONE', #50, 2.400000000000003020, 0.7853981633974453924 ) ;
#60 = LINE ( 'NONE', #82, #227 ) ;
#61 = PERSON_AND_ORGANIZATION ( #272, #183 ) ;
#62 = ADVANCED_FACE ( 'NONE', ( #226 ), #90, .T. ) ;
#63 = DATE_TIME_ROLE ( 'creation_date' ) ;
#64 = PERSON_AND_ORGANIZATION_ROLE ( 'classification_officer' ) ;
#65 = APPROVAL_PERSON_ORGANIZATION ( #311, #258, #118 ) ;
#66 = CARTESIAN_POINT ( 'NONE',  ( 1.282749433769084079E-30, 2.999999999999992006, 3.673940397442049514E-16 ) ) ;
#67 = DIRECTION ( 'NONE',  ( 0.000000000000000000, 1.000000000000000000, 0.000000000000000000 ) ) ;
#68 = DIRECTION ( 'NONE',  ( -3.491481338843133355E-15, 1.224646799147353207E-16, -1.000000000000000000 ) ) ;
#69 = CARTESIAN_POINT ( 'NONE',  ( 0.000000000000000000, 0.000000000000000000, 0.000000000000000000 ) ) ;
#70 = DIRECTION ( 'NONE',  ( 0.000000000000000000, 1.000000000000000000, 0.000000000000000000 ) ) ;
#71 = VERTEX_POINT ( 'NONE', #300 ) ;
#72 = CARTESIAN_POINT ( 'NONE',  ( 0.000000000000000000, 0.000000000000000000, 0.000000000000000000 ) ) ;
#73 = CARTESIAN_POINT ( 'NONE',  ( -8.551594410109907837E-31, 2.999495545182410611E-32, -2.449273984360859108E-16 ) ) ;
#74 = CC_DESIGN_PERSON_AND_ORGANIZATION_ASSIGNMENT ( #61, #35, ( #284 ) ) ;
#75 = ORIENTED_EDGE ( 'NONE', *, *, #157, .T. ) ;
#76 = CC_DESIGN_SECURITY_CLASSIFICATION ( #40, ( #284 ) ) ;
#77 = ORIENTED_EDGE ( 'NONE', *, *, #3, .F. ) ;
#78 = DIRECTION ( 'NONE',  ( -4.275831445896958607E-31, -1.000000000000000000, -1.224646799147353207E-16 ) ) ;
#79 = CIRCLE ( 'NONE', #11, 2.999999999999990674 ) ;
#80 = EDGE_CURVE ( 'NONE', #71, #121, #137, .T. ) ;
#81 = ADVANCED_FACE ( 'NONE', ( #264 ), #38, .F. ) ;
#82 = CARTESIAN_POINT ( 'NONE',  ( 3.673940397442037188E-16, -2.999999999999992006, -3.673940397442061840E-16 ) ) ;
#83 =( GEOMETRIC_REPRESENTATION_CONTEXT ( 3 ) GLOBAL_UNCERTAINTY_ASSIGNED_CONTEXT ( ( #6 ) ) GLOBAL_UNIT_ASSIGNED_CONTEXT ( ( #154, #134, #254 ) ) REPRESENTATION_CONTEXT ( 'NONE', 'WORKASPACE' ) );
#84 = CARTESIAN_POINT ( 'NONE',  ( 2.444036937190193601E-13, 2.399999999999994138, 70.00000000000000000 ) ) ;
#85 = CARTESIAN_POINT ( 'NONE',  ( 3.673940397442044091E-16, -2.999999999999997780, -3.673940397442069729E-16 ) ) ;
#86 = ADVANCED_BREP_SHAPE_REPRESENTATION ( '372706', ( #156, #44, #277 ), #83 ) ;
#87 = DIRECTION ( 'NONE',  ( -3.491481338843133355E-15, 1.224646799147353207E-16, -1.000000000000000000 ) ) ;
#88 = CARTESIAN_POINT ( 'NONE',  ( 5.237222008264700033E-14, -1.836970198721029589E-15, 15.00000000000000000 ) ) ;
#89 = AXIS2_PLACEMENT_3D ( 'NONE', #145, #286, #305 ) ;
#90 = CYLINDRICAL_SURFACE ( 'NONE', #260, 2.999999999999992006 ) ;
#91 = PERSON_AND_ORGANIZATION ( #272, #183 ) ;
#92 = EDGE_LOOP ( 'NONE', ( #132, #107, #175, #180 ) ) ;
#93 = DIRECTION ( 'NONE',  ( -3.491481338843133355E-15, 1.224646799147353207E-16, -1.000000000000000000 ) ) ;
#94 = ADVANCED_FACE ( 'NONE', ( #167 ), #221, .F. ) ;
#95 = EDGE_LOOP ( 'NONE', ( #143, #21 ) ) ;
#96 = FACE_OUTER_BOUND ( 'NONE', #253, .T. ) ;
#97 = DIRECTION ( 'NONE',  ( 1.000000000000000000, 0.000000000000000000, 0.000000000000000000 ) ) ;
#98 = AXIS2_PLACEMENT_3D ( 'NONE', #88, #22, #67 ) ;
#99 = DIRECTION ( 'NONE',  ( -3.491481338843133355E-15, 1.224646799147353207E-16, -1.000000000000000000 ) ) ;
#100 = VERTEX_POINT ( 'NONE', #41 ) ;
#101 = CALENDAR_DATE ( 2023, 31, 3 ) ;
#102 = CARTESIAN_POINT ( 'NONE',  ( -1.710318882021981567E-30, 5.998991090364821221E-32, -4.898547968721718215E-16 ) ) ;
#103 = PLANE ( 'NONE',  #304 ) ;
#104 = CYLINDRICAL_SURFACE ( 'NONE', #176, 2.999999999999997780 ) ;
#105 = ORIENTED_EDGE ( 'NONE', *, *, #202, .T. ) ;
#106 = ORIENTED_EDGE ( 'NONE', *, *, #217, .T. ) ;
#107 = ORIENTED_EDGE ( 'NONE', *, *, #80, .T. ) ;
#108 = DIRECTION ( 'NONE',  ( 3.491481338843133355E-15, -1.224646799147353207E-16, 1.000000000000000000 ) ) ;
#109 = EDGE_CURVE ( 'NONE', #121, #58, #14, .T. ) ;
#110 = PERSON_AND_ORGANIZATION ( #272, #183 ) ;
#111 = DIRECTION ( 'NONE',  ( -3.491481338843133355E-15, 1.224646799147353207E-16, -1.000000000000000000 ) ) ;
#112 = CALENDAR_DATE ( 2023, 31, 3 ) ;
#113 = CALENDAR_DATE ( 2023, 31, 3 ) ;
#114 = PRODUCT_RELATED_PRODUCT_CATEGORY ( 'detail', '', ( #125 ) ) ;
#115 = CARTESIAN_POINT ( 'NONE',  ( 5.237222008264700033E-14, -1.836970198721029589E-15, 15.00000000000000000 ) ) ;
#116 = CARTESIAN_POINT ( 'NONE',  ( 5.237222008264700033E-14, 2.999999999999991562, 15.00000000000000000 ) ) ;
#117 = AXIS2_PLACEMENT_3D ( 'NONE', #252, #99, #70 ) ;
#118 = APPROVAL_ROLE ( '' ) ;
#119 = CARTESIAN_POINT ( 'NONE',  ( 2.444036937190193601E-13, 1.799711739194218455E-32, 70.00000000000000000 ) ) ;
#120 = CARTESIAN_POINT ( 'NONE',  ( 1.282749433769086706E-30, 2.999999999999997780, 3.673940397442057403E-16 ) ) ;
#121 = VERTEX_POINT ( 'NONE', #164 ) ;
#122 = APPROVAL_STATUS ( 'not_yet_approved' ) ;
#123 = CARTESIAN_POINT ( 'NONE',  ( -4.275694482528980143E-31, 2.999999999999990674, -1.224607571279670427E-16 ) ) ;
#124 = EDGE_LOOP ( 'NONE', ( #233, #151, #48, #133 ) ) ;
#125 = PRODUCT ( '372706', '372706', '', ( #42 ) ) ;
#126 = DIRECTION ( 'NONE',  ( -3.491481338843133355E-15, 1.224646799147353207E-16, -1.000000000000000000 ) ) ;
#127 = VERTEX_POINT ( 'NONE', #116 ) ;
#128 = DIRECTION ( 'NONE',  ( -3.491481338843133355E-15, 1.224646799147353207E-16, -1.000000000000000000 ) ) ;
#129 = ORIENTED_EDGE ( 'NONE', *, *, #109, .F. ) ;
#130 = VECTOR ( 'NONE', #302, 1000.000000000000114 ) ;
#131 = AXIS2_PLACEMENT_3D ( 'NONE', #73, #270, #266 ) ;
#132 = ORIENTED_EDGE ( 'NONE', *, *, #153, .F. ) ;
#133 = ORIENTED_EDGE ( 'NONE', *, *, #16, .F. ) ;
#134 =( NAMED_UNIT ( * ) PLANE_ANGLE_UNIT ( ) SI_UNIT ( $, .RADIAN. ) );
#135 = APPROVAL_DATE_TIME ( #148, #258 ) ;
#136 = PERSON_AND_ORGANIZATION ( #272, #183 ) ;
#137 = CIRCLE ( 'NONE', #191, 2.999999999999993339 ) ;
#138 = CARTESIAN_POINT ( 'NONE',  ( -1.710318882021981567E-30, 5.998991090364821221E-32, -4.898547968721718215E-16 ) ) ;
#139 = PERSON_AND_ORGANIZATION_ROLE ( 'design_supplier' ) ;
#140 = DATE_AND_TIME ( #101, #250 ) ;
#141 = DIRECTION ( 'NONE',  ( 4.275831445896958607E-31, 1.000000000000000000, 1.224646799147353207E-16 ) ) ;
#142 = EDGE_CURVE ( 'NONE', #127, #100, #232, .T. ) ;
#143 = ORIENTED_EDGE ( 'NONE', *, *, #222, .F. ) ;
#144 = DATE_TIME_ROLE ( 'classification_date' ) ;
#145 = CARTESIAN_POINT ( 'NONE',  ( 0.000000000000000000, 0.000000000000000000, 0.000000000000000000 ) ) ;
#146 = CALENDAR_DATE ( 2023, 31, 3 ) ;
#147 = DIRECTION ( 'NONE',  ( -3.491481338843133355E-15, 1.224646799147353207E-16, -1.000000000000000000 ) ) ;
#148 = DATE_AND_TIME ( #146, #199 ) ;
#149 = CARTESIAN_POINT ( 'NONE',  ( 2.655350408106768983E-14, -2.999999999999990674, -8.572488366164692669E-16 ) ) ;
#150 = LOCAL_TIME ( 8, 31, 51.00000000000000000, #240 ) ;
#151 = ORIENTED_EDGE ( 'NONE', *, *, #241, .T. ) ;
#152 = EDGE_LOOP ( 'NONE', ( #207, #292, #181, #259 ) ) ;
#153 = EDGE_CURVE ( 'NONE', #71, #224, #60, .T. ) ;
#154 =( LENGTH_UNIT ( ) NAMED_UNIT ( * ) SI_UNIT ( .MILLI., .METRE. ) );
#155 = AXIS2_PLACEMENT_3D ( 'NONE', #251, #128, #220 ) ;
#156 = MANIFOLD_SOLID_BREP ( 'Corps-Déplacer/Copier1[1]', #8 ) ;
#157 = EDGE_CURVE ( 'NONE', #58, #224, #79, .T. ) ;
#158 = EDGE_CURVE ( 'NONE', #287, #100, #12, .T. ) ;
#159 = DIRECTION ( 'NONE',  ( 0.000000000000000000, 1.000000000000000000, 0.000000000000000000 ) ) ;
#160 = APPROVAL ( #262, 'UNSPECIFIED' ) ;
#161 = DATE_AND_TIME ( #113, #150 ) ;
#162 = VECTOR ( 'NONE', #312, 1000.000000000000000 ) ;
#163 = DATE_AND_TIME ( #10, #299 ) ;
#164 = CARTESIAN_POINT ( 'NONE',  ( 5.237222008264700033E-14, 2.999999999999991562, 15.00000000000000000 ) ) ;
#165 = PLANE ( 'NONE',  #131 ) ;
#166 = DIRECTION ( 'NONE',  ( -3.491481338843133355E-15, 1.224646799147353207E-16, -1.000000000000000000 ) ) ;
#167 = FACE_OUTER_BOUND ( 'NONE', #95, .T. ) ;
#168 = DIRECTION ( 'NONE',  ( -3.491481338843133355E-15, 1.224646799147353207E-16, -1.000000000000000000 ) ) ;
#169 = EDGE_LOOP ( 'NONE', ( #53, #106, #2, #77 ) ) ;
#170 = DIRECTION ( 'NONE',  ( 0.000000000000000000, 1.000000000000000000, 0.000000000000000000 ) ) ;
#171 = PERSON_AND_ORGANIZATION_ROLE ( 'design_owner' ) ;
#172 = AXIS2_PLACEMENT_3D ( 'NONE', #187, #1, #182 ) ;
#173 = FACE_OUTER_BOUND ( 'NONE', #169, .T. ) ;
#174 = VERTEX_POINT ( 'NONE', #84 ) ;
#175 = ORIENTED_EDGE ( 'NONE', *, *, #109, .T. ) ;
#176 = AXIS2_PLACEMENT_3D ( 'NONE', #72, #147, #244 ) ;
#177 = APPROVAL_PERSON_ORGANIZATION ( #110, #160, #190 ) ;
#178 = DIRECTION ( 'NONE',  ( -3.491481338843133355E-15, 1.224646799147353207E-16, -1.000000000000000000 ) ) ;
#179 = APPLICATION_CONTEXT ( 'configuration controlled 3d designs of mechanical parts and assemblies' ) ;
#180 = ORIENTED_EDGE ( 'NONE', *, *, #202, .F. ) ;
#181 = ORIENTED_EDGE ( 'NONE', *, *, #3, .T. ) ;
#182 = DIRECTION ( 'NONE',  ( 4.275831445896958607E-31, 1.000000000000000000, 1.224646799147353454E-16 ) ) ;
#183 = ORGANIZATION ( 'UNSPECIFIED', 'UNSPECIFIED', '' ) ;
#184 = EDGE_LOOP ( 'NONE', ( #310, #205, #46, #129 ) ) ;
#185 = EDGE_CURVE ( 'NONE', #29, #174, #9, .T. ) ;
#186 = PERSON_AND_ORGANIZATION_ROLE ( 'creator' ) ;
#187 = CARTESIAN_POINT ( 'NONE',  ( 0.000000000000000000, 0.000000000000000000, 0.000000000000000000 ) ) ;
#188 = SHAPE_DEFINITION_REPRESENTATION ( #256, #86 ) ;
#189 = DIRECTION ( 'NONE',  ( 0.000000000000000000, 1.000000000000000000, 0.000000000000000000 ) ) ;
#190 = APPROVAL_ROLE ( '' ) ;
#191 = AXIS2_PLACEMENT_3D ( 'NONE', #235, #111, #194 ) ;
#192 = EDGE_CURVE ( 'NONE', #121, #71, #265, .T. ) ;
#193 = APPLICATION_CONTEXT ( 'configuration controlled 3d designs of mechanical parts and assemblies' ) ;
#194 = DIRECTION ( 'NONE',  ( 0.000000000000000000, 1.000000000000000000, 0.000000000000000000 ) ) ;
#195 = APPROVAL ( #247, 'UNSPECIFIED' ) ;
#196 = COORDINATED_UNIVERSAL_TIME_OFFSET ( 1, 0, .AHEAD. ) ;
#197 = CLOSED_SHELL ( 'NONE', ( #55, #36, #62, #275 ) ) ;
#198 = AXIS2_PLACEMENT_3D ( 'NONE', #248, #49, #170 ) ;
#199 = LOCAL_TIME ( 8, 31, 51.00000000000000000, #269 ) ;
#200 = DIRECTION ( 'NONE',  ( -3.491481338843133355E-15, 1.224646799147353207E-16, -1.000000000000000000 ) ) ;
#201 = CARTESIAN_POINT ( 'NONE',  ( 2.436869039531362063E-13, -2.400000000000011458, 70.00000000000000000 ) ) ;
#202 = EDGE_CURVE ( 'NONE', #224, #58, #303, .T. ) ;
#203 = CC_DESIGN_APPROVAL ( #195, ( #246 ) ) ;
#204 = FACE_OUTER_BOUND ( 'NONE', #152, .T. ) ;
#205 = ORIENTED_EDGE ( 'NONE', *, *, #153, .T. ) ;
#206 = ADVANCED_FACE ( 'NONE', ( #225 ), #104, .T. ) ;
#207 = ORIENTED_EDGE ( 'NONE', *, *, #217, .F. ) ;
#208 = VECTOR ( 'NONE', #178, 1000.000000000000000 ) ;
#209 = LOCAL_TIME ( 8, 31, 51.00000000000000000, #196 ) ;
#210 = ADVANCED_FACE ( 'NONE', ( #204 ), #59, .T. ) ;
#211 = CARTESIAN_POINT ( 'NONE',  ( 0.000000000000000000, 0.000000000000000000, 0.000000000000000000 ) ) ;
#212 = ADVANCED_FACE ( 'NONE', ( #173 ), #288, .T. ) ;
#213 = AXIS2_PLACEMENT_3D ( 'NONE', #115, #166, #159 ) ;
#214 = DIRECTION ( 'NONE',  ( 0.000000000000000000, 1.000000000000000000, 0.000000000000000000 ) ) ;
#215 = DIRECTION ( 'NONE',  ( -3.491481338843133355E-15, 1.224646799147353207E-16, -1.000000000000000000 ) ) ;
#216 = CARTESIAN_POINT ( 'NONE',  ( 2.444036937190193601E-13, 2.399999999999994138, 70.00000000000000000 ) ) ;
#217 = EDGE_CURVE ( 'NONE', #29, #287, #24, .T. ) ;
#218 = CARTESIAN_POINT ( 'NONE',  ( 5.237222008264700033E-14, -1.836970198721029589E-15, 15.00000000000000000 ) ) ;
#219 = DIRECTION ( 'NONE',  ( 0.000000000000000000, 0.000000000000000000, 1.000000000000000000 ) ) ;
#220 = DIRECTION ( 'NONE',  ( 0.000000000000000000, 1.000000000000000000, 0.000000000000000000 ) ) ;
#221 = PLANE ( 'NONE',  #237 ) ;
#222 = EDGE_CURVE ( 'NONE', #174, #29, #25, .T. ) ;
#223 = CARTESIAN_POINT ( 'NONE',  ( 2.423088049157134675E-13, 2.999999999999993783, 69.40000000000000568 ) ) ;
#224 = VERTEX_POINT ( 'NONE', #149 ) ;
#225 = FACE_OUTER_BOUND ( 'NONE', #18, .T. ) ;
#226 = FACE_OUTER_BOUND ( 'NONE', #92, .T. ) ;
#227 = VECTOR ( 'NONE', #215, 1000.000000000000000 ) ;
#228 = COORDINATED_UNIVERSAL_TIME_OFFSET ( 1, 0, .AHEAD. ) ;
#229 = CARTESIAN_POINT ( 'NONE',  ( 2.423088049157134675E-13, -8.499048786082631273E-15, 69.40000000000000568 ) ) ;
#230 = EDGE_CURVE ( 'NONE', #4, #127, #267, .T. ) ;
#231 = ORIENTED_EDGE ( 'NONE', *, *, #16, .T. ) ;
#232 = CIRCLE ( 'NONE', #39, 2.999999999999993339 ) ;
#233 = ORIENTED_EDGE ( 'NONE', *, *, #158, .F. ) ;
#234 = CC_DESIGN_DATE_AND_TIME_ASSIGNMENT ( #163, #63, ( #246 ) ) ;
#235 = CARTESIAN_POINT ( 'NONE',  ( 5.237222008264700033E-14, -1.836970198721029589E-15, 15.00000000000000000 ) ) ;
#236 = PERSON_AND_ORGANIZATION ( #272, #183 ) ;
#237 = AXIS2_PLACEMENT_3D ( 'NONE', #119, #200, #245 ) ;
#238 = CC_DESIGN_APPROVAL ( #160, ( #284 ) ) ;
#239 = CARTESIAN_POINT ( 'NONE',  ( 2.444036937190193601E-13, -8.572527594031472993E-15, 70.00000000000000000 ) ) ;
#240 = COORDINATED_UNIVERSAL_TIME_OFFSET ( 1, 0, .AHEAD. ) ;
#241 = EDGE_CURVE ( 'NONE', #287, #4, #281, .T. ) ;
#242 = DIRECTION ( 'NONE',  ( 0.000000000000000000, 1.000000000000000000, 0.000000000000000000 ) ) ;
#243 = PERSON_AND_ORGANIZATION ( #272, #183 ) ;
#244 = DIRECTION ( 'NONE',  ( 4.275831445896958607E-31, 1.000000000000000000, 1.224646799147353454E-16 ) ) ;
#245 = DIRECTION ( 'NONE',  ( 4.275831445896958607E-31, 1.000000000000000000, 1.224646799147353207E-16 ) ) ;
#246 = PRODUCT_DEFINITION ( 'UNKNOWN', '', #284, #32 ) ;
#247 = APPROVAL_STATUS ( 'not_yet_approved' ) ;
#248 = CARTESIAN_POINT ( 'NONE',  ( 2.444036937190193601E-13, -8.572527594031472993E-15, 70.00000000000000000 ) ) ;
#249 = CIRCLE ( 'NONE', #30, 3.000000000000002665 ) ;
#250 = LOCAL_TIME ( 8, 31, 51.00000000000000000, #228 ) ;
#251 = CARTESIAN_POINT ( 'NONE',  ( 2.423088049157134675E-13, -8.499048786082631273E-15, 69.40000000000000568 ) ) ;
#252 = CARTESIAN_POINT ( 'NONE',  ( 2.444036937190193601E-13, -8.572527594031472993E-15, 70.00000000000000000 ) ) ;
#253 = EDGE_LOOP ( 'NONE', ( #308, #27 ) ) ;
#254 =( NAMED_UNIT ( * ) SI_UNIT ( $, .STERADIAN. ) SOLID_ANGLE_UNIT ( ) );
#255 = FACE_OUTER_BOUND ( 'NONE', #124, .T. ) ;
#256 = PRODUCT_DEFINITION_SHAPE ( 'NONE', 'NONE',  #246 ) ;
#257 = EDGE_CURVE ( 'NONE', #4, #287, #249, .T. ) ;
#258 = APPROVAL ( #122, 'UNSPECIFIED' ) ;
#259 = ORIENTED_EDGE ( 'NONE', *, *, #241, .F. ) ;
#260 = AXIS2_PLACEMENT_3D ( 'NONE', #69, #168, #141 ) ;
#261 = CC_DESIGN_PERSON_AND_ORGANIZATION_ASSIGNMENT ( #236, #64, ( #40 ) ) ;
#262 = APPROVAL_STATUS ( 'not_yet_approved' ) ;
#263 = DIRECTION ( 'NONE',  ( -3.491481338843133355E-15, 1.224646799147353207E-16, -1.000000000000000000 ) ) ;
#264 = FACE_OUTER_BOUND ( 'NONE', #278, .T. ) ;
#265 = CIRCLE ( 'NONE', #213, 2.999999999999993339 ) ;
#266 = DIRECTION ( 'NONE',  ( -4.275831445896958607E-31, -1.000000000000000000, -1.224646799147353207E-16 ) ) ;
#267 = LINE ( 'NONE', #120, #208 ) ;
#268 = ORIENTED_EDGE ( 'NONE', *, *, #142, .F. ) ;
#269 = COORDINATED_UNIVERSAL_TIME_OFFSET ( 1, 0, .AHEAD. ) ;
#270 = DIRECTION ( 'NONE',  ( 3.491481338843133355E-15, -1.224646799147353207E-16, 1.000000000000000000 ) ) ;
#271 = PERSON_AND_ORGANIZATION ( #272, #183 ) ;
#272 = PERSON ( 'UNSPECIFIED', 'UNSPECIFIED', 'UNSPECIFIED', ('UNSPECIFIED'), ('UNSPECIFIED'), ('UNSPECIFIED') ) ;
#273 = APPLICATION_PROTOCOL_DEFINITION ( 'international standard', 'config_control_design', 1994, #193 ) ;
#274 = CARTESIAN_POINT ( 'NONE',  ( 2.444036937190193601E-13, -8.572527594031472993E-15, 70.00000000000000000 ) ) ;
#275 = ADVANCED_FACE ( 'NONE', ( #96 ), #103, .T. ) ;
#276 = ORIENTED_EDGE ( 'NONE', *, *, #142, .T. ) ;
#277 = AXIS2_PLACEMENT_3D ( 'NONE', #211, #219, #97 ) ;
#278 = EDGE_LOOP ( 'NONE', ( #276, #231 ) ) ;
#279 = ADVANCED_FACE ( 'NONE', ( #255 ), #293, .T. ) ;
#280 = COORDINATED_UNIVERSAL_TIME_OFFSET ( 1, 0, .AHEAD. ) ;
#281 = CIRCLE ( 'NONE', #155, 3.000000000000002665 ) ;
#282 = DIRECTION ( 'NONE',  ( -3.491481338843133355E-15, 1.224646799147353207E-16, -1.000000000000000000 ) ) ;
#283 = APPLICATION_PROTOCOL_DEFINITION ( 'international standard', 'config_control_design', 1994, #179 ) ;
#284 = PRODUCT_DEFINITION_FORMATION_WITH_SPECIFIED_SOURCE ( 'ANY', '', #125, .NOT_KNOWN. ) ;
#285 = FACE_OUTER_BOUND ( 'NONE', #52, .T. ) ;
#286 = DIRECTION ( 'NONE',  ( -3.491481338843133355E-15, 1.224646799147353207E-16, -1.000000000000000000 ) ) ;
#287 = VERTEX_POINT ( 'NONE', #31 ) ;
#288 = CONICAL_SURFACE ( 'NONE', #198, 2.400000000000003020, 0.7853981633974453924 ) ;
#289 = ORIENTED_EDGE ( 'NONE', *, *, #230, .F. ) ;
#290 = CARTESIAN_POINT ( 'NONE',  ( 5.237222008264700033E-14, 2.249639673992779022E-32, 15.00000000000000000 ) ) ;
#291 = VECTOR ( 'NONE', #68, 1000.000000000000000 ) ;
#292 = ORIENTED_EDGE ( 'NONE', *, *, #185, .T. ) ;
#293 = CYLINDRICAL_SURFACE ( 'NONE', #172, 2.999999999999997780 ) ;
#294 = CC_DESIGN_PERSON_AND_ORGANIZATION_ASSIGNMENT ( #271, #171, ( #125 ) ) ;
#295 = AXIS2_PLACEMENT_3D ( 'NONE', #239, #282, #214 ) ;
#296 = DATE_AND_TIME ( #112, #209 ) ;
#297 = CIRCLE ( 'NONE', #98, 2.999999999999993339 ) ;
#298 = AXIS2_PLACEMENT_3D ( 'NONE', #33, #7, #20 ) ;
#299 = LOCAL_TIME ( 8, 31, 51.00000000000000000, #280 ) ;
#300 = CARTESIAN_POINT ( 'NONE',  ( 2.655350408106768352E-14, -2.999999999999994671, 15.00000000000000000 ) ) ;
#301 = CC_DESIGN_PERSON_AND_ORGANIZATION_ASSIGNMENT ( #136, #139, ( #284 ) ) ;
#302 = DIRECTION ( 'NONE',  ( -2.468850131082271655E-15, 0.7071067811865455743, -0.7071067811865493491 ) ) ;
#303 = CIRCLE ( 'NONE', #17, 2.999999999999990674 ) ;
#304 = AXIS2_PLACEMENT_3D ( 'NONE', #290, #108, #78 ) ;
#305 = DIRECTION ( 'NONE',  ( 4.275831445896958607E-31, 1.000000000000000000, 1.224646799147353207E-16 ) ) ;
#306 = APPROVAL_DATE_TIME ( #140, #195 ) ;
#307 = CC_DESIGN_PERSON_AND_ORGANIZATION_ASSIGNMENT ( #91, #186, ( #246 ) ) ;
#308 = ORIENTED_EDGE ( 'NONE', *, *, #192, .F. ) ;
#309 = DIRECTION ( 'NONE',  ( 0.000000000000000000, 1.000000000000000000, 0.000000000000000000 ) ) ;
#310 = ORIENTED_EDGE ( 'NONE', *, *, #192, .T. ) ;
#311 = PERSON_AND_ORGANIZATION ( #272, #183 ) ;
#312 = DIRECTION ( 'NONE',  ( -2.382254525458723780E-15, -0.7071067811865453523, -0.7071067811865496822 ) ) ;
#313 = DIRECTION ( 'NONE',  ( -3.491481338843133355E-15, 1.224646799147353207E-16, -1.000000000000000000 ) ) ;
ENDSEC;
END-ISO-10303-21;
