ISO-10303-21;
HEADER;
FILE_DESCRIPTION (( 'STEP AP203' ),
    '1' );
FILE_NAME ('372705.step',
    '2023-03-31T06:31:50',
    ( '' ),
    ( '' ),
    'SwSTEP 2.0',
    'SolidWorks 2022',
    '' );
FILE_SCHEMA (( 'CONFIG_CONTROL_DESIGN' ));
ENDSEC;

DATA;
#1 = CALENDAR_DATE ( 2023, 31, 3 ) ;
#2 = VERTEX_POINT ( 'NONE', #281 ) ;
#3 = EDGE_CURVE ( 'NONE', #233, #65, #189, .T. ) ;
#4 = ORIENTED_EDGE ( 'NONE', *, *, #94, .F. ) ;
#5 = UNCERTAINTY_MEASURE_WITH_UNIT (LENGTH_MEASURE( 1.000000000000000082E-05 ), #251, 'distance_accuracy_value', 'NONE');
#6 = CIRCLE ( 'NONE', #46, 2.999999999999992006 ) ;
#7 = EDGE_LOOP ( 'NONE', ( #77, #202 ) ) ;
#8 = CIRCLE ( 'NONE', #261, 2.399999999999996803 ) ;
#9 = COORDINATED_UNIVERSAL_TIME_OFFSET ( 1, 0, .AHEAD. ) ;
#10 = LINE ( 'NONE', #187, #215 ) ;
#11 = AXIS2_PLACEMENT_3D ( 'NONE', #220, #246, #217 ) ;
#12 = CC_DESIGN_SECURITY_CLASSIFICATION ( #82, ( #137 ) ) ;
#13 = VERTEX_POINT ( 'NONE', #85 ) ;
#14 = CARTESIAN_POINT ( 'NONE',  ( 4.189777606611760026E-14, 2.999999999999990674, 12.00000000000000000 ) ) ;
#15 = DATE_AND_TIME ( #161, #226 ) ;
#16 = VERTEX_POINT ( 'NONE', #264 ) ;
#17 = AXIS2_PLACEMENT_3D ( 'NONE', #138, #60, #235 ) ;
#18 = DIRECTION ( 'NONE',  ( -3.491481338843133355E-15, 1.224646799147353207E-16, -1.000000000000000000 ) ) ;
#19 = CARTESIAN_POINT ( 'NONE',  ( 1.745740669421566678E-13, -6.123233995736766085E-15, 50.00000000000000000 ) ) ;
#20 = DIRECTION ( 'NONE',  ( -3.491481338843133355E-15, 1.224646799147353207E-16, -1.000000000000000000 ) ) ;
#21 = PLANE ( 'NONE',  #96 ) ;
#22 = CC_DESIGN_APPROVAL ( #125, ( #82 ) ) ;
#23 = CARTESIAN_POINT ( 'NONE',  ( 0.000000000000000000, 0.000000000000000000, 0.000000000000000000 ) ) ;
#24 = EDGE_CURVE ( 'NONE', #65, #272, #109, .T. ) ;
#25 = CLOSED_SHELL ( 'NONE', ( #178, #247, #196, #208, #152, #278 ) ) ;
#26 = EDGE_LOOP ( 'NONE', ( #133, #151, #148, #159 ) ) ;
#27 = CARTESIAN_POINT ( 'NONE',  ( 0.000000000000000000, 0.000000000000000000, 0.000000000000000000 ) ) ;
#28 = DIRECTION ( 'NONE',  ( 4.275831445896958607E-31, 1.000000000000000000, 1.224646799147353207E-16 ) ) ;
#29 = ORIENTED_EDGE ( 'NONE', *, *, #143, .T. ) ;
#30 = ORIENTED_EDGE ( 'NONE', *, *, #218, .T. ) ;
#31 = FACE_OUTER_BOUND ( 'NONE', #123, .T. ) ;
#32 = PERSON_AND_ORGANIZATION_ROLE ( 'design_supplier' ) ;
#33 = VERTEX_POINT ( 'NONE', #262 ) ;
#34 = DIRECTION ( 'NONE',  ( -3.491481338843133355E-15, 1.224646799147353207E-16, -1.000000000000000000 ) ) ;
#35 = EDGE_CURVE ( 'NONE', #2, #58, #149, .T. ) ;
#36 = APPROVAL_DATE_TIME ( #15, #313 ) ;
#37 = DIRECTION ( 'NONE',  ( 0.000000000000000000, 1.000000000000000000, 0.000000000000000000 ) ) ;
#38 = AXIS2_PLACEMENT_3D ( 'NONE', #27, #130, #106 ) ;
#39 = CARTESIAN_POINT ( 'NONE',  ( 1.745740669421566678E-13, -6.123233995736766085E-15, 50.00000000000000000 ) ) ;
#40 = AXIS2_PLACEMENT_3D ( 'NONE', #265, #236, #37 ) ;
#41 = APPROVAL_PERSON_ORGANIZATION ( #57, #313, #135 ) ;
#42 = ORIENTED_EDGE ( 'NONE', *, *, #201, .T. ) ;
#43 = DIRECTION ( 'NONE',  ( -4.275831445896958607E-31, -1.000000000000000000, -1.224646799147353207E-16 ) ) ;
#44 = FACE_OUTER_BOUND ( 'NONE', #7, .T. ) ;
#45 = PLANE ( 'NONE',  #91 ) ;
#46 = AXIS2_PLACEMENT_3D ( 'NONE', #302, #286, #62 ) ;
#47 = ORIENTED_EDGE ( 'NONE', *, *, #35, .F. ) ;
#48 = DIRECTION ( 'NONE',  ( -4.275831445896958607E-31, -1.000000000000000000, -1.224646799147353207E-16 ) ) ;
#49 = CARTESIAN_POINT ( 'NONE',  ( -1.710324741423462991E-30, 5.999011642378630015E-32, -4.898564750714553954E-16 ) ) ;
#50 = ORIENTED_EDGE ( 'NONE', *, *, #201, .F. ) ;
#51 = DIRECTION ( 'NONE',  ( -3.491481338843133355E-15, 1.224646799147353207E-16, -1.000000000000000000 ) ) ;
#52 = EDGE_LOOP ( 'NONE', ( #70, #42, #78, #294 ) ) ;
#53 = ORIENTED_EDGE ( 'NONE', *, *, #257, .F. ) ;
#54 = PERSON ( 'UNSPECIFIED', 'UNSPECIFIED', 'UNSPECIFIED', ('UNSPECIFIED'), ('UNSPECIFIED'), ('UNSPECIFIED') ) ;
#55 = LOCAL_TIME ( 8, 31, 50.00000000000000000, #297 ) ;
#56 = VERTEX_POINT ( 'NONE', #239 ) ;
#57 = PERSON_AND_ORGANIZATION ( #54, #301 ) ;
#58 = VERTEX_POINT ( 'NONE', #14 ) ;
#59 = PERSON_AND_ORGANIZATION_ROLE ( 'classification_officer' ) ;
#60 = DIRECTION ( 'NONE',  ( -3.491481338843133355E-15, 1.224646799147353207E-16, -1.000000000000000000 ) ) ;
#61 = APPROVAL_STATUS ( 'not_yet_approved' ) ;
#62 = DIRECTION ( 'NONE',  ( 0.000000000000000000, 1.000000000000000000, 0.000000000000000000 ) ) ;
#63 = CARTESIAN_POINT ( 'NONE',  ( 3.673940397442036695E-16, -2.999999999999991562, -3.673940397442061840E-16 ) ) ;
#64 = CARTESIAN_POINT ( 'NONE',  ( 2.131628207280299611E-14, -2.999999999999990674, -8.572505148157346970E-16 ) ) ;
#65 = VERTEX_POINT ( 'NONE', #190 ) ;
#66 = FACE_OUTER_BOUND ( 'NONE', #76, .T. ) ;
#67 = DIRECTION ( 'NONE',  ( 3.491481338843133355E-15, -1.224646799147353207E-16, 1.000000000000000000 ) ) ;
#68 = EDGE_CURVE ( 'NONE', #171, #2, #10, .T. ) ;
#69 = DIRECTION ( 'NONE',  ( -3.491481338843133355E-15, 1.224646799147353207E-16, -1.000000000000000000 ) ) ;
#70 = ORIENTED_EDGE ( 'NONE', *, *, #214, .T. ) ;
#71 = DIRECTION ( 'NONE',  ( -3.491481338843133355E-15, 1.224646799147353207E-16, -1.000000000000000000 ) ) ;
#72 = MANIFOLD_SOLID_BREP ( 'Corps-Déplacer/Copier1[2]', #81 ) ;
#73 = AXIS2_PLACEMENT_3D ( 'NONE', #224, #51, #99 ) ;
#74 = APPLICATION_PROTOCOL_DEFINITION ( 'international standard', 'config_control_design', 1994, #252 ) ;
#75 = PRODUCT_DEFINITION_SHAPE ( 'NONE', 'NONE',  #258 ) ;
#76 = EDGE_LOOP ( 'NONE', ( #213, #126, #280, #129 ) ) ;
#77 = ORIENTED_EDGE ( 'NONE', *, *, #83, .T. ) ;
#78 = ORIENTED_EDGE ( 'NONE', *, *, #186, .F. ) ;
#79 = MECHANICAL_CONTEXT ( 'NONE', #252, 'mechanical' ) ;
#80 = DESIGN_CONTEXT ( 'detailed design', #87, 'design' ) ;
#81 = CLOSED_SHELL ( 'NONE', ( #223, #158, #188, #276 ) ) ;
#82 = SECURITY_CLASSIFICATION ( '', '', #192 ) ;
#83 = EDGE_CURVE ( 'NONE', #58, #2, #6, .T. ) ;
#84 = EDGE_CURVE ( 'NONE', #171, #13, #194, .T. ) ;
#85 = CARTESIAN_POINT ( 'NONE',  ( 1.724791781388508004E-13, 2.999999999999990674, 49.39999999999999858 ) ) ;
#86 = CIRCLE ( 'NONE', #290, 2.999999999999992006 ) ;
#87 = APPLICATION_CONTEXT ( 'configuration controlled 3d designs of mechanical parts and assemblies' ) ;
#88 = CARTESIAN_POINT ( 'NONE',  ( 1.282749433769083904E-30, 2.999999999999991562, 3.673940397442049021E-16 ) ) ;
#89 = ORIENTED_EDGE ( 'NONE', *, *, #3, .F. ) ;
#90 = CARTESIAN_POINT ( 'NONE',  ( -8.551623707117314956E-31, 2.999505821189315008E-32, -2.449282375357276977E-16 ) ) ;
#91 = AXIS2_PLACEMENT_3D ( 'NONE', #249, #67, #167 ) ;
#92 = CARTESIAN_POINT ( 'NONE',  ( 1.745740669421566678E-13, -6.123233995736766085E-15, 50.00000000000000000 ) ) ;
#93 = DIRECTION ( 'NONE',  ( 3.491481338843133355E-15, -1.224646799147353207E-16, 1.000000000000000000 ) ) ;
#94 = EDGE_CURVE ( 'NONE', #233, #16, #86, .T. ) ;
#95 = DIRECTION ( 'NONE',  ( 0.000000000000000000, 1.000000000000000000, 0.000000000000000000 ) ) ;
#96 = AXIS2_PLACEMENT_3D ( 'NONE', #116, #122, #97 ) ;
#97 = DIRECTION ( 'NONE',  ( 4.275831445896958607E-31, 1.000000000000000000, 1.224646799147353207E-16 ) ) ;
#98 = ORIENTED_EDGE ( 'NONE', *, *, #244, .T. ) ;
#99 = DIRECTION ( 'NONE',  ( 0.000000000000000000, 1.000000000000000000, 0.000000000000000000 ) ) ;
#100 = CARTESIAN_POINT ( 'NONE',  ( 0.000000000000000000, 0.000000000000000000, 0.000000000000000000 ) ) ;
#101 = CYLINDRICAL_SURFACE ( 'NONE', #11, 2.999999999999993783 ) ;
#102 = CARTESIAN_POINT ( 'NONE',  ( 1.745740669421566678E-13, 2.399999999999990585, 50.00000000000000000 ) ) ;
#103 = DIRECTION ( 'NONE',  ( -2.382254525458723780E-15, -0.7071067811865453523, -0.7071067811865496822 ) ) ;
#104 = PERSON_AND_ORGANIZATION ( #54, #301 ) ;
#105 = APPROVAL_ROLE ( '' ) ;
#106 = DIRECTION ( 'NONE',  ( 1.000000000000000000, 0.000000000000000000, 0.000000000000000000 ) ) ;
#107 = CC_DESIGN_PERSON_AND_ORGANIZATION_ASSIGNMENT ( #179, #279, ( #258 ) ) ;
#108 = CALENDAR_DATE ( 2023, 31, 3 ) ;
#109 = CIRCLE ( 'NONE', #266, 2.999999999999990674 ) ;
#110 = CALENDAR_DATE ( 2023, 31, 3 ) ;
#111 = PERSON_AND_ORGANIZATION_ROLE ( 'creator' ) ;
#112 = CC_DESIGN_PERSON_AND_ORGANIZATION_ASSIGNMENT ( #184, #59, ( #82 ) ) ;
#113 = VECTOR ( 'NONE', #277, 1000.000000000000114 ) ;
#114 = AXIS2_PLACEMENT_3D ( 'NONE', #39, #20, #222 ) ;
#115 = DATE_TIME_ROLE ( 'classification_date' ) ;
#116 = CARTESIAN_POINT ( 'NONE',  ( 1.745740669421566678E-13, 1.799711739194217634E-32, 50.00000000000000000 ) ) ;
#117 = APPROVAL_DATE_TIME ( #174, #198 ) ;
#118 = DIRECTION ( 'NONE',  ( -3.491481338843133355E-15, 1.224646799147353207E-16, -1.000000000000000000 ) ) ;
#119 = COORDINATED_UNIVERSAL_TIME_OFFSET ( 1, 0, .AHEAD. ) ;
#120 = CYLINDRICAL_SURFACE ( 'NONE', #309, 2.999999999999991562 ) ;
#121 = CARTESIAN_POINT ( 'NONE',  ( 4.189777606611760026E-14, 2.249639673992777927E-32, 12.00000000000000000 ) ) ;
#122 = DIRECTION ( 'NONE',  ( -3.491481338843133355E-15, 1.224646799147353207E-16, -1.000000000000000000 ) ) ;
#123 = EDGE_LOOP ( 'NONE', ( #232, #29 ) ) ;
#124 = LINE ( 'NONE', #255, #211 ) ;
#125 = APPROVAL ( #145, 'UNSPECIFIED' ) ;
#126 = ORIENTED_EDGE ( 'NONE', *, *, #257, .T. ) ;
#127 = CIRCLE ( 'NONE', #300, 2.999999999999996447 ) ;
#128 = CIRCLE ( 'NONE', #250, 2.999999999999992006 ) ;
#129 = ORIENTED_EDGE ( 'NONE', *, *, #143, .F. ) ;
#130 = DIRECTION ( 'NONE',  ( 0.000000000000000000, 0.000000000000000000, 1.000000000000000000 ) ) ;
#131 = EDGE_LOOP ( 'NONE', ( #227, #225 ) ) ;
#132 = DATE_AND_TIME ( #146, #162 ) ;
#133 = ORIENTED_EDGE ( 'NONE', *, *, #186, .T. ) ;
#134 = PLANE ( 'NONE',  #153 ) ;
#135 = APPROVAL_ROLE ( '' ) ;
#136 = AXIS2_PLACEMENT_3D ( 'NONE', #121, #93, #48 ) ;
#137 = PRODUCT_DEFINITION_FORMATION_WITH_SPECIFIED_SOURCE ( 'ANY', '', #154, .NOT_KNOWN. ) ;
#138 = CARTESIAN_POINT ( 'NONE',  ( 4.189777606611760026E-14, -1.469576158976823947E-15, 12.00000000000000000 ) ) ;
#139 = CC_DESIGN_DATE_AND_TIME_ASSIGNMENT ( #165, #299, ( #258 ) ) ;
#140 = PERSON_AND_ORGANIZATION ( #54, #301 ) ;
#141 = DIRECTION ( 'NONE',  ( -3.491481338843133355E-15, 1.224646799147353207E-16, -1.000000000000000000 ) ) ;
#142 = AXIS2_PLACEMENT_3D ( 'NONE', #19, #18, #307 ) ;
#143 = EDGE_CURVE ( 'NONE', #272, #65, #193, .T. ) ;
#144 = CARTESIAN_POINT ( 'NONE',  ( 1.075558711422282795E-13, -3.000000000000002665, 49.39999999999999858 ) ) ;
#145 = APPROVAL_STATUS ( 'not_yet_approved' ) ;
#146 = CALENDAR_DATE ( 2023, 31, 3 ) ;
#147 = FACE_OUTER_BOUND ( 'NONE', #295, .T. ) ;
#148 = ORIENTED_EDGE ( 'NONE', *, *, #83, .F. ) ;
#149 = CIRCLE ( 'NONE', #17, 2.999999999999992006 ) ;
#150 = DATE_AND_TIME ( #110, #267 ) ;
#151 = ORIENTED_EDGE ( 'NONE', *, *, #68, .T. ) ;
#152 = ADVANCED_FACE ( 'NONE', ( #203 ), #283, .T. ) ;
#153 = AXIS2_PLACEMENT_3D ( 'NONE', #90, #166, #43 ) ;
#154 = PRODUCT ( '372705', '372705', '', ( #79 ) ) ;
#155 = EDGE_CURVE ( 'NONE', #33, #13, #172, .T. ) ;
#156 = DIRECTION ( 'NONE',  ( -3.491481338843133355E-15, 1.224646799147353207E-16, -1.000000000000000000 ) ) ;
#157 = DIRECTION ( 'NONE',  ( 4.275831445896958607E-31, 1.000000000000000000, 1.224646799147353207E-16 ) ) ;
#158 = ADVANCED_FACE ( 'NONE', ( #31 ), #134, .F. ) ;
#159 = ORIENTED_EDGE ( 'NONE', *, *, #218, .F. ) ;
#160 = CC_DESIGN_PERSON_AND_ORGANIZATION_ASSIGNMENT ( #104, #181, ( #154 ) ) ;
#161 = CALENDAR_DATE ( 2023, 31, 3 ) ;
#162 = LOCAL_TIME ( 8, 31, 50.00000000000000000, #119 ) ;
#163 = DIRECTION ( 'NONE',  ( -3.491481338843133355E-15, 1.224646799147353207E-16, -1.000000000000000000 ) ) ;
#164 = DIRECTION ( 'NONE',  ( 4.275831445896958607E-31, 1.000000000000000000, 1.224646799147353454E-16 ) ) ;
#165 = DATE_AND_TIME ( #108, #185 ) ;
#166 = DIRECTION ( 'NONE',  ( 3.491481338843133355E-15, -1.224646799147353207E-16, 1.000000000000000000 ) ) ;
#167 = DIRECTION ( 'NONE',  ( -4.275831445896958607E-31, -1.000000000000000000, -1.224646799147353207E-16 ) ) ;
#168 = FACE_OUTER_BOUND ( 'NONE', #285, .T. ) ;
#169 = CARTESIAN_POINT ( 'NONE',  ( 1.724791781388508004E-13, -6.049755187787925154E-15, 49.39999999999999858 ) ) ;
#170 = CC_DESIGN_PERSON_AND_ORGANIZATION_ASSIGNMENT ( #140, #32, ( #137 ) ) ;
#171 = VERTEX_POINT ( 'NONE', #144 ) ;
#172 = LINE ( 'NONE', #102, #113 ) ;
#173 = CARTESIAN_POINT ( 'NONE',  ( 4.189777606611760026E-14, -1.469576158976823947E-15, 12.00000000000000000 ) ) ;
#174 = DATE_AND_TIME ( #1, #55 ) ;
#175 = PRODUCT_RELATED_PRODUCT_CATEGORY ( 'detail', '', ( #154 ) ) ;
#176 = APPLICATION_PROTOCOL_DEFINITION ( 'international standard', 'config_control_design', 1994, #87 ) ;
#177 = MANIFOLD_SOLID_BREP ( 'Corps-Déplacer/Copier1[1]', #25 ) ;
#178 = ADVANCED_FACE ( 'NONE', ( #269 ), #242, .T. ) ;
#179 = PERSON_AND_ORGANIZATION ( #54, #301 ) ;
#180 = ORIENTED_EDGE ( 'NONE', *, *, #94, .T. ) ;
#181 = PERSON_AND_ORGANIZATION_ROLE ( 'design_owner' ) ;
#182 = DIRECTION ( 'NONE',  ( -3.491481338843133355E-15, 1.224646799147353207E-16, -1.000000000000000000 ) ) ;
#183 = APPROVAL_DATE_TIME ( #132, #125 ) ;
#184 = PERSON_AND_ORGANIZATION ( #54, #301 ) ;
#185 = LOCAL_TIME ( 8, 31, 50.00000000000000000, #9 ) ;
#186 = EDGE_CURVE ( 'NONE', #13, #171, #127, .T. ) ;
#187 = CARTESIAN_POINT ( 'NONE',  ( 3.673940397442039653E-16, -2.999999999999993783, -3.673940397442064798E-16 ) ) ;
#188 = ADVANCED_FACE ( 'NONE', ( #66 ), #120, .T. ) ;
#189 = LINE ( 'NONE', #88, #199 ) ;
#190 = CARTESIAN_POINT ( 'NONE',  ( -4.275753076543795256E-31, 2.999999999999990674, -1.224624353272505919E-16 ) ) ;
#191 = CYLINDRICAL_SURFACE ( 'NONE', #195, 2.999999999999993783 ) ;
#192 = SECURITY_CLASSIFICATION_LEVEL ( 'unclassified' ) ;
#193 = CIRCLE ( 'NONE', #230, 2.999999999999990674 ) ;
#194 = CIRCLE ( 'NONE', #40, 2.999999999999996447 ) ;
#195 = AXIS2_PLACEMENT_3D ( 'NONE', #207, #287, #164 ) ;
#196 = ADVANCED_FACE ( 'NONE', ( #44 ), #308, .F. ) ;
#197 = DIRECTION ( 'NONE',  ( 0.000000000000000000, 1.000000000000000000, 0.000000000000000000 ) ) ;
#198 = APPROVAL ( #228, 'UNSPECIFIED' ) ;
#199 = VECTOR ( 'NONE', #156, 1000.000000000000000 ) ;
#200 = APPROVAL_PERSON_ORGANIZATION ( #256, #198, #105 ) ;
#201 = EDGE_CURVE ( 'NONE', #56, #171, #124, .T. ) ;
#202 = ORIENTED_EDGE ( 'NONE', *, *, #35, .T. ) ;
#203 = FACE_OUTER_BOUND ( 'NONE', #282, .T. ) ;
#204 = AXIS2_PLACEMENT_3D ( 'NONE', #100, #141, #248 ) ;
#205 = EDGE_CURVE ( 'NONE', #16, #272, #210, .T. ) ;
#206 = ORIENTED_EDGE ( 'NONE', *, *, #24, .F. ) ;
#207 = CARTESIAN_POINT ( 'NONE',  ( 0.000000000000000000, 0.000000000000000000, 0.000000000000000000 ) ) ;
#208 = ADVANCED_FACE ( 'NONE', ( #303 ), #191, .T. ) ;
#209 = CARTESIAN_POINT ( 'NONE',  ( -1.710324741423462991E-30, 5.999011642378630015E-32, -4.898564750714553954E-16 ) ) ;
#210 = LINE ( 'NONE', #63, #291 ) ;
#211 = VECTOR ( 'NONE', #103, 1000.000000000000000 ) ;
#212 = ORIENTED_EDGE ( 'NONE', *, *, #84, .F. ) ;
#213 = ORIENTED_EDGE ( 'NONE', *, *, #205, .F. ) ;
#214 = EDGE_CURVE ( 'NONE', #33, #56, #8, .T. ) ;
#215 = VECTOR ( 'NONE', #34, 1000.000000000000000 ) ;
#216 = DIRECTION ( 'NONE',  ( -3.491481338843133355E-15, 1.224646799147353207E-16, -1.000000000000000000 ) ) ;
#217 = DIRECTION ( 'NONE',  ( 4.275831445896958607E-31, 1.000000000000000000, 1.224646799147353454E-16 ) ) ;
#218 = EDGE_CURVE ( 'NONE', #13, #58, #245, .T. ) ;
#219 = DIRECTION ( 'NONE',  ( 4.275831445896958607E-31, 1.000000000000000000, 1.224646799147353207E-16 ) ) ;
#220 = CARTESIAN_POINT ( 'NONE',  ( 0.000000000000000000, 0.000000000000000000, 0.000000000000000000 ) ) ;
#221 = CC_DESIGN_APPROVAL ( #313, ( #137 ) ) ;
#222 = DIRECTION ( 'NONE',  ( 0.000000000000000000, 1.000000000000000000, 0.000000000000000000 ) ) ;
#223 = ADVANCED_FACE ( 'NONE', ( #168 ), #274, .T. ) ;
#224 = CARTESIAN_POINT ( 'NONE',  ( 1.745740669421566678E-13, -6.123233995736766085E-15, 50.00000000000000000 ) ) ;
#225 = ORIENTED_EDGE ( 'NONE', *, *, #244, .F. ) ;
#226 = LOCAL_TIME ( 8, 31, 50.00000000000000000, #263 ) ;
#227 = ORIENTED_EDGE ( 'NONE', *, *, #214, .F. ) ;
#228 = APPROVAL_STATUS ( 'not_yet_approved' ) ;
#229 = CC_DESIGN_PERSON_AND_ORGANIZATION_ASSIGNMENT ( #241, #111, ( #137 ) ) ;
#230 = AXIS2_PLACEMENT_3D ( 'NONE', #49, #71, #28 ) ;
#231 = ORIENTED_EDGE ( 'NONE', *, *, #84, .T. ) ;
#232 = ORIENTED_EDGE ( 'NONE', *, *, #24, .T. ) ;
#233 = VERTEX_POINT ( 'NONE', #305 ) ;
#234 = DIRECTION ( 'NONE',  ( -3.491481338843133355E-15, 1.224646799147353207E-16, -1.000000000000000000 ) ) ;
#235 = DIRECTION ( 'NONE',  ( 0.000000000000000000, 1.000000000000000000, 0.000000000000000000 ) ) ;
#236 = DIRECTION ( 'NONE',  ( -3.491481338843133355E-15, 1.224646799147353207E-16, -1.000000000000000000 ) ) ;
#237 = COORDINATED_UNIVERSAL_TIME_OFFSET ( 1, 0, .AHEAD. ) ;
#238 = CIRCLE ( 'NONE', #114, 2.399999999999996803 ) ;
#239 = CARTESIAN_POINT ( 'NONE',  ( 1.738572771762734887E-13, -2.400000000000003020, 50.00000000000000000 ) ) ;
#240 = ORIENTED_EDGE ( 'NONE', *, *, #155, .T. ) ;
#241 = PERSON_AND_ORGANIZATION ( #54, #301 ) ;
#242 = CONICAL_SURFACE ( 'NONE', #142, 2.399999999999996803, 0.7853981633974453924 ) ;
#243 = CC_DESIGN_APPROVAL ( #198, ( #258 ) ) ;
#244 = EDGE_CURVE ( 'NONE', #56, #33, #238, .T. ) ;
#245 = LINE ( 'NONE', #306, #304 ) ;
#246 = DIRECTION ( 'NONE',  ( -3.491481338843133355E-15, 1.224646799147353207E-16, -1.000000000000000000 ) ) ;
#247 = ADVANCED_FACE ( 'NONE', ( #310 ), #101, .T. ) ;
#248 = DIRECTION ( 'NONE',  ( 4.275831445896958607E-31, 1.000000000000000000, 1.224646799147353207E-16 ) ) ;
#249 = CARTESIAN_POINT ( 'NONE',  ( 4.189777606611760026E-14, 2.249639673992777927E-32, 12.00000000000000000 ) ) ;
#250 = AXIS2_PLACEMENT_3D ( 'NONE', #173, #275, #197 ) ;
#251 =( LENGTH_UNIT ( ) NAMED_UNIT ( * ) SI_UNIT ( .MILLI., .METRE. ) );
#252 = APPLICATION_CONTEXT ( 'configuration controlled 3d designs of mechanical parts and assemblies' ) ;
#253 =( NAMED_UNIT ( * ) PLANE_ANGLE_UNIT ( ) SI_UNIT ( $, .RADIAN. ) );
#254 = SHAPE_DEFINITION_REPRESENTATION ( #75, #273 ) ;
#255 = CARTESIAN_POINT ( 'NONE',  ( 1.748679821739520473E-13, -2.400000000000003020, 50.00000000000000000 ) ) ;
#256 = PERSON_AND_ORGANIZATION ( #54, #301 ) ;
#257 = EDGE_CURVE ( 'NONE', #16, #233, #128, .T. ) ;
#258 = PRODUCT_DEFINITION ( 'UNKNOWN', '', #137, #80 ) ;
#259 = ORIENTED_EDGE ( 'NONE', *, *, #205, .T. ) ;
#260 = CC_DESIGN_DATE_AND_TIME_ASSIGNMENT ( #150, #115, ( #82 ) ) ;
#261 = AXIS2_PLACEMENT_3D ( 'NONE', #92, #216, #95 ) ;
#262 = CARTESIAN_POINT ( 'NONE',  ( 1.745740669421566678E-13, 2.399999999999990585, 50.00000000000000000 ) ) ;
#263 = COORDINATED_UNIVERSAL_TIME_OFFSET ( 1, 0, .AHEAD. ) ;
#264 = CARTESIAN_POINT ( 'NONE',  ( 2.131628207280299927E-14, -2.999999999999993339, 12.00000000000000000 ) ) ;
#265 = CARTESIAN_POINT ( 'NONE',  ( 1.724791781388508004E-13, -6.049755187787925154E-15, 49.39999999999999858 ) ) ;
#266 = AXIS2_PLACEMENT_3D ( 'NONE', #209, #182, #157 ) ;
#267 = LOCAL_TIME ( 8, 31, 50.00000000000000000, #237 ) ;
#268 = DIRECTION ( 'NONE',  ( 0.000000000000000000, 1.000000000000000000, 0.000000000000000000 ) ) ;
#269 = FACE_OUTER_BOUND ( 'NONE', #52, .T. ) ;
#270 = APPROVAL_ROLE ( '' ) ;
#271 = DIRECTION ( 'NONE',  ( -3.491481338843133355E-15, 1.224646799147353207E-16, -1.000000000000000000 ) ) ;
#272 = VERTEX_POINT ( 'NONE', #64 ) ;
#273 = ADVANCED_BREP_SHAPE_REPRESENTATION ( '372705', ( #177, #72, #38 ), #293 ) ;
#274 = CYLINDRICAL_SURFACE ( 'NONE', #204, 2.999999999999991562 ) ;
#275 = DIRECTION ( 'NONE',  ( -3.491481338843133355E-15, 1.224646799147353207E-16, -1.000000000000000000 ) ) ;
#276 = ADVANCED_FACE ( 'NONE', ( #147 ), #45, .T. ) ;
#277 = DIRECTION ( 'NONE',  ( -2.468850131082271655E-15, 0.7071067811865455743, -0.7071067811865493491 ) ) ;
#278 = ADVANCED_FACE ( 'NONE', ( #312 ), #21, .F. ) ;
#279 = PERSON_AND_ORGANIZATION_ROLE ( 'creator' ) ;
#280 = ORIENTED_EDGE ( 'NONE', *, *, #3, .T. ) ;
#281 = CARTESIAN_POINT ( 'NONE',  ( 1.075558711422283679E-13, -2.999999999999993339, 12.00000000000000000 ) ) ;
#282 = EDGE_LOOP ( 'NONE', ( #50, #98, #240, #212 ) ) ;
#283 = CONICAL_SURFACE ( 'NONE', #73, 2.399999999999996803, 0.7853981633974453924 ) ;
#284 = CARTESIAN_POINT ( 'NONE',  ( 4.189777606611760026E-14, -1.469576158976823947E-15, 12.00000000000000000 ) ) ;
#285 = EDGE_LOOP ( 'NONE', ( #180, #259, #206, #89 ) ) ;
#286 = DIRECTION ( 'NONE',  ( -3.491481338843133355E-15, 1.224646799147353207E-16, -1.000000000000000000 ) ) ;
#287 = DIRECTION ( 'NONE',  ( -3.491481338843133355E-15, 1.224646799147353207E-16, -1.000000000000000000 ) ) ;
#288 = ORIENTED_EDGE ( 'NONE', *, *, #68, .F. ) ;
#289 = DIRECTION ( 'NONE',  ( 0.000000000000000000, 1.000000000000000000, 0.000000000000000000 ) ) ;
#290 = AXIS2_PLACEMENT_3D ( 'NONE', #284, #163, #268 ) ;
#291 = VECTOR ( 'NONE', #234, 1000.000000000000000 ) ;
#292 =( NAMED_UNIT ( * ) SI_UNIT ( $, .STERADIAN. ) SOLID_ANGLE_UNIT ( ) );
#293 =( GEOMETRIC_REPRESENTATION_CONTEXT ( 3 ) GLOBAL_UNCERTAINTY_ASSIGNED_CONTEXT ( ( #5 ) ) GLOBAL_UNIT_ASSIGNED_CONTEXT ( ( #251, #253, #292 ) ) REPRESENTATION_CONTEXT ( 'NONE', 'WORKASPACE' ) );
#294 = ORIENTED_EDGE ( 'NONE', *, *, #155, .F. ) ;
#295 = EDGE_LOOP ( 'NONE', ( #4, #53 ) ) ;
#296 = APPROVAL_PERSON_ORGANIZATION ( #311, #125, #270 ) ;
#297 = COORDINATED_UNIVERSAL_TIME_OFFSET ( 1, 0, .AHEAD. ) ;
#298 = EDGE_LOOP ( 'NONE', ( #288, #231, #30, #47 ) ) ;
#299 = DATE_TIME_ROLE ( 'creation_date' ) ;
#300 = AXIS2_PLACEMENT_3D ( 'NONE', #169, #69, #289 ) ;
#301 = ORGANIZATION ( 'UNSPECIFIED', 'UNSPECIFIED', '' ) ;
#302 = CARTESIAN_POINT ( 'NONE',  ( 4.189777606611760026E-14, -1.469576158976823947E-15, 12.00000000000000000 ) ) ;
#303 = FACE_OUTER_BOUND ( 'NONE', #298, .T. ) ;
#304 = VECTOR ( 'NONE', #271, 1000.000000000000000 ) ;
#305 = CARTESIAN_POINT ( 'NONE',  ( 4.189777606611760026E-14, 2.999999999999990674, 12.00000000000000000 ) ) ;
#306 = CARTESIAN_POINT ( 'NONE',  ( 1.282749433769084955E-30, 2.999999999999993783, 3.673940397442052472E-16 ) ) ;
#307 = DIRECTION ( 'NONE',  ( 0.000000000000000000, 1.000000000000000000, 0.000000000000000000 ) ) ;
#308 = PLANE ( 'NONE',  #136 ) ;
#309 = AXIS2_PLACEMENT_3D ( 'NONE', #23, #118, #219 ) ;
#310 = FACE_OUTER_BOUND ( 'NONE', #26, .T. ) ;
#311 = PERSON_AND_ORGANIZATION ( #54, #301 ) ;
#312 = FACE_OUTER_BOUND ( 'NONE', #131, .T. ) ;
#313 = APPROVAL ( #61, 'UNSPECIFIED' ) ;
ENDSEC;
END-ISO-10303-21;
