ISO-10303-21;
HEADER;
FILE_DESCRIPTION (( 'STEP AP203' ),
    '1' );
FILE_NAME ('372704.step',
    '2023-03-31T06:31:49',
    ( '' ),
    ( '' ),
    'SwSTEP 2.0',
    'SolidWorks 2022',
    '' );
FILE_SCHEMA (( 'CONFIG_CONTROL_DESIGN' ));
ENDSEC;

DATA;
#1 = ORIENTED_EDGE ( 'NONE', *, *, #260, .T. ) ;
#2 = EDGE_CURVE ( 'NONE', #106, #300, #321, .T. ) ;
#3 = FACE_OUTER_BOUND ( 'NONE', #313, .T. ) ;
#4 = ORIENTED_EDGE ( 'NONE', *, *, #236, .T. ) ;
#5 = PERSON_AND_ORGANIZATION ( #150, #235 ) ;
#6 = DIRECTION ( 'NONE',  ( -2.131628207280300558E-14, -1.000000000000000000, 0.000000000000000000 ) ) ;
#7 = CONICAL_SURFACE ( 'NONE', #281, 3.200000000000003730, 0.7853981633974512766 ) ;
#8 = EDGE_LOOP ( 'NONE', ( #10, #301, #33, #262 ) ) ;
#9 = VECTOR ( 'NONE', #107, 1000.000000000000114 ) ;
#10 = ORIENTED_EDGE ( 'NONE', *, *, #205, .F. ) ;
#11 = COORDINATED_UNIVERSAL_TIME_OFFSET ( 1, 0, .AHEAD. ) ;
#12 = CARTESIAN_POINT ( 'NONE',  ( 4.394967843532603637E-14, 2.499999999999997780, -6.123233995738297659E-16 ) ) ;
#13 = ORIENTED_EDGE ( 'NONE', *, *, #319, .T. ) ;
#14 = ORIENTED_EDGE ( 'NONE', *, *, #236, .F. ) ;
#15 = CARTESIAN_POINT ( 'NONE',  ( -6.413786353522006010E-31, 2.249653418127174851E-32, -1.836981421658449757E-16 ) ) ;
#16 = PERSON_AND_ORGANIZATION_ROLE ( 'design_owner' ) ;
#17 = DIRECTION ( 'NONE',  ( 0.000000000000000000, -1.000000000000000000, 0.000000000000000000 ) ) ;
#18 = ORIENTED_EDGE ( 'NONE', *, *, #278, .F. ) ;
#19 = DIRECTION ( 'NONE',  ( -3.491481338843133355E-15, 1.224646799147353207E-16, -1.000000000000000000 ) ) ;
#20 = AXIS2_PLACEMENT_3D ( 'NONE', #246, #67, #331 ) ;
#21 = CIRCLE ( 'NONE', #334, 2.499999999999998224 ) ;
#22 = DIRECTION ( 'NONE',  ( -4.275831445896958607E-31, -1.000000000000000000, -1.224646799147353207E-16 ) ) ;
#23 = CARTESIAN_POINT ( 'NONE',  ( 1.524389622222840670E-13, -5.573088707662932751E-15, 43.66025403784433223 ) ) ;
#24 = CARTESIAN_POINT ( 'NONE',  ( 8.728703347107833388E-14, -3.191168277921738509E-15, 25.00000000000000000 ) ) ;
#25 = CARTESIAN_POINT ( 'NONE',  ( 2.765253220363761617E-13, -9.699202649247037618E-15, 79.20000000000000284 ) ) ;
#26 = AXIS2_PLACEMENT_3D ( 'NONE', #198, #311, #40 ) ;
#27 = LOCAL_TIME ( 8, 31, 49.00000000000000000, #78 ) ;
#28 = CARTESIAN_POINT ( 'NONE',  ( 8.728703347107833388E-14, 2.999519565323708647E-32, 25.00000000000000000 ) ) ;
#29 = CARTESIAN_POINT ( 'NONE',  ( 2.793185071074506684E-13, -9.797174393178826052E-15, 80.00000000000000000 ) ) ;
#30 = CARTESIAN_POINT ( 'NONE',  ( 2.765253220363761617E-13, -9.699202649247037618E-15, 79.20000000000000284 ) ) ;
#31 = EDGE_CURVE ( 'NONE', #38, #120, #162, .T. ) ;
#32 = CIRCLE ( 'NONE', #355, 2.499999999999997780 ) ;
#33 = ORIENTED_EDGE ( 'NONE', *, *, #353, .T. ) ;
#34 = PRODUCT_DEFINITION_SHAPE ( 'NONE', 'NONE',  #363 ) ;
#35 = EDGE_LOOP ( 'NONE', ( #217, #239, #159, #73 ) ) ;
#36 = EDGE_LOOP ( 'NONE', ( #169, #292, #70, #264 ) ) ;
#37 = DIRECTION ( 'NONE',  ( 3.491481338843133355E-15, -1.276467311168695266E-16, 1.000000000000000000 ) ) ;
#38 = VERTEX_POINT ( 'NONE', #91 ) ;
#39 = CIRCLE ( 'NONE', #328, 2.499999999999998224 ) ;
#40 = DIRECTION ( 'NONE',  ( 1.000000000000000000, 0.000000000000000000, 0.000000000000000000 ) ) ;
#41 = CALENDAR_DATE ( 2023, 31, 3 ) ;
#42 = ORIENTED_EDGE ( 'NONE', *, *, #358, .T. ) ;
#43 = DIRECTION ( 'NONE',  ( 3.491481338843133355E-15, -1.276467311168695266E-16, 1.000000000000000000 ) ) ;
#44 = SHAPE_DEFINITION_REPRESENTATION ( #34, #284 ) ;
#45 = CALENDAR_DATE ( 2023, 31, 3 ) ;
#46 = CARTESIAN_POINT ( 'NONE',  ( 3.061616997868385606E-16, 2.499999999999997780, 1.354171574315284349E-16 ) ) ;
#47 =( NAMED_UNIT ( * ) PLANE_ANGLE_UNIT ( ) SI_UNIT ( $, .RADIAN. ) );
#48 = VECTOR ( 'NONE', #294, 1000.000000000000114 ) ;
#49 = DIRECTION ( 'NONE',  ( 3.491481338843133355E-15, -1.276467311168695266E-16, 1.000000000000000000 ) ) ;
#50 = ORIENTED_EDGE ( 'NONE', *, *, #2, .T. ) ;
#51 = AXIS2_PLACEMENT_3D ( 'NONE', #60, #203, #314 ) ;
#52 = CC_DESIGN_APPROVAL ( #123, ( #363 ) ) ;
#53 = CC_DESIGN_APPROVAL ( #62, ( #349 ) ) ;
#54 = FACE_OUTER_BOUND ( 'NONE', #35, .T. ) ;
#55 = DIRECTION ( 'NONE',  ( 3.491481338843133355E-15, -1.276467311168695266E-16, 1.000000000000000000 ) ) ;
#56 = DIRECTION ( 'NONE',  ( -3.491481338843133355E-15, 1.224646799147353207E-16, -1.000000000000000000 ) ) ;
#57 = DIRECTION ( 'NONE',  ( 0.000000000000000000, 1.000000000000000000, 0.000000000000000000 ) ) ;
#58 = LOCAL_TIME ( 8, 31, 49.00000000000000000, #79 ) ;
#59 = DIRECTION ( 'NONE',  ( 0.000000000000000000, -1.000000000000000000, 0.000000000000000000 ) ) ;
#60 = CARTESIAN_POINT ( 'NONE',  ( -6.413839710158237013E-31, 0.000000000000000000, -1.836996703606440502E-16 ) ) ;
#61 = CC_DESIGN_PERSON_AND_ORGANIZATION_ASSIGNMENT ( #219, #186, ( #363 ) ) ;
#62 = APPROVAL ( #283, 'UNSPECIFIED' ) ;
#63 = VECTOR ( 'NONE', #37, 1000.000000000000000 ) ;
#64 = DIRECTION ( 'NONE',  ( 0.000000000000000000, 1.000000000000000000, 0.000000000000000000 ) ) ;
#65 = VERTEX_POINT ( 'NONE', #197 ) ;
#66 = DATE_AND_TIME ( #312, #339 ) ;
#67 = DIRECTION ( 'NONE',  ( 3.491481338843133355E-15, -1.224646799147353207E-16, 1.000000000000000000 ) ) ;
#68 = FACE_OUTER_BOUND ( 'NONE', #320, .T. ) ;
#69 = EDGE_LOOP ( 'NONE', ( #141, #84, #104, #1 ) ) ;
#70 = ORIENTED_EDGE ( 'NONE', *, *, #196, .F. ) ;
#71 = EDGE_LOOP ( 'NONE', ( #4, #13 ) ) ;
#72 = AXIS2_PLACEMENT_3D ( 'NONE', #195, #285, #140 ) ;
#73 = ORIENTED_EDGE ( 'NONE', *, *, #31, .F. ) ;
#74 = LINE ( 'NONE', #302, #9 ) ;
#75 = CALENDAR_DATE ( 2023, 31, 3 ) ;
#76 = ORIENTED_EDGE ( 'NONE', *, *, #181, .T. ) ;
#77 = PERSON_AND_ORGANIZATION ( #150, #235 ) ;
#78 = COORDINATED_UNIVERSAL_TIME_OFFSET ( 1, 0, .AHEAD. ) ;
#79 = COORDINATED_UNIVERSAL_TIME_OFFSET ( 1, 0, .AHEAD. ) ;
#80 = ORIENTED_EDGE ( 'NONE', *, *, #174, .F. ) ;
#81 = DIRECTION ( 'NONE',  ( 0.000000000000000000, -1.000000000000000000, 0.000000000000000000 ) ) ;
#82 = DIRECTION ( 'NONE',  ( -3.491481338843133355E-15, 1.224646799147353207E-16, -1.000000000000000000 ) ) ;
#83 = LINE ( 'NONE', #188, #333 ) ;
#84 = ORIENTED_EDGE ( 'NONE', *, *, #89, .T. ) ;
#85 = DIRECTION ( 'NONE',  ( -3.491481338843133355E-15, 1.224646799147353207E-16, -1.000000000000000000 ) ) ;
#86 = FACE_OUTER_BOUND ( 'NONE', #94, .T. ) ;
#87 = AXIS2_PLACEMENT_3D ( 'NONE', #244, #212, #81 ) ;
#88 = LINE ( 'NONE', #224, #103 ) ;
#89 = EDGE_CURVE ( 'NONE', #145, #258, #39, .T. ) ;
#90 = DIRECTION ( 'NONE',  ( -3.491481338843133355E-15, 1.224646799147353207E-16, -1.000000000000000000 ) ) ;
#91 = CARTESIAN_POINT ( 'NONE',  ( 1.921688257860669051E-13, -4.000000000000013323, 79.20000000000000284 ) ) ;
#92 = CARTESIAN_POINT ( 'NONE',  ( 2.793185071074506684E-13, 3.199999999999993516, 80.00000000000000000 ) ) ;
#93 = PRODUCT ( '372704', '372704', '', ( #152 ) ) ;
#94 = EDGE_LOOP ( 'NONE', ( #50, #274, #80, #18 ) ) ;
#95 = VERTEX_POINT ( 'NONE', #257 ) ;
#96 = CARTESIAN_POINT ( 'NONE',  ( 1.524389622222840670E-13, -5.573088707662932751E-15, 43.66025403784433223 ) ) ;
#97 = EDGE_CURVE ( 'NONE', #201, #318, #32, .T. ) ;
#98 = UNCERTAINTY_MEASURE_WITH_UNIT (LENGTH_MEASURE( 1.000000000000000082E-05 ), #182, 'distance_accuracy_value', 'NONE');
#99 = ADVANCED_FACE ( 'NONE', ( #228 ), #142, .T. ) ;
#100 = ORIENTED_EDGE ( 'NONE', *, *, #2, .F. ) ;
#101 = DIRECTION ( 'NONE',  ( 4.275831445896958607E-31, 1.000000000000000000, 1.224646799147353207E-16 ) ) ;
#102 = CC_DESIGN_PERSON_AND_ORGANIZATION_ASSIGNMENT ( #165, #305, ( #309 ) ) ;
#103 = VECTOR ( 'NONE', #306, 1000.000000000000114 ) ;
#104 = ORIENTED_EDGE ( 'NONE', *, *, #157, .T. ) ;
#105 = CARTESIAN_POINT ( 'NONE',  ( -6.413839710158237013E-31, 0.000000000000000000, -1.836996703606440502E-16 ) ) ;
#106 = VERTEX_POINT ( 'NONE', #92 ) ;
#107 = DIRECTION ( 'NONE',  ( -2.382254525458708792E-15, -0.7071067811865495711, -0.7071067811865455743 ) ) ;
#108 = CARTESIAN_POINT ( 'NONE',  ( 4.898587196589396065E-16, -4.000000000000000000, -4.898587196589429592E-16 ) ) ;
#109 = DIRECTION ( 'NONE',  ( 3.404208188709233524E-15, 0.2588190451025212946, 0.9659258262890682012 ) ) ;
#110 = AXIS2_PLACEMENT_3D ( 'NONE', #216, #265, #101 ) ;
#111 = CYLINDRICAL_SURFACE ( 'NONE', #176, 4.000000000000000000 ) ;
#112 = FACE_OUTER_BOUND ( 'NONE', #71, .T. ) ;
#113 = ADVANCED_FACE ( 'NONE', ( #68 ), #291, .T. ) ;
#114 = CARTESIAN_POINT ( 'NONE',  ( 1.916789670664081665E-13, 3.999999999999995559, 30.59807621135330535 ) ) ;
#115 = AXIS2_PLACEMENT_3D ( 'NONE', #23, #49, #17 ) ;
#116 = CIRCLE ( 'NONE', #87, 2.499999999999998224 ) ;
#117 = DIRECTION ( 'NONE',  ( -3.491481338843133355E-15, 1.224646799147353207E-16, -1.000000000000000000 ) ) ;
#118 = DIRECTION ( 'NONE',  ( -4.456761796588771413E-31, -1.000000000000000000, -1.276467311168695019E-16 ) ) ;
#119 = LINE ( 'NONE', #151, #48 ) ;
#120 = VERTEX_POINT ( 'NONE', #175 ) ;
#121 = ADVANCED_FACE ( 'NONE', ( #3 ), #231, .T. ) ;
#122 = ORIENTED_EDGE ( 'NONE', *, *, #196, .T. ) ;
#123 = APPROVAL ( #160, 'UNSPECIFIED' ) ;
#124 = DATE_AND_TIME ( #45, #222 ) ;
#125 = DIRECTION ( 'NONE',  ( -3.491481338843133355E-15, 1.276467311168695266E-16, -1.000000000000000000 ) ) ;
#126 = APPROVAL_DATE_TIME ( #124, #123 ) ;
#127 = APPLICATION_PROTOCOL_DEFINITION ( 'international standard', 'config_control_design', 1994, #158 ) ;
#128 = VERTEX_POINT ( 'NONE', #114 ) ;
#129 = CC_DESIGN_PERSON_AND_ORGANIZATION_ASSIGNMENT ( #316, #16, ( #93 ) ) ;
#130 = PLANE ( 'NONE',  #20 ) ;
#131 = AXIS2_PLACEMENT_3D ( 'NONE', #248, #133, #223 ) ;
#132 = APPROVAL_DATE_TIME ( #171, #163 ) ;
#133 = DIRECTION ( 'NONE',  ( -3.491481338843133355E-15, 1.224646799147353207E-16, -1.000000000000000000 ) ) ;
#134 = CC_DESIGN_DATE_AND_TIME_ASSIGNMENT ( #66, #200, ( #349 ) ) ;
#135 = CARTESIAN_POINT ( 'NONE',  ( -3.252106172095669792E-30, 9.544663782522175102E-32, -9.314402273658498283E-16 ) ) ;
#136 = PERSON_AND_ORGANIZATION ( #150, #235 ) ;
#137 = DIRECTION ( 'NONE',  ( -3.491481338843133355E-15, 1.224646799147353207E-16, -1.000000000000000000 ) ) ;
#138 = DIRECTION ( 'NONE',  ( 3.491481338843133355E-15, -1.276467311168695266E-16, 1.000000000000000000 ) ) ;
#139 = DIRECTION ( 'NONE',  ( 3.491481338843133355E-15, -1.224646799147353207E-16, 1.000000000000000000 ) ) ;
#140 = DIRECTION ( 'NONE',  ( 0.000000000000000000, -1.000000000000000000, 0.000000000000000000 ) ) ;
#141 = ORIENTED_EDGE ( 'NONE', *, *, #181, .F. ) ;
#142 = CONICAL_SURFACE ( 'NONE', #221, 7.499999999999998224, 0.2617993877991501295 ) ;
#143 = AXIS2_PLACEMENT_3D ( 'NONE', #105, #242, #352 ) ;
#144 = DIRECTION ( 'NONE',  ( -3.491481338843133355E-15, 1.224646799147353207E-16, -1.000000000000000000 ) ) ;
#145 = VERTEX_POINT ( 'NONE', #250 ) ;
#146 = ORIENTED_EDGE ( 'NONE', *, *, #183, .T. ) ;
#147 = CIRCLE ( 'NONE', #261, 4.000000000000000000 ) ;
#148 = ORIENTED_EDGE ( 'NONE', *, *, #353, .F. ) ;
#149 = PERSON_AND_ORGANIZATION ( #150, #235 ) ;
#150 = PERSON ( 'UNSPECIFIED', 'UNSPECIFIED', 'UNSPECIFIED', ('UNSPECIFIED'), ('UNSPECIFIED'), ('UNSPECIFIED') ) ;
#151 = CARTESIAN_POINT ( 'NONE',  ( 2.793185071074506684E-13, 3.199999999999993516, 80.00000000000000000 ) ) ;
#152 = MECHANICAL_CONTEXT ( 'NONE', #210, 'mechanical' ) ;
#153 = PERSON_AND_ORGANIZATION ( #150, #235 ) ;
#154 = AXIS2_PLACEMENT_3D ( 'NONE', #30, #144, #335 ) ;
#155 = ORIENTED_EDGE ( 'NONE', *, *, #260, .F. ) ;
#156 = CC_DESIGN_SECURITY_CLASSIFICATION ( #349, ( #309 ) ) ;
#157 = EDGE_CURVE ( 'NONE', #258, #95, #88, .T. ) ;
#158 = APPLICATION_CONTEXT ( 'configuration controlled 3d designs of mechanical parts and assemblies' ) ;
#159 = ORIENTED_EDGE ( 'NONE', *, *, #278, .T. ) ;
#160 = APPROVAL_STATUS ( 'not_yet_approved' ) ;
#161 = DIRECTION ( 'NONE',  ( 0.000000000000000000, 1.000000000000000000, 0.000000000000000000 ) ) ;
#162 = CIRCLE ( 'NONE', #154, 4.000000000000003553 ) ;
#163 = APPROVAL ( #276, 'UNSPECIFIED' ) ;
#164 = PLANE ( 'NONE',  #293 ) ;
#165 = PERSON_AND_ORGANIZATION ( #150, #235 ) ;
#166 = MANIFOLD_SOLID_BREP ( 'Corps-Déplacer/Copier1[2]', #225 ) ;
#167 = CARTESIAN_POINT ( 'NONE',  ( 2.793185071074506684E-13, -9.797174393178826052E-15, 80.00000000000000000 ) ) ;
#168 = PERSON_AND_ORGANIZATION_ROLE ( 'design_supplier' ) ;
#169 = ORIENTED_EDGE ( 'NONE', *, *, #174, .T. ) ;
#170 = AXIS2_PLACEMENT_3D ( 'NONE', #252, #19, #191 ) ;
#171 = DATE_AND_TIME ( #41, #356 ) ;
#172 = DIRECTION ( 'NONE',  ( 3.491481338843133355E-15, -1.276467311168695266E-16, 1.000000000000000000 ) ) ;
#173 = ORIENTED_EDGE ( 'NONE', *, *, #31, .T. ) ;
#174 = EDGE_CURVE ( 'NONE', #120, #38, #343, .T. ) ;
#175 = CARTESIAN_POINT ( 'NONE',  ( 2.765253220363761617E-13, 3.999999999999994227, 79.20000000000000284 ) ) ;
#176 = AXIS2_PLACEMENT_3D ( 'NONE', #330, #85, #350 ) ;
#177 = AXIS2_PLACEMENT_3D ( 'NONE', #135, #138, #359 ) ;
#178 = ADVANCED_FACE ( 'NONE', ( #54 ), #7, .T. ) ;
#179 =( NAMED_UNIT ( * ) SI_UNIT ( $, .STERADIAN. ) SOLID_ANGLE_UNIT ( ) );
#180 = LINE ( 'NONE', #324, #337 ) ;
#181 = EDGE_CURVE ( 'NONE', #145, #128, #329, .T. ) ;
#182 =( LENGTH_UNIT ( ) NAMED_UNIT ( * ) SI_UNIT ( .MILLI., .METRE. ) );
#183 = EDGE_CURVE ( 'NONE', #120, #128, #83, .T. ) ;
#184 = APPROVAL_ROLE ( '' ) ;
#185 = FACE_OUTER_BOUND ( 'NONE', #317, .T. ) ;
#186 = PERSON_AND_ORGANIZATION_ROLE ( 'creator' ) ;
#187 = FACE_OUTER_BOUND ( 'NONE', #341, .T. ) ;
#188 = CARTESIAN_POINT ( 'NONE',  ( 1.710332578358783443E-30, 4.000000000000000000, 4.898587196589412829E-16 ) ) ;
#189 = ORIENTED_EDGE ( 'NONE', *, *, #205, .T. ) ;
#190 = LINE ( 'NONE', #108, #336 ) ;
#191 = DIRECTION ( 'NONE',  ( 4.275831445896958607E-31, 1.000000000000000000, 1.224646799147353207E-16 ) ) ;
#192 = ADVANCED_FACE ( 'NONE', ( #357 ), #111, .T. ) ;
#193 = DIRECTION ( 'NONE',  ( 0.000000000000000000, -1.000000000000000000, 0.000000000000000000 ) ) ;
#194 = PRODUCT_RELATED_PRODUCT_CATEGORY ( 'detail', '', ( #93 ) ) ;
#195 = CARTESIAN_POINT ( 'NONE',  ( 1.068326120964400576E-13, -3.905744406844097492E-15, 30.59807621135330535 ) ) ;
#196 = EDGE_CURVE ( 'NONE', #128, #95, #147, .T. ) ;
#197 = CARTESIAN_POINT ( 'NONE',  ( 8.728703347107833388E-14, -2.500000000000001332, 25.00000000000000000 ) ) ;
#198 = CARTESIAN_POINT ( 'NONE',  ( 0.000000000000000000, 0.000000000000000000, 0.000000000000000000 ) ) ;
#199 = CC_DESIGN_APPROVAL ( #163, ( #309 ) ) ;
#200 = DATE_TIME_ROLE ( 'classification_date' ) ;
#201 = VERTEX_POINT ( 'NONE', #213 ) ;
#202 = APPROVAL_ROLE ( '' ) ;
#203 = DIRECTION ( 'NONE',  ( 3.491481338843133355E-15, -1.276467311168695266E-16, 1.000000000000000000 ) ) ;
#204 = DIRECTION ( 'NONE',  ( 3.491481338843133355E-15, -1.276467311168695266E-16, 1.000000000000000000 ) ) ;
#205 = EDGE_CURVE ( 'NONE', #318, #259, #299, .T. ) ;
#206 = PLANE ( 'NONE',  #277 ) ;
#207 = PERSON_AND_ORGANIZATION_ROLE ( 'classification_officer' ) ;
#208 = DATE_TIME_ROLE ( 'creation_date' ) ;
#209 = APPROVAL_PERSON_ORGANIZATION ( #77, #123, #272 ) ;
#210 = APPLICATION_CONTEXT ( 'configuration controlled 3d designs of mechanical parts and assemblies' ) ;
#211 = ADVANCED_FACE ( 'NONE', ( #279 ), #271, .T. ) ;
#212 = DIRECTION ( 'NONE',  ( 3.491481338843133355E-15, -1.276467311168695266E-16, 1.000000000000000000 ) ) ;
#213 = CARTESIAN_POINT ( 'NONE',  ( -4.366296621242861857E-30, -2.499999999999997780, -1.250557055158023324E-15 ) ) ;
#214 = ORIENTED_EDGE ( 'NONE', *, *, #226, .F. ) ;
#215 = EDGE_CURVE ( 'NONE', #300, #106, #361, .T. ) ;
#216 = CARTESIAN_POINT ( 'NONE',  ( 2.793185071074506684E-13, 2.399615652258959856E-32, 80.00000000000000000 ) ) ;
#217 = ORIENTED_EDGE ( 'NONE', *, *, #288, .F. ) ;
#218 = FACE_OUTER_BOUND ( 'NONE', #8, .T. ) ;
#219 = PERSON_AND_ORGANIZATION ( #150, #235 ) ;
#220 = VECTOR ( 'NONE', #109, 1000.000000000000227 ) ;
#221 = AXIS2_PLACEMENT_3D ( 'NONE', #96, #204, #338 ) ;
#222 = LOCAL_TIME ( 8, 31, 49.00000000000000000, #11 ) ;
#223 = DIRECTION ( 'NONE',  ( 0.000000000000000000, 1.000000000000000000, 0.000000000000000000 ) ) ;
#224 = CARTESIAN_POINT ( 'NONE',  ( 1.524389622222840670E-13, -7.500000000000003553, 43.66025403784433223 ) ) ;
#225 = CLOSED_SHELL ( 'NONE', ( #113, #238, #280, #290 ) ) ;
#226 = EDGE_CURVE ( 'NONE', #38, #95, #190, .T. ) ;
#227 = ADVANCED_FACE ( 'NONE', ( #187 ), #130, .F. ) ;
#228 = FACE_OUTER_BOUND ( 'NONE', #69, .T. ) ;
#229 = CIRCLE ( 'NONE', #177, 2.499999999999997780 ) ;
#230 = CC_DESIGN_DATE_AND_TIME_ASSIGNMENT ( #347, #208, ( #363 ) ) ;
#231 = CYLINDRICAL_SURFACE ( 'NONE', #170, 4.000000000000000000 ) ;
#232 = EDGE_LOOP ( 'NONE', ( #100, #345 ) ) ;
#233 = CARTESIAN_POINT ( 'NONE',  ( -3.252106172095669792E-30, 9.544663782522175102E-32, -9.314402273658498283E-16 ) ) ;
#234 = APPLICATION_PROTOCOL_DEFINITION ( 'international standard', 'config_control_design', 1994, #210 ) ;
#235 = ORGANIZATION ( 'UNSPECIFIED', 'UNSPECIFIED', '' ) ;
#236 = EDGE_CURVE ( 'NONE', #65, #259, #21, .T. ) ;
#237 = FACE_OUTER_BOUND ( 'NONE', #232, .T. ) ;
#238 = ADVANCED_FACE ( 'NONE', ( #112 ), #164, .T. ) ;
#239 = ORIENTED_EDGE ( 'NONE', *, *, #215, .T. ) ;
#240 = PLANE ( 'NONE',  #110 ) ;
#241 = CIRCLE ( 'NONE', #72, 4.000000000000000000 ) ;
#242 = DIRECTION ( 'NONE',  ( 3.491481338843133355E-15, -1.276467311168695266E-16, 1.000000000000000000 ) ) ;
#243 = DIRECTION ( 'NONE',  ( 0.000000000000000000, 1.000000000000000000, 0.000000000000000000 ) ) ;
#244 = CARTESIAN_POINT ( 'NONE',  ( 8.728703347107833388E-14, -3.191168277921738509E-15, 25.00000000000000000 ) ) ;
#245 = EDGE_CURVE ( 'NONE', #318, #201, #229, .T. ) ;
#246 = CARTESIAN_POINT ( 'NONE',  ( 8.728703347107833388E-14, 2.999519565323708647E-32, 25.00000000000000000 ) ) ;
#247 = AXIS2_PLACEMENT_3D ( 'NONE', #29, #117, #64 ) ;
#248 = CARTESIAN_POINT ( 'NONE',  ( 2.793185071074506684E-13, -9.797174393178826052E-15, 80.00000000000000000 ) ) ;
#249 = ADVANCED_FACE ( 'NONE', ( #86 ), #273, .T. ) ;
#250 = CARTESIAN_POINT ( 'NONE',  ( 9.745783299348210391E-14, 2.499999999999995115, 25.00000000000000000 ) ) ;
#251 = CARTESIAN_POINT ( 'NONE',  ( 8.728703347107833388E-14, -2.500000000000001332, 25.00000000000000000 ) ) ;
#252 = CARTESIAN_POINT ( 'NONE',  ( 0.000000000000000000, 0.000000000000000000, 0.000000000000000000 ) ) ;
#253 = AXIS2_PLACEMENT_3D ( 'NONE', #275, #43, #325 ) ;
#254 = CARTESIAN_POINT ( 'NONE',  ( 8.728703347107833388E-14, -3.191168277921738509E-15, 25.00000000000000000 ) ) ;
#255 = ORIENTED_EDGE ( 'NONE', *, *, #97, .T. ) ;
#256 = APPROVAL_PERSON_ORGANIZATION ( #153, #163, #184 ) ;
#257 = CARTESIAN_POINT ( 'NONE',  ( 1.921688257860670818E-13, -4.000000000000004441, 30.59807621135330535 ) ) ;
#258 = VERTEX_POINT ( 'NONE', #251 ) ;
#259 = VERTEX_POINT ( 'NONE', #360 ) ;
#260 = EDGE_CURVE ( 'NONE', #95, #128, #241, .T. ) ;
#261 = AXIS2_PLACEMENT_3D ( 'NONE', #267, #125, #6 ) ;
#262 = ORIENTED_EDGE ( 'NONE', *, *, #319, .F. ) ;
#263 = EDGE_LOOP ( 'NONE', ( #42, #76, #122, #340 ) ) ;
#264 = ORIENTED_EDGE ( 'NONE', *, *, #183, .F. ) ;
#265 = DIRECTION ( 'NONE',  ( -3.491481338843133355E-15, 1.224646799147353207E-16, -1.000000000000000000 ) ) ;
#266 = DATE_AND_TIME ( #269, #27 ) ;
#267 = CARTESIAN_POINT ( 'NONE',  ( 1.068326120964400576E-13, -3.905744406844097492E-15, 30.59807621135330535 ) ) ;
#268 = DIRECTION ( 'NONE',  ( 3.491481338843133355E-15, -1.224646799147353207E-16, 1.000000000000000000 ) ) ;
#269 = CALENDAR_DATE ( 2023, 31, 3 ) ;
#270 = CYLINDRICAL_SURFACE ( 'NONE', #143, 2.499999999999997780 ) ;
#271 = CONICAL_SURFACE ( 'NONE', #115, 7.499999999999998224, 0.2617993877991501295 ) ;
#272 = APPROVAL_ROLE ( '' ) ;
#273 = CONICAL_SURFACE ( 'NONE', #344, 3.200000000000003730, 0.7853981633974512766 ) ;
#274 = ORIENTED_EDGE ( 'NONE', *, *, #288, .T. ) ;
#275 = CARTESIAN_POINT ( 'NONE',  ( 8.728703347107833388E-14, -3.191168277921738509E-15, 25.00000000000000000 ) ) ;
#276 = APPROVAL_STATUS ( 'not_yet_approved' ) ;
#277 = AXIS2_PLACEMENT_3D ( 'NONE', #15, #268, #346 ) ;
#278 = EDGE_CURVE ( 'NONE', #106, #120, #119, .T. ) ;
#279 = FACE_OUTER_BOUND ( 'NONE', #263, .T. ) ;
#280 = ADVANCED_FACE ( 'NONE', ( #218 ), #270, .T. ) ;
#281 = AXIS2_PLACEMENT_3D ( 'NONE', #167, #56, #243 ) ;
#282 = CIRCLE ( 'NONE', #253, 2.499999999999998224 ) ;
#283 = APPROVAL_STATUS ( 'not_yet_approved' ) ;
#284 = ADVANCED_BREP_SHAPE_REPRESENTATION ( '372704', ( #289, #166, #26 ), #322 ) ;
#285 = DIRECTION ( 'NONE',  ( -3.491481338843133355E-15, 1.276467311168695266E-16, -1.000000000000000000 ) ) ;
#286 = CLOSED_SHELL ( 'NONE', ( #211, #249, #192, #121, #178, #308, #99, #227 ) ) ;
#287 = DESIGN_CONTEXT ( 'detailed design', #158, 'design' ) ;
#288 = EDGE_CURVE ( 'NONE', #300, #38, #74, .T. ) ;
#289 = MANIFOLD_SOLID_BREP ( 'Corps-Déplacer/Copier1[1]', #286 ) ;
#290 = ADVANCED_FACE ( 'NONE', ( #185 ), #206, .F. ) ;
#291 = CYLINDRICAL_SURFACE ( 'NONE', #51, 2.499999999999997780 ) ;
#292 = ORIENTED_EDGE ( 'NONE', *, *, #226, .T. ) ;
#293 = AXIS2_PLACEMENT_3D ( 'NONE', #28, #139, #22 ) ;
#294 = DIRECTION ( 'NONE',  ( -2.468850131082257455E-15, 0.7071067811865497932, -0.7071067811865453523 ) ) ;
#295 = COORDINATED_UNIVERSAL_TIME_OFFSET ( 1, 0, .AHEAD. ) ;
#296 = DIRECTION ( 'NONE',  ( 3.491481338843133355E-15, -1.276467311168695266E-16, 1.000000000000000000 ) ) ;
#297 = ORIENTED_EDGE ( 'NONE', *, *, #89, .F. ) ;
#298 = APPROVAL_DATE_TIME ( #266, #62 ) ;
#299 = LINE ( 'NONE', #46, #63 ) ;
#300 = VERTEX_POINT ( 'NONE', #327 ) ;
#301 = ORIENTED_EDGE ( 'NONE', *, *, #245, .T. ) ;
#302 = CARTESIAN_POINT ( 'NONE',  ( 2.797103940831777906E-13, -3.200000000000013500, 80.00000000000000000 ) ) ;
#303 = DIRECTION ( 'NONE',  ( -3.491481338843133355E-15, 1.224646799147353207E-16, -1.000000000000000000 ) ) ;
#304 = CARTESIAN_POINT ( 'NONE',  ( 2.793185071074506684E-13, -9.797174393178826052E-15, 80.00000000000000000 ) ) ;
#305 = PERSON_AND_ORGANIZATION_ROLE ( 'creator' ) ;
#306 = DIRECTION ( 'NONE',  ( 3.372511997194914833E-15, -0.2588190451025214611, 0.9659258262890679791 ) ) ;
#307 = ORIENTED_EDGE ( 'NONE', *, *, #245, .F. ) ;
#308 = ADVANCED_FACE ( 'NONE', ( #237 ), #240, .F. ) ;
#309 = PRODUCT_DEFINITION_FORMATION_WITH_SPECIFIED_SOURCE ( 'ANY', '', #93, .NOT_KNOWN. ) ;
#310 = DIRECTION ( 'NONE',  ( 3.491481338843133355E-15, -1.276467311168695266E-16, 1.000000000000000000 ) ) ;
#311 = DIRECTION ( 'NONE',  ( 0.000000000000000000, 0.000000000000000000, 1.000000000000000000 ) ) ;
#312 = CALENDAR_DATE ( 2023, 31, 3 ) ;
#313 = EDGE_LOOP ( 'NONE', ( #214, #173, #146, #155 ) ) ;
#314 = DIRECTION ( 'NONE',  ( -4.456761796588770537E-31, -1.000000000000000000, -1.276467311168695512E-16 ) ) ;
#315 = COORDINATED_UNIVERSAL_TIME_OFFSET ( 1, 0, .AHEAD. ) ;
#316 = PERSON_AND_ORGANIZATION ( #150, #235 ) ;
#317 = EDGE_LOOP ( 'NONE', ( #326, #307 ) ) ;
#318 = VERTEX_POINT ( 'NONE', #12 ) ;
#319 = EDGE_CURVE ( 'NONE', #259, #65, #116, .T. ) ;
#320 = EDGE_LOOP ( 'NONE', ( #255, #189, #14, #148 ) ) ;
#321 = CIRCLE ( 'NONE', #247, 3.200000000000003730 ) ;
#322 =( GEOMETRIC_REPRESENTATION_CONTEXT ( 3 ) GLOBAL_UNCERTAINTY_ASSIGNED_CONTEXT ( ( #98 ) ) GLOBAL_UNIT_ASSIGNED_CONTEXT ( ( #182, #47, #179 ) ) REPRESENTATION_CONTEXT ( 'NONE', 'WORKASPACE' ) );
#323 = APPROVAL_PERSON_ORGANIZATION ( #5, #62, #202 ) ;
#324 = CARTESIAN_POINT ( 'NONE',  ( -1.755574420163015328E-30, -2.499999999999997780, -5.028164981528175955E-16 ) ) ;
#325 = DIRECTION ( 'NONE',  ( 0.000000000000000000, -1.000000000000000000, 0.000000000000000000 ) ) ;
#326 = ORIENTED_EDGE ( 'NONE', *, *, #97, .F. ) ;
#327 = CARTESIAN_POINT ( 'NONE',  ( 2.783627874196064465E-13, -3.200000000000013500, 80.00000000000000000 ) ) ;
#328 = AXIS2_PLACEMENT_3D ( 'NONE', #254, #310, #59 ) ;
#329 = LINE ( 'NONE', #354, #220 ) ;
#330 = CARTESIAN_POINT ( 'NONE',  ( 0.000000000000000000, 0.000000000000000000, 0.000000000000000000 ) ) ;
#331 = DIRECTION ( 'NONE',  ( -4.275831445896958607E-31, -1.000000000000000000, -1.224646799147353207E-16 ) ) ;
#332 = CC_DESIGN_PERSON_AND_ORGANIZATION_ASSIGNMENT ( #136, #168, ( #309 ) ) ;
#333 = VECTOR ( 'NONE', #303, 1000.000000000000000 ) ;
#334 = AXIS2_PLACEMENT_3D ( 'NONE', #24, #55, #193 ) ;
#335 = DIRECTION ( 'NONE',  ( 0.000000000000000000, 1.000000000000000000, 0.000000000000000000 ) ) ;
#336 = VECTOR ( 'NONE', #82, 1000.000000000000000 ) ;
#337 = VECTOR ( 'NONE', #296, 1000.000000000000000 ) ;
#338 = DIRECTION ( 'NONE',  ( 0.000000000000000000, -1.000000000000000000, 0.000000000000000000 ) ) ;
#339 = LOCAL_TIME ( 8, 31, 49.00000000000000000, #315 ) ;
#340 = ORIENTED_EDGE ( 'NONE', *, *, #157, .F. ) ;
#341 = EDGE_LOOP ( 'NONE', ( #351, #297 ) ) ;
#342 = CC_DESIGN_PERSON_AND_ORGANIZATION_ASSIGNMENT ( #149, #207, ( #349 ) ) ;
#343 = CIRCLE ( 'NONE', #348, 4.000000000000003553 ) ;
#344 = AXIS2_PLACEMENT_3D ( 'NONE', #304, #90, #57 ) ;
#345 = ORIENTED_EDGE ( 'NONE', *, *, #215, .F. ) ;
#346 = DIRECTION ( 'NONE',  ( -4.275831445896958607E-31, -1.000000000000000000, -1.224646799147353207E-16 ) ) ;
#347 = DATE_AND_TIME ( #75, #58 ) ;
#348 = AXIS2_PLACEMENT_3D ( 'NONE', #25, #137, #161 ) ;
#349 = SECURITY_CLASSIFICATION ( '', '', #362 ) ;
#350 = DIRECTION ( 'NONE',  ( 4.275831445896958607E-31, 1.000000000000000000, 1.224646799147353207E-16 ) ) ;
#351 = ORIENTED_EDGE ( 'NONE', *, *, #358, .F. ) ;
#352 = DIRECTION ( 'NONE',  ( -4.456761796588770537E-31, -1.000000000000000000, -1.276467311168695512E-16 ) ) ;
#353 = EDGE_CURVE ( 'NONE', #201, #65, #180, .T. ) ;
#354 = CARTESIAN_POINT ( 'NONE',  ( 1.533574473216445680E-13, 7.499999999999992895, 43.66025403784433223 ) ) ;
#355 = AXIS2_PLACEMENT_3D ( 'NONE', #233, #172, #118 ) ;
#356 = LOCAL_TIME ( 8, 31, 49.00000000000000000, #295 ) ;
#357 = FACE_OUTER_BOUND ( 'NONE', #36, .T. ) ;
#358 = EDGE_CURVE ( 'NONE', #258, #145, #282, .T. ) ;
#359 = DIRECTION ( 'NONE',  ( -4.456761796588771413E-31, -1.000000000000000000, -1.276467311168695019E-16 ) ) ;
#360 = CARTESIAN_POINT ( 'NONE',  ( 4.394967843532600481E-14, 2.499999999999995115, 25.00000000000000000 ) ) ;
#361 = CIRCLE ( 'NONE', #131, 3.200000000000003730 ) ;
#362 = SECURITY_CLASSIFICATION_LEVEL ( 'unclassified' ) ;
#363 = PRODUCT_DEFINITION ( 'UNKNOWN', '', #309, #287 ) ;
ENDSEC;
END-ISO-10303-21;
