ISO-10303-21;
HEADER;
FILE_DESCRIPTION (( 'STEP AP203' ),
    '1' );
FILE_NAME ('372703.step',
    '2023-03-31T06:31:49',
    ( '' ),
    ( '' ),
    'SwSTEP 2.0',
    'SolidWorks 2022',
    '' );
FILE_SCHEMA (( 'CONFIG_CONTROL_DESIGN' ));
ENDSEC;

DATA;
#1 = AXIS2_PLACEMENT_3D ( 'NONE', #362, #313, #148 ) ;
#2 = CARTESIAN_POINT ( 'NONE',  ( 4.189777606611760026E-14, -2.499999999999998668, 12.00000000000000000 ) ) ;
#3 = DIRECTION ( 'NONE',  ( 4.275831445896958607E-31, 1.000000000000000000, 1.224646799147353207E-16 ) ) ;
#4 = ORIENTED_EDGE ( 'NONE', *, *, #185, .F. ) ;
#5 = UNCERTAINTY_MEASURE_WITH_UNIT (LENGTH_MEASURE( 1.000000000000000082E-05 ), #312, 'distance_accuracy_value', 'NONE');
#6 = ORIENTED_EDGE ( 'NONE', *, *, #230, .T. ) ;
#7 = DIRECTION ( 'NONE',  ( -3.491481338843133355E-15, 1.224646799147353207E-16, -1.000000000000000000 ) ) ;
#8 = AXIS2_PLACEMENT_3D ( 'NONE', #138, #85, #140 ) ;
#9 = AXIS2_PLACEMENT_3D ( 'NONE', #93, #22, #359 ) ;
#10 = PERSON ( 'UNSPECIFIED', 'UNSPECIFIED', 'UNSPECIFIED', ('UNSPECIFIED'), ('UNSPECIFIED'), ('UNSPECIFIED') ) ;
#11 = VERTEX_POINT ( 'NONE', #130 ) ;
#12 = DIRECTION ( 'NONE',  ( 0.000000000000000000, -1.000000000000000000, 0.000000000000000000 ) ) ;
#13 = CARTESIAN_POINT ( 'NONE',  ( 1.745740669421566678E-13, -6.123233995736766085E-15, 50.00000000000000000 ) ) ;
#14 = DIRECTION ( 'NONE',  ( 3.491481338843133355E-15, -1.276467311168695266E-16, 1.000000000000000000 ) ) ;
#15 = CALENDAR_DATE ( 2023, 31, 3 ) ;
#16 = LOCAL_TIME ( 8, 31, 49.00000000000000000, #190 ) ;
#17 = CARTESIAN_POINT ( 'NONE',  ( -3.252106172095669792E-30, 9.544663782522175102E-32, -9.314402273658498283E-16 ) ) ;
#18 = DIRECTION ( 'NONE',  ( 0.000000000000000000, 1.000000000000000000, 0.000000000000000000 ) ) ;
#19 = ORIENTED_EDGE ( 'NONE', *, *, #314, .T. ) ;
#20 = ORIENTED_EDGE ( 'NONE', *, *, #268, .T. ) ;
#21 = DATE_AND_TIME ( #285, #329 ) ;
#22 = DIRECTION ( 'NONE',  ( 3.491481338843133355E-15, -1.276467311168695266E-16, 1.000000000000000000 ) ) ;
#23 = ADVANCED_FACE ( 'NONE', ( #347 ), #104, .T. ) ;
#24 = CONICAL_SURFACE ( 'NONE', #170, 7.499999999999997335, 0.2617993877991501850 ) ;
#25 = LOCAL_TIME ( 8, 31, 49.00000000000000000, #39 ) ;
#26 = DIRECTION ( 'NONE',  ( 0.000000000000000000, 0.000000000000000000, 1.000000000000000000 ) ) ;
#27 = DIRECTION ( 'NONE',  ( -4.275831445896958607E-31, -1.000000000000000000, -1.224646799147353207E-16 ) ) ;
#28 = CARTESIAN_POINT ( 'NONE',  ( 1.745740669421566678E-13, 2.399999999999991473, 50.00000000000000000 ) ) ;
#29 = CARTESIAN_POINT ( 'NONE',  ( 1.745740669421566678E-13, -6.123233995736766085E-15, 50.00000000000000000 ) ) ;
#30 = DIRECTION ( 'NONE',  ( -4.275831445896958607E-31, -1.000000000000000000, -1.224646799147353207E-16 ) ) ;
#31 = CC_DESIGN_DATE_AND_TIME_ASSIGNMENT ( #21, #224, ( #351 ) ) ;
#32 = CLOSED_SHELL ( 'NONE', ( #250, #23, #189, #355 ) ) ;
#33 = AXIS2_PLACEMENT_3D ( 'NONE', #66, #220, #324 ) ;
#34 = CARTESIAN_POINT ( 'NONE',  ( 1.745740669421566678E-13, 1.799711739194218455E-32, 50.00000000000000000 ) ) ;
#35 = ORIENTED_EDGE ( 'NONE', *, *, #290, .F. ) ;
#36 = VECTOR ( 'NONE', #211, 1000.000000000000000 ) ;
#37 = DIRECTION ( 'NONE',  ( -3.491481338843133355E-15, 1.276467311168695266E-16, -1.000000000000000000 ) ) ;
#38 = DIRECTION ( 'NONE',  ( -4.456761796588771413E-31, -1.000000000000000000, -1.276467311168695019E-16 ) ) ;
#39 = COORDINATED_UNIVERSAL_TIME_OFFSET ( 1, 0, .AHEAD. ) ;
#40 = ADVANCED_FACE ( 'NONE', ( #127 ), #296, .T. ) ;
#41 = DIRECTION ( 'NONE',  ( 0.000000000000000000, -1.000000000000000000, 0.000000000000000000 ) ) ;
#42 = FACE_OUTER_BOUND ( 'NONE', #64, .T. ) ;
#43 = ORIENTED_EDGE ( 'NONE', *, *, #260, .T. ) ;
#44 = AXIS2_PLACEMENT_3D ( 'NONE', #225, #7, #65 ) ;
#45 = SHAPE_DEFINITION_REPRESENTATION ( #126, #145 ) ;
#46 = CC_DESIGN_APPROVAL ( #234, ( #142 ) ) ;
#47 = VERTEX_POINT ( 'NONE', #158 ) ;
#48 = AXIS2_PLACEMENT_3D ( 'NONE', #74, #208, #272 ) ;
#49 = AXIS2_PLACEMENT_3D ( 'NONE', #76, #80, #199 ) ;
#50 = PLANE ( 'NONE',  #345 ) ;
#51 = APPLICATION_CONTEXT ( 'configuration controlled 3d designs of mechanical parts and assemblies' ) ;
#52 = DIRECTION ( 'NONE',  ( -3.491481338843133355E-15, 1.224646799147353207E-16, -1.000000000000000000 ) ) ;
#53 = DIRECTION ( 'NONE',  ( -3.491481338843133355E-15, 1.224646799147353207E-16, -1.000000000000000000 ) ) ;
#54 = MECHANICAL_CONTEXT ( 'NONE', #51, 'mechanical' ) ;
#55 = CIRCLE ( 'NONE', #215, 2.999999999999994671 ) ;
#56 = CC_DESIGN_APPROVAL ( #301, ( #229 ) ) ;
#57 = CARTESIAN_POINT ( 'NONE',  ( 4.189777606611760026E-14, 2.249639673992779296E-32, 12.00000000000000000 ) ) ;
#58 = PLANE ( 'NONE',  #358 ) ;
#59 = CC_DESIGN_DATE_AND_TIME_ASSIGNMENT ( #326, #201, ( #142 ) ) ;
#60 = ORIENTED_EDGE ( 'NONE', *, *, #263, .F. ) ;
#61 = AXIS2_PLACEMENT_3D ( 'NONE', #67, #245, #63 ) ;
#62 = CIRCLE ( 'NONE', #282, 2.499999999999997780 ) ;
#63 = DIRECTION ( 'NONE',  ( 4.275831445896959482E-31, 1.000000000000000000, 1.224646799147353207E-16 ) ) ;
#64 = EDGE_LOOP ( 'NONE', ( #247, #20, #321, #102 ) ) ;
#65 = DIRECTION ( 'NONE',  ( 0.000000000000000000, 1.000000000000000000, 0.000000000000000000 ) ) ;
#66 = CARTESIAN_POINT ( 'NONE',  ( 1.724791781388508004E-13, -6.049755187787925154E-15, 49.39999999999999858 ) ) ;
#67 = CARTESIAN_POINT ( 'NONE',  ( 0.000000000000000000, 0.000000000000000000, 0.000000000000000000 ) ) ;
#68 = ORIENTED_EDGE ( 'NONE', *, *, #254, .T. ) ;
#69 = CARTESIAN_POINT ( 'NONE',  ( 1.070497048173233081E-13, -7.500000000000001776, 30.66025403784432868 ) ) ;
#70 = PRODUCT ( '372703', '372703', '', ( #54 ) ) ;
#71 = ORIENTED_EDGE ( 'NONE', *, *, #79, .F. ) ;
#72 = CARTESIAN_POINT ( 'NONE',  ( 1.108134675797886552E-13, -2.999999999999996447, 13.86602540378442328 ) ) ;
#73 = CIRCLE ( 'NONE', #323, 2.999999999999997335 ) ;
#74 = CARTESIAN_POINT ( 'NONE',  ( 4.189777606611760026E-14, 2.249639673992779296E-32, 12.00000000000000000 ) ) ;
#75 = PERSON_AND_ORGANIZATION_ROLE ( 'design_supplier' ) ;
#76 = CARTESIAN_POINT ( 'NONE',  ( 1.070497048173233081E-13, -3.913681203143628758E-15, 30.66025403784432868 ) ) ;
#77 = VERTEX_POINT ( 'NONE', #125 ) ;
#78 = ORIENTED_EDGE ( 'NONE', *, *, #122, .T. ) ;
#79 = EDGE_CURVE ( 'NONE', #77, #352, #73, .T. ) ;
#80 = DIRECTION ( 'NONE',  ( 3.491481338843133355E-15, -1.276467311168695266E-16, 1.000000000000000000 ) ) ;
#81 = ORIENTED_EDGE ( 'NONE', *, *, #230, .F. ) ;
#82 = COORDINATED_UNIVERSAL_TIME_OFFSET ( 1, 0, .AHEAD. ) ;
#83 = CARTESIAN_POINT ( 'NONE',  ( -4.366296621242861857E-30, -2.499999999999997780, -1.250557055158023324E-15 ) ) ;
#84 = LINE ( 'NONE', #198, #96 ) ;
#85 = DIRECTION ( 'NONE',  ( 3.491481338843133355E-15, -1.276467311168695266E-16, 1.000000000000000000 ) ) ;
#86 = ORIENTED_EDGE ( 'NONE', *, *, #101, .F. ) ;
#87 = DIRECTION ( 'NONE',  ( -2.468850131082271655E-15, 0.7071067811865455743, -0.7071067811865493491 ) ) ;
#88 = DIRECTION ( 'NONE',  ( 3.491481338843133355E-15, -1.224646799147353207E-16, 1.000000000000000000 ) ) ;
#89 = ORIENTED_EDGE ( 'NONE', *, *, #181, .F. ) ;
#90 = CARTESIAN_POINT ( 'NONE',  ( 0.000000000000000000, 0.000000000000000000, 0.000000000000000000 ) ) ;
#91 = APPLICATION_PROTOCOL_DEFINITION ( 'international standard', 'config_control_design', 1994, #51 ) ;
#92 = LOCAL_TIME ( 8, 31, 49.00000000000000000, #82 ) ;
#93 = CARTESIAN_POINT ( 'NONE',  ( -6.413839710158237013E-31, 0.000000000000000000, -1.836996703606440502E-16 ) ) ;
#94 = CC_DESIGN_PERSON_AND_ORGANIZATION_ASSIGNMENT ( #113, #311, ( #351 ) ) ;
#95 = CARTESIAN_POINT ( 'NONE',  ( 1.282749433769085480E-30, 2.999999999999994671, 3.673940397442053459E-16 ) ) ;
#96 = VECTOR ( 'NONE', #346, 1000.000000000000000 ) ;
#97 = LINE ( 'NONE', #269, #36 ) ;
#98 = VECTOR ( 'NONE', #52, 1000.000000000000000 ) ;
#99 = AXIS2_PLACEMENT_3D ( 'NONE', #172, #26, #339 ) ;
#100 = CARTESIAN_POINT ( 'NONE',  ( 1.724791781388508004E-13, -6.049755187787925154E-15, 49.39999999999999858 ) ) ;
#101 = EDGE_CURVE ( 'NONE', #352, #11, #342, .T. ) ;
#102 = ORIENTED_EDGE ( 'NONE', *, *, #344, .F. ) ;
#103 = ADVANCED_FACE ( 'NONE', ( #316 ), #320, .F. ) ;
#104 = PLANE ( 'NONE',  #48 ) ;
#105 = PERSON_AND_ORGANIZATION ( #10, #341 ) ;
#106 = VERTEX_POINT ( 'NONE', #2 ) ;
#107 = CC_DESIGN_PERSON_AND_ORGANIZATION_ASSIGNMENT ( #110, #75, ( #229 ) ) ;
#108 = CIRCLE ( 'NONE', #8, 2.499999999999996891 ) ;
#109 = ORIENTED_EDGE ( 'NONE', *, *, #122, .F. ) ;
#110 = PERSON_AND_ORGANIZATION ( #10, #341 ) ;
#111 = VERTEX_POINT ( 'NONE', #213 ) ;
#112 = ORIENTED_EDGE ( 'NONE', *, *, #295, .T. ) ;
#113 = PERSON_AND_ORGANIZATION ( #10, #341 ) ;
#114 = ORIENTED_EDGE ( 'NONE', *, *, #289, .T. ) ;
#115 = FACE_OUTER_BOUND ( 'NONE', #156, .T. ) ;
#116 = CIRCLE ( 'NONE', #33, 2.999999999999997335 ) ;
#117 =( GEOMETRIC_REPRESENTATION_CONTEXT ( 3 ) GLOBAL_UNCERTAINTY_ASSIGNED_CONTEXT ( ( #5 ) ) GLOBAL_UNIT_ASSIGNED_CONTEXT ( ( #312, #119, #360 ) ) REPRESENTATION_CONTEXT ( 'NONE', 'WORKASPACE' ) );
#118 = LINE ( 'NONE', #28, #361 ) ;
#119 =( NAMED_UNIT ( * ) PLANE_ANGLE_UNIT ( ) SI_UNIT ( $, .RADIAN. ) );
#120 = ADVANCED_FACE ( 'NONE', ( #242 ), #246, .T. ) ;
#121 = CARTESIAN_POINT ( 'NONE',  ( 1.070497048173233081E-13, -3.913681203143628758E-15, 30.66025403784432868 ) ) ;
#122 = EDGE_CURVE ( 'NONE', #319, #106, #97, .T. ) ;
#123 = APPLICATION_CONTEXT ( 'configuration controlled 3d designs of mechanical parts and assemblies' ) ;
#124 = CIRCLE ( 'NONE', #151, 2.499999999999996891 ) ;
#125 = CARTESIAN_POINT ( 'NONE',  ( 1.108134675797885542E-13, -3.000000000000003553, 49.39999999999999858 ) ) ;
#126 = PRODUCT_DEFINITION_SHAPE ( 'NONE', 'NONE',  #142 ) ;
#127 = FACE_OUTER_BOUND ( 'NONE', #335, .T. ) ;
#128 = APPROVAL_STATUS ( 'not_yet_approved' ) ;
#129 = LINE ( 'NONE', #244, #98 ) ;
#130 = CARTESIAN_POINT ( 'NONE',  ( 1.104460735400444876E-13, 2.999999999999993339, 13.86602540378442328 ) ) ;
#131 = DIRECTION ( 'NONE',  ( 3.372511997194914833E-15, -0.2588190451025215166, 0.9659258262890679791 ) ) ;
#132 = ADVANCED_FACE ( 'NONE', ( #155 ), #58, .F. ) ;
#133 = FACE_OUTER_BOUND ( 'NONE', #166, .T. ) ;
#134 = ORIENTED_EDGE ( 'NONE', *, *, #254, .F. ) ;
#135 = VECTOR ( 'NONE', #180, 1000.000000000000000 ) ;
#136 = VECTOR ( 'NONE', #292, 1000.000000000000000 ) ;
#137 = ORIENTED_EDGE ( 'NONE', *, *, #314, .F. ) ;
#138 = CARTESIAN_POINT ( 'NONE',  ( 4.189777606611760026E-14, -1.531760773402434319E-15, 12.00000000000000000 ) ) ;
#139 = ORIENTED_EDGE ( 'NONE', *, *, #207, .T. ) ;
#140 = DIRECTION ( 'NONE',  ( 0.000000000000000000, -1.000000000000000000, 0.000000000000000000 ) ) ;
#141 = EDGE_LOOP ( 'NONE', ( #236, #19, #226, #43 ) ) ;
#142 = PRODUCT_DEFINITION ( 'UNKNOWN', '', #229, #191 ) ;
#143 = CC_DESIGN_APPROVAL ( #338, ( #351 ) ) ;
#144 = DIRECTION ( 'NONE',  ( -4.456761796588770537E-31, -1.000000000000000000, -1.276467311168695266E-16 ) ) ;
#145 = ADVANCED_BREP_SHAPE_REPRESENTATION ( '372703', ( #333, #214, #99 ), #117 ) ;
#146 = PRODUCT_RELATED_PRODUCT_CATEGORY ( 'detail', '', ( #70 ) ) ;
#147 = PERSON_AND_ORGANIZATION_ROLE ( 'design_owner' ) ;
#148 = DIRECTION ( 'NONE',  ( 0.000000000000000000, -1.000000000000000000, 0.000000000000000000 ) ) ;
#149 = CARTESIAN_POINT ( 'NONE',  ( 4.549215037344339659E-14, 2.499999999999995115, 12.00000000000000000 ) ) ;
#150 = AXIS2_PLACEMENT_3D ( 'NONE', #57, #179, #30 ) ;
#151 = AXIS2_PLACEMENT_3D ( 'NONE', #354, #332, #12 ) ;
#152 = PERSON_AND_ORGANIZATION ( #10, #341 ) ;
#153 = AXIS2_PLACEMENT_3D ( 'NONE', #29, #182, #343 ) ;
#154 = AXIS2_PLACEMENT_3D ( 'NONE', #90, #259, #357 ) ;
#155 = FACE_OUTER_BOUND ( 'NONE', #184, .T. ) ;
#156 = EDGE_LOOP ( 'NONE', ( #35, #183, #78, #307 ) ) ;
#157 = EDGE_LOOP ( 'NONE', ( #112, #325, #134, #109 ) ) ;
#158 = CARTESIAN_POINT ( 'NONE',  ( 2.125504973284563800E-14, 2.499999999999995115, 12.00000000000000000 ) ) ;
#159 = AXIS2_PLACEMENT_3D ( 'NONE', #177, #175, #160 ) ;
#160 = DIRECTION ( 'NONE',  ( 0.000000000000000000, -1.000000000000000000, 0.000000000000000000 ) ) ;
#161 = APPROVAL_DATE_TIME ( #353, #301 ) ;
#162 = LINE ( 'NONE', #228, #328 ) ;
#163 = CIRCLE ( 'NONE', #44, 2.399999999999997691 ) ;
#164 = ORIENTED_EDGE ( 'NONE', *, *, #207, .F. ) ;
#165 = EDGE_CURVE ( 'NONE', #77, #308, #129, .T. ) ;
#166 = EDGE_LOOP ( 'NONE', ( #334, #6, #164, #4 ) ) ;
#167 = CYLINDRICAL_SURFACE ( 'NONE', #176, 2.499999999999997335 ) ;
#168 = VERTEX_POINT ( 'NONE', #149 ) ;
#169 = CARTESIAN_POINT ( 'NONE',  ( -3.252106172095669792E-30, 9.544663782522175102E-32, -9.314402273658498283E-16 ) ) ;
#170 = AXIS2_PLACEMENT_3D ( 'NONE', #121, #203, #257 ) ;
#171 = CC_DESIGN_PERSON_AND_ORGANIZATION_ASSIGNMENT ( #277, #253, ( #229 ) ) ;
#172 = CARTESIAN_POINT ( 'NONE',  ( 0.000000000000000000, 0.000000000000000000, 0.000000000000000000 ) ) ;
#173 = DIRECTION ( 'NONE',  ( 3.491481338843133355E-15, -1.276467311168695266E-16, 1.000000000000000000 ) ) ;
#174 = FACE_OUTER_BOUND ( 'NONE', #141, .T. ) ;
#175 = DIRECTION ( 'NONE',  ( -3.491481338843133355E-15, 1.276467311168695266E-16, -1.000000000000000000 ) ) ;
#176 = AXIS2_PLACEMENT_3D ( 'NONE', #286, #173, #144 ) ;
#177 = CARTESIAN_POINT ( 'NONE',  ( 4.841296894123813697E-14, -1.769952816376552796E-15, 13.86602540378442328 ) ) ;
#178 = ADVANCED_FACE ( 'NONE', ( #174 ), #24, .T. ) ;
#179 = DIRECTION ( 'NONE',  ( 3.491481338843133355E-15, -1.224646799147353207E-16, 1.000000000000000000 ) ) ;
#180 = DIRECTION ( 'NONE',  ( -3.491481338843133355E-15, 1.224646799147353207E-16, -1.000000000000000000 ) ) ;
#181 = EDGE_CURVE ( 'NONE', #271, #273, #287, .T. ) ;
#182 = DIRECTION ( 'NONE',  ( -3.491481338843133355E-15, 1.224646799147353207E-16, -1.000000000000000000 ) ) ;
#183 = ORIENTED_EDGE ( 'NONE', *, *, #195, .T. ) ;
#184 = EDGE_LOOP ( 'NONE', ( #60, #89 ) ) ;
#185 = EDGE_CURVE ( 'NONE', #273, #352, #118, .T. ) ;
#186 = CONICAL_SURFACE ( 'NONE', #275, 2.399999999999997691, 0.7853981633974453924 ) ;
#187 = APPROVAL_PERSON_ORGANIZATION ( #293, #234, #302 ) ;
#188 = CARTESIAN_POINT ( 'NONE',  ( 1.724791781388508004E-13, 2.999999999999991562, 49.39999999999999858 ) ) ;
#189 = ADVANCED_FACE ( 'NONE', ( #115 ), #266, .T. ) ;
#190 = COORDINATED_UNIVERSAL_TIME_OFFSET ( 1, 0, .AHEAD. ) ;
#191 = DESIGN_CONTEXT ( 'detailed design', #123, 'design' ) ;
#192 = PERSON_AND_ORGANIZATION ( #10, #341 ) ;
#193 = ORIENTED_EDGE ( 'NONE', *, *, #165, .F. ) ;
#194 = EDGE_LOOP ( 'NONE', ( #81, #196, #284, #71 ) ) ;
#195 = EDGE_CURVE ( 'NONE', #111, #319, #209, .T. ) ;
#196 = ORIENTED_EDGE ( 'NONE', *, *, #181, .T. ) ;
#197 = DATE_AND_TIME ( #258, #16 ) ;
#198 = CARTESIAN_POINT ( 'NONE',  ( 3.061616997868385113E-16, 2.499999999999997335, 1.354171574315283856E-16 ) ) ;
#199 = DIRECTION ( 'NONE',  ( 0.000000000000000000, -1.000000000000000000, 0.000000000000000000 ) ) ;
#200 = LOCAL_TIME ( 8, 31, 49.00000000000000000, #279 ) ;
#201 = DATE_TIME_ROLE ( 'creation_date' ) ;
#202 = FACE_OUTER_BOUND ( 'NONE', #157, .T. ) ;
#203 = DIRECTION ( 'NONE',  ( 3.491481338843133355E-15, -1.276467311168695266E-16, 1.000000000000000000 ) ) ;
#204 = CC_DESIGN_PERSON_AND_ORGANIZATION_ASSIGNMENT ( #192, #237, ( #142 ) ) ;
#205 = CYLINDRICAL_SURFACE ( 'NONE', #154, 2.999999999999994671 ) ;
#206 = AXIS2_PLACEMENT_3D ( 'NONE', #264, #53, #356 ) ;
#207 = EDGE_CURVE ( 'NONE', #352, #77, #116, .T. ) ;
#208 = DIRECTION ( 'NONE',  ( 3.491481338843133355E-15, -1.224646799147353207E-16, 1.000000000000000000 ) ) ;
#209 = CIRCLE ( 'NONE', #261, 2.499999999999997780 ) ;
#210 = LINE ( 'NONE', #317, #136 ) ;
#211 = DIRECTION ( 'NONE',  ( 3.491481338843133355E-15, -1.276467311168695266E-16, 1.000000000000000000 ) ) ;
#212 = CARTESIAN_POINT ( 'NONE',  ( 1.738572771762734887E-13, -2.400000000000003908, 50.00000000000000000 ) ) ;
#213 = CARTESIAN_POINT ( 'NONE',  ( 2.125504973284564747E-14, 2.499999999999997780, -6.123233995737505839E-16 ) ) ;
#214 = MANIFOLD_SOLID_BREP ( 'Corps-Déplacer/Copier1[2]', #32 ) ;
#215 = AXIS2_PLACEMENT_3D ( 'NONE', #303, #37, #283 ) ;
#216 = DIRECTION ( 'NONE',  ( -3.491481338843133355E-15, 1.224646799147353207E-16, -1.000000000000000000 ) ) ;
#217 = ORIENTED_EDGE ( 'NONE', *, *, #165, .T. ) ;
#218 = LINE ( 'NONE', #69, #267 ) ;
#219 = ADVANCED_FACE ( 'NONE', ( #133 ), #186, .T. ) ;
#220 = DIRECTION ( 'NONE',  ( -3.491481338843133355E-15, 1.224646799147353207E-16, -1.000000000000000000 ) ) ;
#221 = CALENDAR_DATE ( 2023, 31, 3 ) ;
#222 = DIRECTION ( 'NONE',  ( -4.456761796588771413E-31, -1.000000000000000000, -1.276467311168695019E-16 ) ) ;
#223 = ORIENTED_EDGE ( 'NONE', *, *, #248, .F. ) ;
#224 = DATE_TIME_ROLE ( 'classification_date' ) ;
#225 = CARTESIAN_POINT ( 'NONE',  ( 1.745740669421566678E-13, -6.123233995736766085E-15, 50.00000000000000000 ) ) ;
#226 = ORIENTED_EDGE ( 'NONE', *, *, #344, .T. ) ;
#227 = CLOSED_SHELL ( 'NONE', ( #241, #219, #363, #40, #120, #132, #178, #103 ) ) ;
#228 = CARTESIAN_POINT ( 'NONE',  ( 1.748679821739520473E-13, -2.400000000000003908, 50.00000000000000000 ) ) ;
#229 = PRODUCT_DEFINITION_FORMATION_WITH_SPECIFIED_SOURCE ( 'ANY', '', #70, .NOT_KNOWN. ) ;
#230 = EDGE_CURVE ( 'NONE', #271, #77, #162, .T. ) ;
#231 = ORIENTED_EDGE ( 'NONE', *, *, #260, .F. ) ;
#232 = APPROVAL_STATUS ( 'not_yet_approved' ) ;
#233 = EDGE_LOOP ( 'NONE', ( #68, #114 ) ) ;
#234 = APPROVAL ( #128, 'UNSPECIFIED' ) ;
#235 = PERSON_AND_ORGANIZATION ( #10, #341 ) ;
#236 = ORIENTED_EDGE ( 'NONE', *, *, #268, .F. ) ;
#237 = PERSON_AND_ORGANIZATION_ROLE ( 'creator' ) ;
#238 = DIRECTION ( 'NONE',  ( -2.382254525458723780E-15, -0.7071067811865453523, -0.7071067811865496822 ) ) ;
#239 = CIRCLE ( 'NONE', #1, 2.499999999999996891 ) ;
#240 = AXIS2_PLACEMENT_3D ( 'NONE', #278, #306, #41 ) ;
#241 = ADVANCED_FACE ( 'NONE', ( #42 ), #350, .T. ) ;
#242 = FACE_OUTER_BOUND ( 'NONE', #194, .T. ) ;
#243 = EDGE_CURVE ( 'NONE', #11, #308, #55, .T. ) ;
#244 = CARTESIAN_POINT ( 'NONE',  ( 3.673940397442041133E-16, -2.999999999999994671, -3.673940397442065784E-16 ) ) ;
#245 = DIRECTION ( 'NONE',  ( -3.491481338843133355E-15, 1.224646799147353207E-16, -1.000000000000000000 ) ) ;
#246 = CONICAL_SURFACE ( 'NONE', #153, 2.399999999999997691, 0.7853981633974453924 ) ;
#247 = ORIENTED_EDGE ( 'NONE', *, *, #248, .T. ) ;
#248 = EDGE_CURVE ( 'NONE', #276, #168, #108, .T. ) ;
#249 = COORDINATED_UNIVERSAL_TIME_OFFSET ( 1, 0, .AHEAD. ) ;
#250 = ADVANCED_FACE ( 'NONE', ( #202 ), #167, .T. ) ;
#251 = EDGE_LOOP ( 'NONE', ( #139, #217, #327, #86 ) ) ;
#252 = EDGE_LOOP ( 'NONE', ( #223, #137 ) ) ;
#253 = PERSON_AND_ORGANIZATION_ROLE ( 'creator' ) ;
#254 = EDGE_CURVE ( 'NONE', #106, #47, #239, .T. ) ;
#255 = APPROVAL_DATE_TIME ( #348, #234 ) ;
#256 = DIRECTION ( 'NONE',  ( 3.491481338843133355E-15, -1.276467311168695266E-16, 1.000000000000000000 ) ) ;
#257 = DIRECTION ( 'NONE',  ( 0.000000000000000000, -1.000000000000000000, 0.000000000000000000 ) ) ;
#258 = CALENDAR_DATE ( 2023, 31, 3 ) ;
#259 = DIRECTION ( 'NONE',  ( -3.491481338843133355E-15, 1.224646799147353207E-16, -1.000000000000000000 ) ) ;
#260 = EDGE_CURVE ( 'NONE', #308, #11, #294, .T. ) ;
#261 = AXIS2_PLACEMENT_3D ( 'NONE', #169, #14, #38 ) ;
#262 = FACE_OUTER_BOUND ( 'NONE', #251, .T. ) ;
#263 = EDGE_CURVE ( 'NONE', #273, #271, #163, .T. ) ;
#264 = CARTESIAN_POINT ( 'NONE',  ( 1.745740669421566678E-13, -6.123233995736766085E-15, 50.00000000000000000 ) ) ;
#265 = APPLICATION_PROTOCOL_DEFINITION ( 'international standard', 'config_control_design', 1994, #123 ) ;
#266 = CYLINDRICAL_SURFACE ( 'NONE', #9, 2.499999999999997335 ) ;
#267 = VECTOR ( 'NONE', #131, 1000.000000000000114 ) ;
#268 = EDGE_CURVE ( 'NONE', #168, #11, #210, .T. ) ;
#269 = CARTESIAN_POINT ( 'NONE',  ( -1.755574420163014978E-30, -2.499999999999997335, -5.028164981528174968E-16 ) ) ;
#270 = DIRECTION ( 'NONE',  ( -3.491481338843133355E-15, 1.224646799147353207E-16, -1.000000000000000000 ) ) ;
#271 = VERTEX_POINT ( 'NONE', #212 ) ;
#272 = DIRECTION ( 'NONE',  ( -4.275831445896958607E-31, -1.000000000000000000, -1.224646799147353207E-16 ) ) ;
#273 = VERTEX_POINT ( 'NONE', #322 ) ;
#274 = EDGE_LOOP ( 'NONE', ( #304, #310 ) ) ;
#275 = AXIS2_PLACEMENT_3D ( 'NONE', #13, #349, #18 ) ;
#276 = VERTEX_POINT ( 'NONE', #280 ) ;
#277 = PERSON_AND_ORGANIZATION ( #10, #341 ) ;
#278 = CARTESIAN_POINT ( 'NONE',  ( 4.189777606611760026E-14, -1.531760773402434319E-15, 12.00000000000000000 ) ) ;
#279 = COORDINATED_UNIVERSAL_TIME_OFFSET ( 1, 0, .AHEAD. ) ;
#280 = CARTESIAN_POINT ( 'NONE',  ( 4.189777606611760026E-14, -2.499999999999998668, 12.00000000000000000 ) ) ;
#281 = APPROVAL_ROLE ( '' ) ;
#282 = AXIS2_PLACEMENT_3D ( 'NONE', #17, #256, #222 ) ;
#283 = DIRECTION ( 'NONE',  ( -2.042810365310288350E-14, -1.000000000000000000, 0.000000000000000000 ) ) ;
#284 = ORIENTED_EDGE ( 'NONE', *, *, #185, .T. ) ;
#285 = CALENDAR_DATE ( 2023, 31, 3 ) ;
#286 = CARTESIAN_POINT ( 'NONE',  ( -6.413839710158237013E-31, 0.000000000000000000, -1.836996703606440502E-16 ) ) ;
#287 = CIRCLE ( 'NONE', #206, 2.399999999999997691 ) ;
#288 = CARTESIAN_POINT ( 'NONE',  ( -5.344808899709470047E-31, 1.874706600394511987E-32, -1.530814110402897908E-16 ) ) ;
#289 = EDGE_CURVE ( 'NONE', #47, #106, #340, .T. ) ;
#290 = EDGE_CURVE ( 'NONE', #111, #47, #84, .T. ) ;
#291 = APPROVAL_PERSON_ORGANIZATION ( #235, #338, #331 ) ;
#292 = DIRECTION ( 'NONE',  ( 3.404208188709233130E-15, 0.2588190451025213501, 0.9659258262890680902 ) ) ;
#293 = PERSON_AND_ORGANIZATION ( #10, #341 ) ;
#294 = CIRCLE ( 'NONE', #159, 2.999999999999994671 ) ;
#295 = EDGE_CURVE ( 'NONE', #319, #111, #62, .T. ) ;
#296 = CYLINDRICAL_SURFACE ( 'NONE', #61, 2.999999999999994671 ) ;
#297 = ORIENTED_EDGE ( 'NONE', *, *, #79, .T. ) ;
#298 = FACE_OUTER_BOUND ( 'NONE', #274, .T. ) ;
#299 = ORIENTED_EDGE ( 'NONE', *, *, #101, .T. ) ;
#300 = APPROVAL_PERSON_ORGANIZATION ( #105, #301, #281 ) ;
#301 = APPROVAL ( #232, 'UNSPECIFIED' ) ;
#302 = APPROVAL_ROLE ( '' ) ;
#303 = CARTESIAN_POINT ( 'NONE',  ( 4.841296894123813697E-14, -1.769952816376552796E-15, 13.86602540378442328 ) ) ;
#304 = ORIENTED_EDGE ( 'NONE', *, *, #295, .F. ) ;
#305 = SECURITY_CLASSIFICATION_LEVEL ( 'unclassified' ) ;
#306 = DIRECTION ( 'NONE',  ( 3.491481338843133355E-15, -1.276467311168695266E-16, 1.000000000000000000 ) ) ;
#307 = ORIENTED_EDGE ( 'NONE', *, *, #289, .F. ) ;
#308 = VERTEX_POINT ( 'NONE', #72 ) ;
#309 = APPROVAL_DATE_TIME ( #197, #338 ) ;
#310 = ORIENTED_EDGE ( 'NONE', *, *, #195, .F. ) ;
#311 = PERSON_AND_ORGANIZATION_ROLE ( 'classification_officer' ) ;
#312 =( LENGTH_UNIT ( ) NAMED_UNIT ( * ) SI_UNIT ( .MILLI., .METRE. ) );
#313 = DIRECTION ( 'NONE',  ( 3.491481338843133355E-15, -1.276467311168695266E-16, 1.000000000000000000 ) ) ;
#314 = EDGE_CURVE ( 'NONE', #168, #276, #124, .T. ) ;
#315 = CC_DESIGN_SECURITY_CLASSIFICATION ( #351, ( #229 ) ) ;
#316 = FACE_OUTER_BOUND ( 'NONE', #252, .T. ) ;
#317 = CARTESIAN_POINT ( 'NONE',  ( 1.079681899166838217E-13, 7.499999999999992895, 30.66025403784432868 ) ) ;
#318 = DIRECTION ( 'NONE',  ( 0.000000000000000000, 1.000000000000000000, 0.000000000000000000 ) ) ;
#319 = VERTEX_POINT ( 'NONE', #83 ) ;
#320 = PLANE ( 'NONE',  #150 ) ;
#321 = ORIENTED_EDGE ( 'NONE', *, *, #243, .T. ) ;
#322 = CARTESIAN_POINT ( 'NONE',  ( 1.745740669421566678E-13, 2.399999999999991473, 50.00000000000000000 ) ) ;
#323 = AXIS2_PLACEMENT_3D ( 'NONE', #100, #216, #318 ) ;
#324 = DIRECTION ( 'NONE',  ( 0.000000000000000000, 1.000000000000000000, 0.000000000000000000 ) ) ;
#325 = ORIENTED_EDGE ( 'NONE', *, *, #290, .T. ) ;
#326 = DATE_AND_TIME ( #221, #200 ) ;
#327 = ORIENTED_EDGE ( 'NONE', *, *, #243, .F. ) ;
#328 = VECTOR ( 'NONE', #238, 1000.000000000000000 ) ;
#329 = LOCAL_TIME ( 8, 31, 49.00000000000000000, #249 ) ;
#330 = CALENDAR_DATE ( 2023, 31, 3 ) ;
#331 = APPROVAL_ROLE ( '' ) ;
#332 = DIRECTION ( 'NONE',  ( 3.491481338843133355E-15, -1.276467311168695266E-16, 1.000000000000000000 ) ) ;
#333 = MANIFOLD_SOLID_BREP ( 'Corps-Déplacer/Copier1[1]', #227 ) ;
#334 = ORIENTED_EDGE ( 'NONE', *, *, #263, .T. ) ;
#335 = EDGE_LOOP ( 'NONE', ( #193, #297, #299, #231 ) ) ;
#336 = APPROVAL_STATUS ( 'not_yet_approved' ) ;
#337 = CC_DESIGN_PERSON_AND_ORGANIZATION_ASSIGNMENT ( #152, #147, ( #70 ) ) ;
#338 = APPROVAL ( #336, 'UNSPECIFIED' ) ;
#339 = DIRECTION ( 'NONE',  ( 1.000000000000000000, 0.000000000000000000, 0.000000000000000000 ) ) ;
#340 = CIRCLE ( 'NONE', #240, 2.499999999999996891 ) ;
#341 = ORGANIZATION ( 'UNSPECIFIED', 'UNSPECIFIED', '' ) ;
#342 = LINE ( 'NONE', #95, #135 ) ;
#343 = DIRECTION ( 'NONE',  ( 0.000000000000000000, 1.000000000000000000, 0.000000000000000000 ) ) ;
#344 = EDGE_CURVE ( 'NONE', #276, #308, #218, .T. ) ;
#345 = AXIS2_PLACEMENT_3D ( 'NONE', #288, #88, #27 ) ;
#346 = DIRECTION ( 'NONE',  ( 3.491481338843133355E-15, -1.276467311168695266E-16, 1.000000000000000000 ) ) ;
#347 = FACE_OUTER_BOUND ( 'NONE', #233, .T. ) ;
#348 = DATE_AND_TIME ( #15, #25 ) ;
#349 = DIRECTION ( 'NONE',  ( -3.491481338843133355E-15, 1.224646799147353207E-16, -1.000000000000000000 ) ) ;
#350 = CONICAL_SURFACE ( 'NONE', #49, 7.499999999999997335, 0.2617993877991501850 ) ;
#351 = SECURITY_CLASSIFICATION ( '', '', #305 ) ;
#352 = VERTEX_POINT ( 'NONE', #188 ) ;
#353 = DATE_AND_TIME ( #330, #92 ) ;
#354 = CARTESIAN_POINT ( 'NONE',  ( 4.189777606611760026E-14, -1.531760773402434319E-15, 12.00000000000000000 ) ) ;
#355 = ADVANCED_FACE ( 'NONE', ( #298 ), #50, .F. ) ;
#356 = DIRECTION ( 'NONE',  ( 0.000000000000000000, 1.000000000000000000, 0.000000000000000000 ) ) ;
#357 = DIRECTION ( 'NONE',  ( 4.275831445896959482E-31, 1.000000000000000000, 1.224646799147353207E-16 ) ) ;
#358 = AXIS2_PLACEMENT_3D ( 'NONE', #34, #270, #3 ) ;
#359 = DIRECTION ( 'NONE',  ( -4.456761796588770537E-31, -1.000000000000000000, -1.276467311168695266E-16 ) ) ;
#360 =( NAMED_UNIT ( * ) SI_UNIT ( $, .STERADIAN. ) SOLID_ANGLE_UNIT ( ) );
#361 = VECTOR ( 'NONE', #87, 1000.000000000000114 ) ;
#362 = CARTESIAN_POINT ( 'NONE',  ( 4.189777606611760026E-14, -1.531760773402434319E-15, 12.00000000000000000 ) ) ;
#363 = ADVANCED_FACE ( 'NONE', ( #262 ), #205, .T. ) ;
ENDSEC;
END-ISO-10303-21;
