ISO-10303-21;
HEADER;
FILE_DESCRIPTION (( 'STEP AP203' ),
    '1' );
FILE_NAME ('372702.step',
    '2023-03-31T06:31:48',
    ( '' ),
    ( '' ),
    'SwSTEP 2.0',
    'SolidWorks 2022',
    '' );
FILE_SCHEMA (( 'CONFIG_CONTROL_DESIGN' ));
ENDSEC;

DATA;
#1 = DIRECTION ( 'NONE',  ( -4.275831445896958607E-31, -1.000000000000000000, -1.224646799147353207E-16 ) ) ;
#2 = EDGE_CURVE ( 'NONE', #236, #106, #174, .T. ) ;
#3 = DIRECTION ( 'NONE',  ( 4.275831445896959482E-31, 1.000000000000000000, 1.224646799147353207E-16 ) ) ;
#4 = FACE_OUTER_BOUND ( 'NONE', #307, .T. ) ;
#5 = APPROVAL_PERSON_ORGANIZATION ( #226, #277, #60 ) ;
#6 = CIRCLE ( 'NONE', #18, 2.500000000000001332 ) ;
#7 = CARTESIAN_POINT ( 'NONE',  ( 0.000000000000000000, 0.000000000000000000, 0.000000000000000000 ) ) ;
#8 = ORIENTED_EDGE ( 'NONE', *, *, #165, .T. ) ;
#9 = CARTESIAN_POINT ( 'NONE',  ( 1.047444401652940007E-13, -3.673940397442059178E-15, 30.00000000000000000 ) ) ;
#10 = CARTESIAN_POINT ( 'NONE',  ( 2.426579530495977493E-13, -8.511295254074105418E-15, 69.50000000000000000 ) ) ;
#11 = DATE_AND_TIME ( #260, #105 ) ;
#12 = DIRECTION ( 'NONE',  ( 0.000000000000000000, 1.000000000000000000, 0.000000000000000000 ) ) ;
#13 = DIRECTION ( 'NONE',  ( -3.491481338843133355E-15, 1.224646799147353207E-16, -1.000000000000000000 ) ) ;
#14 = ORIENTED_EDGE ( 'NONE', *, *, #186, .F. ) ;
#15 = DATE_TIME_ROLE ( 'creation_date' ) ;
#16 = CIRCLE ( 'NONE', #218, 2.499999999999996003 ) ;
#17 = APPROVAL ( #195, 'UNSPECIFIED' ) ;
#18 = AXIS2_PLACEMENT_3D ( 'NONE', #10, #114, #191 ) ;
#19 = DIRECTION ( 'NONE',  ( -2.468850131082266527E-15, 0.7071067811865473507, -0.7071067811865477948 ) ) ;
#20 = AXIS2_PLACEMENT_3D ( 'NONE', #151, #126, #267 ) ;
#21 =( NAMED_UNIT ( * ) PLANE_ANGLE_UNIT ( ) SI_UNIT ( $, .RADIAN. ) );
#22 = CARTESIAN_POINT ( 'NONE',  ( 1.047444401652940007E-13, -3.673940397442059178E-15, 30.00000000000000000 ) ) ;
#23 = CARTESIAN_POINT ( 'NONE',  ( -6.413727576507131527E-31, 2.249632801925584666E-32, -1.836964587252313490E-16 ) ) ;
#24 = PRODUCT_DEFINITION ( 'UNKNOWN', '', #148, #31 ) ;
#25 = CIRCLE ( 'NONE', #202, 2.000000000000001332 ) ;
#26 = CIRCLE ( 'NONE', #309, 2.499999999999992895 ) ;
#27 = ORIENTED_EDGE ( 'NONE', *, *, #248, .T. ) ;
#28 = DIRECTION ( 'NONE',  ( 0.000000000000000000, 1.000000000000000000, 0.000000000000000000 ) ) ;
#29 = DATE_TIME_ROLE ( 'classification_date' ) ;
#30 = DIRECTION ( 'NONE',  ( -3.491481338843133355E-15, 1.224646799147353207E-16, -1.000000000000000000 ) ) ;
#31 = DESIGN_CONTEXT ( 'detailed design', #181, 'design' ) ;
#32 = FACE_OUTER_BOUND ( 'NONE', #43, .T. ) ;
#33 = CARTESIAN_POINT ( 'NONE',  ( 5.267838178243381296E-14, -2.499999999999992895, -6.735546172374839785E-16 ) ) ;
#34 = AXIS2_PLACEMENT_3D ( 'NONE', #250, #125, #1 ) ;
#35 = LOCAL_TIME ( 8, 31, 48.00000000000000000, #206 ) ;
#36 = EDGE_CURVE ( 'NONE', #231, #263, #276, .T. ) ;
#37 = DIRECTION ( 'NONE',  ( 0.000000000000000000, 1.000000000000000000, 0.000000000000000000 ) ) ;
#38 = DIRECTION ( 'NONE',  ( -3.491481338843133355E-15, 1.224646799147353207E-16, -1.000000000000000000 ) ) ;
#39 = DIRECTION ( 'NONE',  ( -3.491481338843133355E-15, 1.224646799147353207E-16, -1.000000000000000000 ) ) ;
#40 = PERSON_AND_ORGANIZATION_ROLE ( 'creator' ) ;
#41 = CC_DESIGN_APPROVAL ( #277, ( #296 ) ) ;
#42 = PERSON_AND_ORGANIZATION ( #162, #156 ) ;
#43 = EDGE_LOOP ( 'NONE', ( #74, #93, #98, #14 ) ) ;
#44 = DIRECTION ( 'NONE',  ( 4.275831445896958607E-31, 1.000000000000000000, 1.224646799147352961E-16 ) ) ;
#45 = CLOSED_SHELL ( 'NONE', ( #84, #62, #104, #157 ) ) ;
#46 = AXIS2_PLACEMENT_3D ( 'NONE', #163, #197, #285 ) ;
#47 = DIRECTION ( 'NONE',  ( 3.491481338843133355E-15, -1.224646799147353207E-16, 1.000000000000000000 ) ) ;
#48 =( LENGTH_UNIT ( ) NAMED_UNIT ( * ) SI_UNIT ( .MILLI., .METRE. ) );
#49 = LINE ( 'NONE', #80, #247 ) ;
#50 = AXIS2_PLACEMENT_3D ( 'NONE', #100, #133, #37 ) ;
#51 = CARTESIAN_POINT ( 'NONE',  ( 2.446486230788488304E-13, -2.000000000000010214, 70.00000000000000000 ) ) ;
#52 = CARTESIAN_POINT ( 'NONE',  ( 3.061616997868365885E-16, -2.499999999999994227, -3.061616997868386592E-16 ) ) ;
#53 = DIRECTION ( 'NONE',  ( -2.382254525458717469E-15, -0.7071067811865471286, -0.7071067811865479058 ) ) ;
#54 = AXIS2_PLACEMENT_3D ( 'NONE', #9, #38, #59 ) ;
#55 = LOCAL_TIME ( 8, 31, 48.00000000000000000, #240 ) ;
#56 = VERTEX_POINT ( 'NONE', #85 ) ;
#57 = PRODUCT ( '372702', '372702', '', ( #75 ) ) ;
#58 = DIRECTION ( 'NONE',  ( -3.491481338843133355E-15, 1.224646799147353207E-16, -1.000000000000000000 ) ) ;
#59 = DIRECTION ( 'NONE',  ( 0.000000000000000000, 1.000000000000000000, 0.000000000000000000 ) ) ;
#60 = APPROVAL_ROLE ( '' ) ;
#61 = CARTESIAN_POINT ( 'NONE',  ( 2.444036937190193601E-13, 1.499759782661845565E-32, 70.00000000000000000 ) ) ;
#62 = ADVANCED_FACE ( 'NONE', ( #177 ), #150, .F. ) ;
#63 = CARTESIAN_POINT ( 'NONE',  ( -1.282745515301426305E-30, 4.499265603851169331E-32, -3.673929174504626980E-16 ) ) ;
#64 = ORIENTED_EDGE ( 'NONE', *, *, #219, .T. ) ;
#65 = DIRECTION ( 'NONE',  ( -3.491481338843133355E-15, 1.224646799147353207E-16, -1.000000000000000000 ) ) ;
#66 = AXIS2_PLACEMENT_3D ( 'NONE', #237, #39, #12 ) ;
#67 = ORIENTED_EDGE ( 'NONE', *, *, #255, .F. ) ;
#68 = COORDINATED_UNIVERSAL_TIME_OFFSET ( 1, 0, .AHEAD. ) ;
#69 = ORIENTED_EDGE ( 'NONE', *, *, #138, .T. ) ;
#70 = CARTESIAN_POINT ( 'NONE',  ( 2.444036937190193601E-13, -8.572527594031472993E-15, 70.00000000000000000 ) ) ;
#71 = LINE ( 'NONE', #261, #312 ) ;
#72 = PERSON_AND_ORGANIZATION ( #162, #156 ) ;
#73 = EDGE_CURVE ( 'NONE', #274, #182, #102, .T. ) ;
#74 = ORIENTED_EDGE ( 'NONE', *, *, #2, .F. ) ;
#75 = MECHANICAL_CONTEXT ( 'NONE', #96, 'mechanical' ) ;
#76 = LINE ( 'NONE', #222, #241 ) ;
#77 = VECTOR ( 'NONE', #278, 1000.000000000000000 ) ;
#78 = PRODUCT_RELATED_PRODUCT_CATEGORY ( 'detail', '', ( #57 ) ) ;
#79 = PLANE ( 'NONE',  #207 ) ;
#80 = CARTESIAN_POINT ( 'NONE',  ( 2.444036937190193601E-13, 1.999999999999992673, 70.00000000000000000 ) ) ;
#81 = EDGE_LOOP ( 'NONE', ( #272, #293 ) ) ;
#82 = DIRECTION ( 'NONE',  ( -3.491481338843133355E-15, 1.224646799147353207E-16, -1.000000000000000000 ) ) ;
#83 = DATE_AND_TIME ( #108, #35 ) ;
#84 = ADVANCED_FACE ( 'NONE', ( #232 ), #183, .T. ) ;
#85 = CARTESIAN_POINT ( 'NONE',  ( -2.137876538271896752E-31, 2.499999999999992895, -6.123121766362532060E-17 ) ) ;
#86 = CARTESIAN_POINT ( 'NONE',  ( 2.426579530495977493E-13, 2.499999999999992895, 69.50000000000000000 ) ) ;
#87 = CARTESIAN_POINT ( 'NONE',  ( 1.068957861474237287E-30, 2.499999999999994227, 3.061616997868376239E-16 ) ) ;
#88 = DIRECTION ( 'NONE',  ( 0.000000000000000000, 1.000000000000000000, 0.000000000000000000 ) ) ;
#89 = EDGE_LOOP ( 'NONE', ( #211, #166, #117, #288 ) ) ;
#90 = CARTESIAN_POINT ( 'NONE',  ( 1.740073583072326623E-13, -2.499999999999999556, 30.00000000000000000 ) ) ;
#91 = UNCERTAINTY_MEASURE_WITH_UNIT (LENGTH_MEASURE( 1.000000000000000082E-05 ), #48, 'distance_accuracy_value', 'NONE');
#92 = ADVANCED_FACE ( 'NONE', ( #4 ), #275, .F. ) ;
#93 = ORIENTED_EDGE ( 'NONE', *, *, #158, .T. ) ;
#94 = SECURITY_CLASSIFICATION_LEVEL ( 'unclassified' ) ;
#95 = ORIENTED_EDGE ( 'NONE', *, *, #219, .F. ) ;
#96 = APPLICATION_CONTEXT ( 'configuration controlled 3d designs of mechanical parts and assemblies' ) ;
#97 = CARTESIAN_POINT ( 'NONE',  ( 0.000000000000000000, 0.000000000000000000, 0.000000000000000000 ) ) ;
#98 = ORIENTED_EDGE ( 'NONE', *, *, #310, .T. ) ;
#99 = COORDINATED_UNIVERSAL_TIME_OFFSET ( 1, 0, .AHEAD. ) ;
#100 = CARTESIAN_POINT ( 'NONE',  ( 1.047444401652940007E-13, -3.673940397442059178E-15, 30.00000000000000000 ) ) ;
#101 = VERTEX_POINT ( 'NONE', #33 ) ;
#102 = CIRCLE ( 'NONE', #54, 2.499999999999996003 ) ;
#103 = DIRECTION ( 'NONE',  ( 4.275831445896958607E-31, 1.000000000000000000, 1.224646799147352961E-16 ) ) ;
#104 = ADVANCED_FACE ( 'NONE', ( #233 ), #273, .T. ) ;
#105 = LOCAL_TIME ( 8, 31, 48.00000000000000000, #68 ) ;
#106 = VERTEX_POINT ( 'NONE', #173 ) ;
#107 = CARTESIAN_POINT ( 'NONE',  ( 1.047444401652940007E-13, 1.874699728327314073E-32, 30.00000000000000000 ) ) ;
#108 = CALENDAR_DATE ( 2023, 31, 3 ) ;
#109 = PRODUCT_DEFINITION_SHAPE ( 'NONE', 'NONE',  #24 ) ;
#110 = ORIENTED_EDGE ( 'NONE', *, *, #217, .F. ) ;
#111 = APPROVAL_STATUS ( 'not_yet_approved' ) ;
#112 = VERTEX_POINT ( 'NONE', #172 ) ;
#113 = ORIENTED_EDGE ( 'NONE', *, *, #254, .T. ) ;
#114 = DIRECTION ( 'NONE',  ( -3.491481338843133355E-15, 1.224646799147353207E-16, -1.000000000000000000 ) ) ;
#115 = CONICAL_SURFACE ( 'NONE', #208, 2.000000000000001332, 0.7853981633974479459 ) ;
#116 = FACE_OUTER_BOUND ( 'NONE', #303, .T. ) ;
#117 = ORIENTED_EDGE ( 'NONE', *, *, #254, .F. ) ;
#118 = ORIENTED_EDGE ( 'NONE', *, *, #152, .T. ) ;
#119 = CC_DESIGN_PERSON_AND_ORGANIZATION_ASSIGNMENT ( #168, #245, ( #57 ) ) ;
#120 = AXIS2_PLACEMENT_3D ( 'NONE', #298, #235, #28 ) ;
#121 = AXIS2_PLACEMENT_3D ( 'NONE', #294, #82, #145 ) ;
#122 = AXIS2_PLACEMENT_3D ( 'NONE', #141, #13, #103 ) ;
#123 = DIRECTION ( 'NONE',  ( -4.275831445896958607E-31, -1.000000000000000000, -1.224646799147353207E-16 ) ) ;
#124 =( NAMED_UNIT ( * ) SI_UNIT ( $, .STERADIAN. ) SOLID_ANGLE_UNIT ( ) );
#125 = DIRECTION ( 'NONE',  ( 3.491481338843133355E-15, -1.224646799147353207E-16, 1.000000000000000000 ) ) ;
#126 = DIRECTION ( 'NONE',  ( -3.491481338843133355E-15, 1.224646799147353207E-16, -1.000000000000000000 ) ) ;
#127 = FACE_OUTER_BOUND ( 'NONE', #89, .T. ) ;
#128 = ORIENTED_EDGE ( 'NONE', *, *, #138, .F. ) ;
#129 = CYLINDRICAL_SURFACE ( 'NONE', #134, 2.499999999999998668 ) ;
#130 = ORIENTED_EDGE ( 'NONE', *, *, #165, .F. ) ;
#131 = EDGE_LOOP ( 'NONE', ( #113, #118, #135, #67 ) ) ;
#132 = DIRECTION ( 'NONE',  ( 0.000000000000000000, 1.000000000000000000, 0.000000000000000000 ) ) ;
#133 = DIRECTION ( 'NONE',  ( -3.491481338843133355E-15, 1.224646799147353207E-16, -1.000000000000000000 ) ) ;
#134 = AXIS2_PLACEMENT_3D ( 'NONE', #7, #30, #3 ) ;
#135 = ORIENTED_EDGE ( 'NONE', *, *, #36, .F. ) ;
#136 = PERSON_AND_ORGANIZATION_ROLE ( 'creator' ) ;
#137 = APPROVAL ( #161, 'UNSPECIFIED' ) ;
#138 = EDGE_CURVE ( 'NONE', #182, #101, #147, .T. ) ;
#139 = CARTESIAN_POINT ( 'NONE',  ( 2.438063689141167656E-13, -2.000000000000010214, 70.00000000000000000 ) ) ;
#140 = ORIENTED_EDGE ( 'NONE', *, *, #217, .T. ) ;
#141 = CARTESIAN_POINT ( 'NONE',  ( -1.282745515301426305E-30, 4.499265603851169331E-32, -3.673929174504626980E-16 ) ) ;
#142 = DIRECTION ( 'NONE',  ( 3.491481338843133355E-15, -1.224646799147353207E-16, 1.000000000000000000 ) ) ;
#143 = CC_DESIGN_APPROVAL ( #17, ( #24 ) ) ;
#144 = MANIFOLD_SOLID_BREP ( 'Corps-Déplacer/Copier1[1]', #295 ) ;
#145 = DIRECTION ( 'NONE',  ( 0.000000000000000000, 1.000000000000000000, 0.000000000000000000 ) ) ;
#146 = DIRECTION ( 'NONE',  ( -3.491481338843133355E-15, 1.224646799147353207E-16, -1.000000000000000000 ) ) ;
#147 = LINE ( 'NONE', #52, #170 ) ;
#148 = PRODUCT_DEFINITION_FORMATION_WITH_SPECIFIED_SOURCE ( 'ANY', '', #57, .NOT_KNOWN. ) ;
#149 = PLANE ( 'NONE',  #34 ) ;
#150 = PLANE ( 'NONE',  #155 ) ;
#151 = CARTESIAN_POINT ( 'NONE',  ( 0.000000000000000000, 0.000000000000000000, 0.000000000000000000 ) ) ;
#152 = EDGE_CURVE ( 'NONE', #106, #263, #76, .T. ) ;
#153 = ORIENTED_EDGE ( 'NONE', *, *, #184, .F. ) ;
#154 = DIRECTION ( 'NONE',  ( -3.491481338843133355E-15, 1.224646799147353207E-16, -1.000000000000000000 ) ) ;
#155 = AXIS2_PLACEMENT_3D ( 'NONE', #23, #142, #198 ) ;
#156 = ORGANIZATION ( 'UNSPECIFIED', 'UNSPECIFIED', '' ) ;
#157 = ADVANCED_FACE ( 'NONE', ( #292 ), #79, .T. ) ;
#158 = EDGE_CURVE ( 'NONE', #236, #112, #179, .T. ) ;
#159 = COORDINATED_UNIVERSAL_TIME_OFFSET ( 1, 0, .AHEAD. ) ;
#160 = ADVANCED_FACE ( 'NONE', ( #175 ), #149, .F. ) ;
#161 = APPROVAL_STATUS ( 'not_yet_approved' ) ;
#162 = PERSON ( 'UNSPECIFIED', 'UNSPECIFIED', 'UNSPECIFIED', ('UNSPECIFIED'), ('UNSPECIFIED'), ('UNSPECIFIED') ) ;
#163 = CARTESIAN_POINT ( 'NONE',  ( 0.000000000000000000, 0.000000000000000000, 0.000000000000000000 ) ) ;
#164 = VERTEX_POINT ( 'NONE', #86 ) ;
#165 = EDGE_CURVE ( 'NONE', #182, #274, #16, .T. ) ;
#166 = ORIENTED_EDGE ( 'NONE', *, *, #2, .T. ) ;
#167 = APPROVAL_DATE_TIME ( #286, #137 ) ;
#168 = PERSON_AND_ORGANIZATION ( #162, #156 ) ;
#169 = CC_DESIGN_DATE_AND_TIME_ASSIGNMENT ( #11, #29, ( #296 ) ) ;
#170 = VECTOR ( 'NONE', #290, 1000.000000000000000 ) ;
#171 =( GEOMETRIC_REPRESENTATION_CONTEXT ( 3 ) GLOBAL_UNCERTAINTY_ASSIGNED_CONTEXT ( ( #91 ) ) GLOBAL_UNIT_ASSIGNED_CONTEXT ( ( #48, #21, #124 ) ) REPRESENTATION_CONTEXT ( 'NONE', 'WORKASPACE' ) );
#172 = CARTESIAN_POINT ( 'NONE',  ( 2.444036937190193601E-13, 1.999999999999992673, 70.00000000000000000 ) ) ;
#173 = CARTESIAN_POINT ( 'NONE',  ( 1.740073583072325614E-13, -2.500000000000010214, 69.50000000000000000 ) ) ;
#174 = LINE ( 'NONE', #51, #252 ) ;
#175 = FACE_OUTER_BOUND ( 'NONE', #81, .T. ) ;
#176 = APPROVAL_DATE_TIME ( #83, #277 ) ;
#177 = FACE_OUTER_BOUND ( 'NONE', #270, .T. ) ;
#178 = ORIENTED_EDGE ( 'NONE', *, *, #73, .F. ) ;
#179 = CIRCLE ( 'NONE', #121, 2.000000000000001332 ) ;
#180 = CC_DESIGN_APPROVAL ( #137, ( #148 ) ) ;
#181 = APPLICATION_CONTEXT ( 'configuration controlled 3d designs of mechanical parts and assemblies' ) ;
#182 = VERTEX_POINT ( 'NONE', #300 ) ;
#183 = CYLINDRICAL_SURFACE ( 'NONE', #305, 2.499999999999994227 ) ;
#184 = EDGE_CURVE ( 'NONE', #112, #236, #25, .T. ) ;
#185 = APPROVAL_ROLE ( '' ) ;
#186 = EDGE_CURVE ( 'NONE', #106, #164, #224, .T. ) ;
#187 = DIRECTION ( 'NONE',  ( -3.491481338843133355E-15, 1.224646799147353207E-16, -1.000000000000000000 ) ) ;
#188 = PERSON_AND_ORGANIZATION ( #162, #156 ) ;
#189 = AXIS2_PLACEMENT_3D ( 'NONE', #61, #154, #258 ) ;
#190 = ADVANCED_FACE ( 'NONE', ( #127 ), #115, .T. ) ;
#191 = DIRECTION ( 'NONE',  ( 0.000000000000000000, 1.000000000000000000, 0.000000000000000000 ) ) ;
#192 = EDGE_LOOP ( 'NONE', ( #225, #69, #243, #110 ) ) ;
#193 = CALENDAR_DATE ( 2023, 31, 3 ) ;
#194 = ORIENTED_EDGE ( 'NONE', *, *, #152, .F. ) ;
#195 = APPROVAL_STATUS ( 'not_yet_approved' ) ;
#196 = LOCAL_TIME ( 8, 31, 48.00000000000000000, #159 ) ;
#197 = DIRECTION ( 'NONE',  ( -3.491481338843133355E-15, 1.224646799147353207E-16, -1.000000000000000000 ) ) ;
#198 = DIRECTION ( 'NONE',  ( -4.275831445896958607E-31, -1.000000000000000000, -1.224646799147353207E-16 ) ) ;
#199 = LOCAL_TIME ( 8, 31, 48.00000000000000000, #99 ) ;
#200 = ADVANCED_FACE ( 'NONE', ( #32 ), #234, .T. ) ;
#201 = CC_DESIGN_PERSON_AND_ORGANIZATION_ASSIGNMENT ( #284, #40, ( #24 ) ) ;
#203 = DIRECTION ( 'NONE',  ( -3.491481338843133355E-15, 1.224646799147353207E-16, -1.000000000000000000 ) ) ;
#202 = AXIS2_PLACEMENT_3D ( 'NONE', #70, #65, #88 ) ;
#204 = ORIENTED_EDGE ( 'NONE', *, *, #255, .T. ) ;
#205 = LINE ( 'NONE', #87, #77 ) ;
#206 = COORDINATED_UNIVERSAL_TIME_OFFSET ( 1, 0, .AHEAD. ) ;
#207 = AXIS2_PLACEMENT_3D ( 'NONE', #107, #47, #123 ) ;
#208 = AXIS2_PLACEMENT_3D ( 'NONE', #227, #257, #132 ) ;
#209 = APPROVAL_DATE_TIME ( #266, #17 ) ;
#210 = ADVANCED_FACE ( 'NONE', ( #230 ), #129, .T. ) ;
#211 = ORIENTED_EDGE ( 'NONE', *, *, #184, .T. ) ;
#212 = CARTESIAN_POINT ( 'NONE',  ( 0.000000000000000000, 0.000000000000000000, 0.000000000000000000 ) ) ;
#213 = APPROVAL_ROLE ( '' ) ;
#214 = DIRECTION ( 'NONE',  ( 0.000000000000000000, 0.000000000000000000, 1.000000000000000000 ) ) ;
#215 = CYLINDRICAL_SURFACE ( 'NONE', #46, 2.499999999999998668 ) ;
#216 = PERSON_AND_ORGANIZATION ( #162, #156 ) ;
#217 = EDGE_CURVE ( 'NONE', #274, #56, #205, .T. ) ;
#218 = AXIS2_PLACEMENT_3D ( 'NONE', #268, #146, #283 ) ;
#219 = EDGE_CURVE ( 'NONE', #101, #56, #26, .T. ) ;
#220 = APPLICATION_PROTOCOL_DEFINITION ( 'international standard', 'config_control_design', 1994, #96 ) ;
#221 = CC_DESIGN_SECURITY_CLASSIFICATION ( #296, ( #148 ) ) ;
#222 = CARTESIAN_POINT ( 'NONE',  ( 3.061616997868370815E-16, -2.499999999999998668, -3.061616997868392016E-16 ) ) ;
#223 = CC_DESIGN_DATE_AND_TIME_ASSIGNMENT ( #289, #15, ( #24 ) ) ;
#225 = ORIENTED_EDGE ( 'NONE', *, *, #73, .T. ) ;
#224 = CIRCLE ( 'NONE', #66, 2.500000000000001332 ) ;
#226 = PERSON_AND_ORGANIZATION ( #162, #156 ) ;
#227 = CARTESIAN_POINT ( 'NONE',  ( 2.444036937190193601E-13, -8.572527594031472993E-15, 70.00000000000000000 ) ) ;
#228 = ADVANCED_FACE ( 'NONE', ( #116 ), #215, .T. ) ;
#229 = ORIENTED_EDGE ( 'NONE', *, *, #186, .T. ) ;
#230 = FACE_OUTER_BOUND ( 'NONE', #131, .T. ) ;
#231 = VERTEX_POINT ( 'NONE', #287 ) ;
#232 = FACE_OUTER_BOUND ( 'NONE', #192, .T. ) ;
#233 = FACE_OUTER_BOUND ( 'NONE', #265, .T. ) ;
#234 = CONICAL_SURFACE ( 'NONE', #120, 2.000000000000001332, 0.7853981633974479459 ) ;
#235 = DIRECTION ( 'NONE',  ( -3.491481338843133355E-15, 1.224646799147353207E-16, -1.000000000000000000 ) ) ;
#236 = VERTEX_POINT ( 'NONE', #139 ) ;
#237 = CARTESIAN_POINT ( 'NONE',  ( 2.426579530495977493E-13, -8.511295254074105418E-15, 69.50000000000000000 ) ) ;
#238 = CALENDAR_DATE ( 2023, 31, 3 ) ;
#239 = PERSON_AND_ORGANIZATION_ROLE ( 'classification_officer' ) ;
#240 = COORDINATED_UNIVERSAL_TIME_OFFSET ( 1, 0, .AHEAD. ) ;
#241 = VECTOR ( 'NONE', #249, 1000.000000000000000 ) ;
#242 = APPROVAL_PERSON_ORGANIZATION ( #216, #137, #185 ) ;
#243 = ORIENTED_EDGE ( 'NONE', *, *, #248, .F. ) ;
#244 = PERSON_AND_ORGANIZATION ( #162, #156 ) ;
#245 = PERSON_AND_ORGANIZATION_ROLE ( 'design_owner' ) ;
#246 = AXIS2_PLACEMENT_3D ( 'NONE', #22, #203, #297 ) ;
#247 = VECTOR ( 'NONE', #19, 999.9999999999998863 ) ;
#248 = EDGE_CURVE ( 'NONE', #56, #101, #291, .T. ) ;
#249 = DIRECTION ( 'NONE',  ( -3.491481338843133355E-15, 1.224646799147353207E-16, -1.000000000000000000 ) ) ;
#250 = CARTESIAN_POINT ( 'NONE',  ( 1.047444401652940007E-13, 1.874699728327314073E-32, 30.00000000000000000 ) ) ;
#251 = MANIFOLD_SOLID_BREP ( 'Corps-Déplacer/Copier1[2]', #45 ) ;
#252 = VECTOR ( 'NONE', #53, 1000.000000000000000 ) ;
#253 = AXIS2_PLACEMENT_3D ( 'NONE', #97, #214, #280 ) ;
#254 = EDGE_CURVE ( 'NONE', #164, #106, #6, .T. ) ;
#255 = EDGE_CURVE ( 'NONE', #164, #231, #71, .T. ) ;
#256 = ORIENTED_EDGE ( 'NONE', *, *, #269, .F. ) ;
#257 = DIRECTION ( 'NONE',  ( -3.491481338843133355E-15, 1.224646799147353207E-16, -1.000000000000000000 ) ) ;
#258 = DIRECTION ( 'NONE',  ( 4.275831445896958607E-31, 1.000000000000000000, 1.224646799147353207E-16 ) ) ;
#259 = EDGE_LOOP ( 'NONE', ( #178, #130 ) ) ;
#260 = CALENDAR_DATE ( 2023, 31, 3 ) ;
#261 = CARTESIAN_POINT ( 'NONE',  ( 1.068957861474239214E-30, 2.499999999999998668, 3.061616997868381662E-16 ) ) ;
#262 = DIRECTION ( 'NONE',  ( -3.491481338843133355E-15, 1.224646799147353207E-16, -1.000000000000000000 ) ) ;
#263 = VERTEX_POINT ( 'NONE', #90 ) ;
#264 = APPLICATION_PROTOCOL_DEFINITION ( 'international standard', 'config_control_design', 1994, #181 ) ;
#265 = EDGE_LOOP ( 'NONE', ( #128, #8, #140, #95 ) ) ;
#266 = DATE_AND_TIME ( #238, #199 ) ;
#267 = DIRECTION ( 'NONE',  ( 4.275831445896958607E-31, 1.000000000000000000, 1.224646799147353207E-16 ) ) ;
#268 = CARTESIAN_POINT ( 'NONE',  ( 1.047444401652940007E-13, -3.673940397442059178E-15, 30.00000000000000000 ) ) ;
#269 = EDGE_CURVE ( 'NONE', #263, #231, #306, .T. ) ;
#270 = EDGE_LOOP ( 'NONE', ( #27, #64 ) ) ;
#271 = SHAPE_DEFINITION_REPRESENTATION ( #109, #301 ) ;
#272 = ORIENTED_EDGE ( 'NONE', *, *, #36, .T. ) ;
#273 = CYLINDRICAL_SURFACE ( 'NONE', #20, 2.499999999999994227 ) ;
#274 = VERTEX_POINT ( 'NONE', #311 ) ;
#275 = PLANE ( 'NONE',  #189 ) ;
#276 = CIRCLE ( 'NONE', #246, 2.499999999999996003 ) ;
#277 = APPROVAL ( #111, 'UNSPECIFIED' ) ;
#278 = DIRECTION ( 'NONE',  ( -3.491481338843133355E-15, 1.224646799147353207E-16, -1.000000000000000000 ) ) ;
#279 = ORIENTED_EDGE ( 'NONE', *, *, #158, .F. ) ;
#280 = DIRECTION ( 'NONE',  ( 1.000000000000000000, 0.000000000000000000, 0.000000000000000000 ) ) ;
#281 = CC_DESIGN_PERSON_AND_ORGANIZATION_ASSIGNMENT ( #188, #239, ( #296 ) ) ;
#282 = DIRECTION ( 'NONE',  ( 4.275831445896958607E-31, 1.000000000000000000, 1.224646799147353207E-16 ) ) ;
#283 = DIRECTION ( 'NONE',  ( 0.000000000000000000, 1.000000000000000000, 0.000000000000000000 ) ) ;
#284 = PERSON_AND_ORGANIZATION ( #162, #156 ) ;
#285 = DIRECTION ( 'NONE',  ( 4.275831445896959482E-31, 1.000000000000000000, 1.224646799147353207E-16 ) ) ;
#286 = DATE_AND_TIME ( #193, #196 ) ;
#287 = CARTESIAN_POINT ( 'NONE',  ( 1.047444401652940007E-13, 2.499999999999992895, 30.00000000000000000 ) ) ;
#288 = ORIENTED_EDGE ( 'NONE', *, *, #310, .F. ) ;
#289 = DATE_AND_TIME ( #308, #55 ) ;
#290 = DIRECTION ( 'NONE',  ( -3.491481338843133355E-15, 1.224646799147353207E-16, -1.000000000000000000 ) ) ;
#291 = CIRCLE ( 'NONE', #122, 2.499999999999992895 ) ;
#292 = FACE_OUTER_BOUND ( 'NONE', #259, .T. ) ;
#293 = ORIENTED_EDGE ( 'NONE', *, *, #269, .T. ) ;
#294 = CARTESIAN_POINT ( 'NONE',  ( 2.444036937190193601E-13, -8.572527594031472993E-15, 70.00000000000000000 ) ) ;
#295 = CLOSED_SHELL ( 'NONE', ( #190, #210, #160, #228, #200, #92 ) ) ;
#296 = SECURITY_CLASSIFICATION ( '', '', #94 ) ;
#297 = DIRECTION ( 'NONE',  ( 0.000000000000000000, 1.000000000000000000, 0.000000000000000000 ) ) ;
#298 = CARTESIAN_POINT ( 'NONE',  ( 2.444036937190193601E-13, -8.572527594031472993E-15, 70.00000000000000000 ) ) ;
#299 = CC_DESIGN_PERSON_AND_ORGANIZATION_ASSIGNMENT ( #244, #304, ( #148 ) ) ;
#300 = CARTESIAN_POINT ( 'NONE',  ( 5.267838178243376247E-14, -2.499999999999999556, 30.00000000000000000 ) ) ;
#301 = ADVANCED_BREP_SHAPE_REPRESENTATION ( '372702', ( #144, #251, #253 ), #171 ) ;
#302 = APPROVAL_PERSON_ORGANIZATION ( #72, #17, #213 ) ;
#303 = EDGE_LOOP ( 'NONE', ( #194, #229, #204, #256 ) ) ;
#304 = PERSON_AND_ORGANIZATION_ROLE ( 'design_supplier' ) ;
#305 = AXIS2_PLACEMENT_3D ( 'NONE', #212, #187, #282 ) ;
#306 = CIRCLE ( 'NONE', #50, 2.499999999999996003 ) ;
#307 = EDGE_LOOP ( 'NONE', ( #153, #279 ) ) ;
#308 = CALENDAR_DATE ( 2023, 31, 3 ) ;
#309 = AXIS2_PLACEMENT_3D ( 'NONE', #63, #58, #44 ) ;
#310 = EDGE_CURVE ( 'NONE', #112, #164, #49, .T. ) ;
#311 = CARTESIAN_POINT ( 'NONE',  ( 1.047444401652940007E-13, 2.499999999999992895, 30.00000000000000000 ) ) ;
#312 = VECTOR ( 'NONE', #262, 1000.000000000000000 ) ;
#313 = CC_DESIGN_PERSON_AND_ORGANIZATION_ASSIGNMENT ( #42, #136, ( #148 ) ) ;
ENDSEC;
END-ISO-10303-21;
