ISO-10303-21;
HEADER;
FILE_DESCRIPTION (( 'STEP AP203' ),
    '1' );
FILE_NAME ('372701.step',
    '2023-03-31T06:31:48',
    ( '' ),
    ( '' ),
    'SwSTEP 2.0',
    'SolidWorks 2022',
    '' );
FILE_SCHEMA (( 'CONFIG_CONTROL_DESIGN' ));
ENDSEC;

DATA;
#1 = DIRECTION ( 'NONE',  ( -3.491481338843133355E-15, 1.224646799147353207E-16, -1.000000000000000000 ) ) ;
#2 = EDGE_CURVE ( 'NONE', #111, #209, #296, .T. ) ;
#3 = COORDINATED_UNIVERSAL_TIME_OFFSET ( 1, 0, .AHEAD. ) ;
#4 = DIRECTION ( 'NONE',  ( 0.000000000000000000, 1.000000000000000000, 0.000000000000000000 ) ) ;
#5 = VECTOR ( 'NONE', #248, 1000.000000000000000 ) ;
#6 = ORIENTED_EDGE ( 'NONE', *, *, #226, .F. ) ;
#7 = DIRECTION ( 'NONE',  ( -3.491481338843133355E-15, 1.224646799147353207E-16, -1.000000000000000000 ) ) ;
#8 = DIRECTION ( 'NONE',  ( 0.000000000000000000, 1.000000000000000000, 0.000000000000000000 ) ) ;
#9 = EDGE_LOOP ( 'NONE', ( #259, #56, #289, #273 ) ) ;
#10 = AXIS2_PLACEMENT_3D ( 'NONE', #207, #131, #8 ) ;
#11 = DIRECTION ( 'NONE',  ( -4.275831445896958607E-31, -1.000000000000000000, -1.224646799147353207E-16 ) ) ;
#12 = DIRECTION ( 'NONE',  ( 4.275831445896959482E-31, 1.000000000000000000, 1.224646799147353454E-16 ) ) ;
#13 = CARTESIAN_POINT ( 'NONE',  ( -1.282745515301426305E-30, 4.499265603851169331E-32, -3.673929174504626980E-16 ) ) ;
#14 = ORIENTED_EDGE ( 'NONE', *, *, #103, .F. ) ;
#15 = AXIS2_PLACEMENT_3D ( 'NONE', #255, #34, #166 ) ;
#16 = CC_DESIGN_DATE_AND_TIME_ASSIGNMENT ( #122, #286, ( #106 ) ) ;
#17 = PRODUCT_DEFINITION_FORMATION_WITH_SPECIFIED_SOURCE ( 'ANY', '', #246, .NOT_KNOWN. ) ;
#18 = PERSON_AND_ORGANIZATION_ROLE ( 'classification_officer' ) ;
#19 = PERSON_AND_ORGANIZATION ( #132, #128 ) ;
#20 = CIRCLE ( 'NONE', #284, 2.499999999999994227 ) ;
#21 = CC_DESIGN_PERSON_AND_ORGANIZATION_ASSIGNMENT ( #310, #18, ( #106 ) ) ;
#22 = PERSON_AND_ORGANIZATION ( #132, #128 ) ;
#23 = CONICAL_SURFACE ( 'NONE', #233, 2.000000000000000000, 0.7853981633974479459 ) ;
#24 = LOCAL_TIME ( 8, 31, 48.00000000000000000, #141 ) ;
#25 = APPLICATION_PROTOCOL_DEFINITION ( 'international standard', 'config_control_design', 1994, #260 ) ;
#26 = UNCERTAINTY_MEASURE_WITH_UNIT (LENGTH_MEASURE( 1.000000000000000082E-05 ), #223, 'distance_accuracy_value', 'NONE');
#27 = PERSON_AND_ORGANIZATION ( #132, #128 ) ;
#28 = AXIS2_PLACEMENT_3D ( 'NONE', #31, #263, #151 ) ;
#29 = ADVANCED_FACE ( 'NONE', ( #272 ), #299, .F. ) ;
#30 = DATE_AND_TIME ( #133, #278 ) ;
#31 = CARTESIAN_POINT ( 'NONE',  ( 0.000000000000000000, 0.000000000000000000, 0.000000000000000000 ) ) ;
#32 = ORIENTED_EDGE ( 'NONE', *, *, #136, .T. ) ;
#33 = DIRECTION ( 'NONE',  ( 3.491481338843133355E-15, -1.224646799147353207E-16, 1.000000000000000000 ) ) ;
#34 = DIRECTION ( 'NONE',  ( 3.491481338843133355E-15, -1.224646799147353207E-16, 1.000000000000000000 ) ) ;
#35 = DIRECTION ( 'NONE',  ( -3.491481338843133355E-15, 1.224646799147353207E-16, -1.000000000000000000 ) ) ;
#36 = LOCAL_TIME ( 8, 31, 48.00000000000000000, #276 ) ;
#37 = ORIENTED_EDGE ( 'NONE', *, *, #136, .F. ) ;
#38 = PERSON_AND_ORGANIZATION ( #132, #128 ) ;
#39 = CIRCLE ( 'NONE', #309, 2.499999999999994227 ) ;
#40 = LOCAL_TIME ( 8, 31, 48.00000000000000000, #311 ) ;
#41 = FACE_OUTER_BOUND ( 'NONE', #61, .T. ) ;
#42 = COORDINATED_UNIVERSAL_TIME_OFFSET ( 1, 0, .AHEAD. ) ;
#43 = APPROVAL ( #66, 'UNSPECIFIED' ) ;
#44 = CLOSED_SHELL ( 'NONE', ( #247, #84, #29, #75, #165, #213 ) ) ;
#45 = SHAPE_DEFINITION_REPRESENTATION ( #98, #60 ) ;
#46 = APPROVAL_PERSON_ORGANIZATION ( #250, #113, #225 ) ;
#47 = DIRECTION ( 'NONE',  ( 4.275831445896958607E-31, 1.000000000000000000, 1.224646799147352961E-16 ) ) ;
#48 = AXIS2_PLACEMENT_3D ( 'NONE', #266, #242, #12 ) ;
#49 = ORIENTED_EDGE ( 'NONE', *, *, #187, .T. ) ;
#50 = CARTESIAN_POINT ( 'NONE',  ( 2.077431396611664157E-13, -7.286648454926750781E-15, 59.50000000000000000 ) ) ;
#51 = ORIENTED_EDGE ( 'NONE', *, *, #199, .F. ) ;
#52 = PERSON_AND_ORGANIZATION_ROLE ( 'creator' ) ;
#53 = CARTESIAN_POINT ( 'NONE',  ( 5.237222008264700033E-14, -1.836970198721029589E-15, 15.00000000000000000 ) ) ;
#54 = DIRECTION ( 'NONE',  ( -4.275831445896958607E-31, -1.000000000000000000, -1.224646799147353207E-16 ) ) ;
#55 = PRODUCT_RELATED_PRODUCT_CATEGORY ( 'detail', '', ( #246 ) ) ;
#56 = ORIENTED_EDGE ( 'NONE', *, *, #69, .T. ) ;
#57 = PLANE ( 'NONE',  #288 ) ;
#58 = DIRECTION ( 'NONE',  ( -3.491481338843133355E-15, 1.224646799147353207E-16, -1.000000000000000000 ) ) ;
#59 = VECTOR ( 'NONE', #291, 1000.000000000000000 ) ;
#60 = ADVANCED_BREP_SHAPE_REPRESENTATION ( '372701', ( #280, #287, #234 ), #172 ) ;
#61 = EDGE_LOOP ( 'NONE', ( #194, #114 ) ) ;
#62 = DIRECTION ( 'NONE',  ( -3.491481338843133355E-15, 1.224646799147353207E-16, -1.000000000000000000 ) ) ;
#63 = ORIENTED_EDGE ( 'NONE', *, *, #161, .T. ) ;
#64 = FACE_OUTER_BOUND ( 'NONE', #93, .T. ) ;
#65 = DIRECTION ( 'NONE',  ( 4.275831445896959482E-31, 1.000000000000000000, 1.224646799147353207E-16 ) ) ;
#66 = APPROVAL_STATUS ( 'not_yet_approved' ) ;
#67 = CARTESIAN_POINT ( 'NONE',  ( 2.077431396611664157E-13, -7.286648454926750781E-15, 59.50000000000000000 ) ) ;
#68 = CARTESIAN_POINT ( 'NONE',  ( 2.094888803305880013E-13, -7.347880794884118356E-15, 60.00000000000000000 ) ) ;
#69 = EDGE_CURVE ( 'NONE', #111, #101, #89, .T. ) ;
#70 = CARTESIAN_POINT ( 'NONE',  ( 2.094888803305880013E-13, 1.999999999999992673, 60.00000000000000000 ) ) ;
#71 = DIRECTION ( 'NONE',  ( -3.491481338843133355E-15, 1.224646799147353207E-16, -1.000000000000000000 ) ) ;
#72 = APPROVAL_PERSON_ORGANIZATION ( #38, #43, #256 ) ;
#73 = PERSON_AND_ORGANIZATION ( #132, #128 ) ;
#74 = ORIENTED_EDGE ( 'NONE', *, *, #218, .T. ) ;
#75 = ADVANCED_FACE ( 'NONE', ( #261 ), #104, .T. ) ;
#76 = ORIENTED_EDGE ( 'NONE', *, *, #224, .F. ) ;
#77 = CARTESIAN_POINT ( 'NONE',  ( 3.061616997868368843E-16, -2.499999999999996891, -3.061616997868389551E-16 ) ) ;
#78 = DATE_AND_TIME ( #119, #40 ) ;
#79 = DIRECTION ( 'NONE',  ( 0.000000000000000000, 1.000000000000000000, 0.000000000000000000 ) ) ;
#80 = PRODUCT_DEFINITION ( 'UNKNOWN', '', #17, #87 ) ;
#81 = DIRECTION ( 'NONE',  ( 0.000000000000000000, 1.000000000000000000, 0.000000000000000000 ) ) ;
#82 = DIRECTION ( 'NONE',  ( 0.000000000000000000, 1.000000000000000000, 0.000000000000000000 ) ) ;
#83 = AXIS2_PLACEMENT_3D ( 'NONE', #67, #102, #251 ) ;
#84 = ADVANCED_FACE ( 'NONE', ( #190 ), #302, .T. ) ;
#85 = CALENDAR_DATE ( 2023, 31, 3 ) ;
#86 = CARTESIAN_POINT ( 'NONE',  ( 5.237222008264700033E-14, 1.874699728327315441E-32, 15.00000000000000000 ) ) ;
#87 = DESIGN_CONTEXT ( 'detailed design', #100, 'design' ) ;
#88 = ORIENTED_EDGE ( 'NONE', *, *, #203, .T. ) ;
#89 = CIRCLE ( 'NONE', #10, 2.000000000000000000 ) ;
#90 = CONICAL_SURFACE ( 'NONE', #245, 2.000000000000000000, 0.7853981633974479459 ) ;
#91 = ORIENTED_EDGE ( 'NONE', *, *, #160, .T. ) ;
#92 = APPROVAL_DATE_TIME ( #30, #113 ) ;
#93 = EDGE_LOOP ( 'NONE', ( #243, #32 ) ) ;
#94 = PERSON_AND_ORGANIZATION_ROLE ( 'creator' ) ;
#95 = EDGE_LOOP ( 'NONE', ( #179, #208, #91, #37 ) ) ;
#96 = CARTESIAN_POINT ( 'NONE',  ( 5.237222008264700033E-14, 2.499999999999992895, 15.00000000000000000 ) ) ;
#97 = AXIS2_PLACEMENT_3D ( 'NONE', #177, #71, #47 ) ;
#98 = PRODUCT_DEFINITION_SHAPE ( 'NONE', 'NONE',  #80 ) ;
#99 = CC_DESIGN_PERSON_AND_ORGANIZATION_ASSIGNMENT ( #107, #211, ( #246 ) ) ;
#100 = APPLICATION_CONTEXT ( 'configuration controlled 3d designs of mechanical parts and assemblies' ) ;
#101 = VERTEX_POINT ( 'NONE', #70 ) ;
#102 = DIRECTION ( 'NONE',  ( -3.491481338843133355E-15, 1.224646799147353207E-16, -1.000000000000000000 ) ) ;
#103 = EDGE_CURVE ( 'NONE', #168, #127, #143, .T. ) ;
#104 = CYLINDRICAL_SURFACE ( 'NONE', #244, 2.499999999999996891 ) ;
#105 = DIRECTION ( 'NONE',  ( 0.000000000000000000, 0.000000000000000000, 1.000000000000000000 ) ) ;
#106 = SECURITY_CLASSIFICATION ( '', '', #144 ) ;
#107 = PERSON_AND_ORGANIZATION ( #132, #128 ) ;
#108 = DIRECTION ( 'NONE',  ( 0.000000000000000000, 1.000000000000000000, 0.000000000000000000 ) ) ;
#109 = EDGE_LOOP ( 'NONE', ( #6, #63, #200, #301 ) ) ;
#110 = DIRECTION ( 'NONE',  ( -3.491481338843133355E-15, 1.224646799147353207E-16, -1.000000000000000000 ) ) ;
#111 = VERTEX_POINT ( 'NONE', #253 ) ;
#112 = CARTESIAN_POINT ( 'NONE',  ( -2.137876538271896752E-31, 2.499999999999992895, -6.123121766362532060E-17 ) ) ;
#113 = APPROVAL ( #154, 'UNSPECIFIED' ) ;
#114 = ORIENTED_EDGE ( 'NONE', *, *, #69, .F. ) ;
#115 = APPROVAL_STATUS ( 'not_yet_approved' ) ;
#116 = LINE ( 'NONE', #313, #303 ) ;
#117 = ORIENTED_EDGE ( 'NONE', *, *, #231, .F. ) ;
#118 = AXIS2_PLACEMENT_3D ( 'NONE', #174, #241, #173 ) ;
#119 = CALENDAR_DATE ( 2023, 31, 3 ) ;
#120 = ORIENTED_EDGE ( 'NONE', *, *, #218, .F. ) ;
#121 = CARTESIAN_POINT ( 'NONE',  ( 5.237222008264700033E-14, -1.836970198721029589E-15, 15.00000000000000000 ) ) ;
#122 = DATE_AND_TIME ( #170, #298 ) ;
#123 = LINE ( 'NONE', #77, #59 ) ;
#124 = CARTESIAN_POINT ( 'NONE',  ( 1.303638415716933503E-13, -2.500000000000007550, 59.50000000000000000 ) ) ;
#125 = AXIS2_PLACEMENT_3D ( 'NONE', #50, #180, #4 ) ;
#126 = CC_DESIGN_PERSON_AND_ORGANIZATION_ASSIGNMENT ( #22, #94, ( #17 ) ) ;
#127 = VERTEX_POINT ( 'NONE', #167 ) ;
#128 = ORGANIZATION ( 'UNSPECIFIED', 'UNSPECIFIED', '' ) ;
#129 =( NAMED_UNIT ( * ) PLANE_ANGLE_UNIT ( ) SI_UNIT ( $, .RADIAN. ) );
#130 = CARTESIAN_POINT ( 'NONE',  ( 1.068957861474236937E-30, 2.499999999999993339, 3.061616997868375253E-16 ) ) ;
#131 = DIRECTION ( 'NONE',  ( -3.491481338843133355E-15, 1.224646799147353207E-16, -1.000000000000000000 ) ) ;
#132 = PERSON ( 'UNSPECIFIED', 'UNSPECIFIED', 'UNSPECIFIED', ('UNSPECIFIED'), ('UNSPECIFIED'), ('UNSPECIFIED') ) ;
#133 = CALENDAR_DATE ( 2023, 31, 3 ) ;
#134 = CARTESIAN_POINT ( 'NONE',  ( 5.237222008264700033E-14, -1.836970198721029589E-15, 15.00000000000000000 ) ) ;
#135 = EDGE_LOOP ( 'NONE', ( #252, #14 ) ) ;
#136 = EDGE_CURVE ( 'NONE', #216, #139, #217, .T. ) ;
#137 = ADVANCED_FACE ( 'NONE', ( #140 ), #237, .T. ) ;
#138 = CARTESIAN_POINT ( 'NONE',  ( 0.000000000000000000, 0.000000000000000000, 0.000000000000000000 ) ) ;
#139 = VERTEX_POINT ( 'NONE', #112 ) ;
#140 = FACE_OUTER_BOUND ( 'NONE', #283, .T. ) ;
#141 = COORDINATED_UNIVERSAL_TIME_OFFSET ( 1, 0, .AHEAD. ) ;
#142 = EDGE_LOOP ( 'NONE', ( #236, #228, #120, #196 ) ) ;
#143 = CIRCLE ( 'NONE', #307, 2.499999999999994227 ) ;
#144 = SECURITY_CLASSIFICATION_LEVEL ( 'unclassified' ) ;
#145 = DIRECTION ( 'NONE',  ( -3.491481338843133355E-15, 1.224646799147353207E-16, -1.000000000000000000 ) ) ;
#146 = DIRECTION ( 'NONE',  ( 4.275831445896958607E-31, 1.000000000000000000, 1.224646799147353207E-16 ) ) ;
#147 = LINE ( 'NONE', #130, #171 ) ;
#148 = CARTESIAN_POINT ( 'NONE',  ( 2.094888803305880013E-13, -7.347880794884118356E-15, 60.00000000000000000 ) ) ;
#149 = CARTESIAN_POINT ( 'NONE',  ( 2.094888803305880013E-13, 1.499759782661846660E-32, 60.00000000000000000 ) ) ;
#150 = CIRCLE ( 'NONE', #97, 2.499999999999992895 ) ;
#151 = DIRECTION ( 'NONE',  ( 4.275831445896959482E-31, 1.000000000000000000, 1.224646799147353454E-16 ) ) ;
#152 = CARTESIAN_POINT ( 'NONE',  ( 5.237222008264700033E-14, -1.836970198721029589E-15, 15.00000000000000000 ) ) ;
#153 = CARTESIAN_POINT ( 'NONE',  ( 2.094888803305880013E-13, 1.999999999999992673, 60.00000000000000000 ) ) ;
#154 = APPROVAL_STATUS ( 'not_yet_approved' ) ;
#155 = CLOSED_SHELL ( 'NONE', ( #137, #271, #163, #176 ) ) ;
#156 = APPROVAL_PERSON_ORGANIZATION ( #19, #306, #215 ) ;
#157 = CARTESIAN_POINT ( 'NONE',  ( 2.097338096904174716E-13, -2.000000000000007550, 60.00000000000000000 ) ) ;
#158 = EDGE_CURVE ( 'NONE', #257, #221, #116, .T. ) ;
#159 = DIRECTION ( 'NONE',  ( 0.000000000000000000, 1.000000000000000000, 0.000000000000000000 ) ) ;
#160 = EDGE_CURVE ( 'NONE', #127, #139, #147, .T. ) ;
#161 = EDGE_CURVE ( 'NONE', #209, #257, #292, .T. ) ;
#162 = DIRECTION ( 'NONE',  ( -3.491481338843133355E-15, 1.224646799147353207E-16, -1.000000000000000000 ) ) ;
#163 = ADVANCED_FACE ( 'NONE', ( #178 ), #269, .T. ) ;
#164 = ORIENTED_EDGE ( 'NONE', *, *, #2, .T. ) ;
#165 = ADVANCED_FACE ( 'NONE', ( #300 ), #23, .T. ) ;
#166 = DIRECTION ( 'NONE',  ( -4.275831445896958607E-31, -1.000000000000000000, -1.224646799147353207E-16 ) ) ;
#167 = CARTESIAN_POINT ( 'NONE',  ( 5.237222008264700033E-14, 2.499999999999992895, 15.00000000000000000 ) ) ;
#168 = VERTEX_POINT ( 'NONE', #186 ) ;
#169 = DIRECTION ( 'NONE',  ( 4.275831445896958607E-31, 1.000000000000000000, 1.224646799147352961E-16 ) ) ;
#170 = CALENDAR_DATE ( 2023, 31, 3 ) ;
#171 = VECTOR ( 'NONE', #189, 1000.000000000000000 ) ;
#172 =( GEOMETRIC_REPRESENTATION_CONTEXT ( 3 ) GLOBAL_UNCERTAINTY_ASSIGNED_CONTEXT ( ( #26 ) ) GLOBAL_UNIT_ASSIGNED_CONTEXT ( ( #223, #129, #293 ) ) REPRESENTATION_CONTEXT ( 'NONE', 'WORKASPACE' ) );
#173 = DIRECTION ( 'NONE',  ( 0.000000000000000000, 1.000000000000000000, 0.000000000000000000 ) ) ;
#174 = CARTESIAN_POINT ( 'NONE',  ( 2.094888803305880013E-13, -7.347880794884118356E-15, 60.00000000000000000 ) ) ;
#175 = APPROVAL_DATE_TIME ( #78, #306 ) ;
#176 = ADVANCED_FACE ( 'NONE', ( #230 ), #212, .T. ) ;
#177 = CARTESIAN_POINT ( 'NONE',  ( -1.282745515301426305E-30, 4.499265603851169331E-32, -3.673929174504626980E-16 ) ) ;
#178 = FACE_OUTER_BOUND ( 'NONE', #95, .T. ) ;
#179 = ORIENTED_EDGE ( 'NONE', *, *, #187, .F. ) ;
#180 = DIRECTION ( 'NONE',  ( -3.491481338843133355E-15, 1.224646799147353207E-16, -1.000000000000000000 ) ) ;
#181 = AXIS2_PLACEMENT_3D ( 'NONE', #53, #282, #159 ) ;
#182 = CC_DESIGN_APPROVAL ( #43, ( #80 ) ) ;
#183 = DATE_AND_TIME ( #85, #24 ) ;
#184 = CARTESIAN_POINT ( 'NONE',  ( 3.061616997868364899E-16, -2.499999999999993339, -3.061616997868385606E-16 ) ) ;
#185 = DIRECTION ( 'NONE',  ( 3.491481338843133355E-15, -1.224646799147353207E-16, 1.000000000000000000 ) ) ;
#186 = CARTESIAN_POINT ( 'NONE',  ( 2.649227174111031910E-14, -2.499999999999996003, 15.00000000000000000 ) ) ;
#187 = EDGE_CURVE ( 'NONE', #168, #216, #305, .T. ) ;
#188 = APPROVAL_DATE_TIME ( #183, #43 ) ;
#189 = DIRECTION ( 'NONE',  ( -3.491481338843133355E-15, 1.224646799147353207E-16, -1.000000000000000000 ) ) ;
#190 = FACE_OUTER_BOUND ( 'NONE', #142, .T. ) ;
#191 = EDGE_CURVE ( 'NONE', #304, #221, #312, .T. ) ;
#192 = DIRECTION ( 'NONE',  ( 1.000000000000000000, 0.000000000000000000, 0.000000000000000000 ) ) ;
#193 = ORIENTED_EDGE ( 'NONE', *, *, #239, .T. ) ;
#194 = ORIENTED_EDGE ( 'NONE', *, *, #203, .F. ) ;
#195 = DIRECTION ( 'NONE',  ( 4.275831445896959482E-31, 1.000000000000000000, 1.224646799147353207E-16 ) ) ;
#196 = ORIENTED_EDGE ( 'NONE', *, *, #158, .F. ) ;
#197 = EDGE_LOOP ( 'NONE', ( #88, #164, #51, #76 ) ) ;
#198 = CC_DESIGN_APPROVAL ( #306, ( #106 ) ) ;
#199 = EDGE_CURVE ( 'NONE', #257, #209, #202, .T. ) ;
#200 = ORIENTED_EDGE ( 'NONE', *, *, #158, .T. ) ;
#201 = CC_DESIGN_PERSON_AND_ORGANIZATION_ASSIGNMENT ( #27, #52, ( #80 ) ) ;
#202 = CIRCLE ( 'NONE', #83, 2.500000000000000000 ) ;
#203 = EDGE_CURVE ( 'NONE', #101, #111, #258, .T. ) ;
#204 = CARTESIAN_POINT ( 'NONE',  ( 1.303638415716935017E-13, -2.499999999999996003, 15.00000000000000000 ) ) ;
#205 = VECTOR ( 'NONE', #220, 999.9999999999998863 ) ;
#206 = CC_DESIGN_APPROVAL ( #113, ( #17 ) ) ;
#207 = CARTESIAN_POINT ( 'NONE',  ( 2.094888803305880013E-13, -7.347880794884118356E-15, 60.00000000000000000 ) ) ;
#208 = ORIENTED_EDGE ( 'NONE', *, *, #103, .T. ) ;
#209 = VERTEX_POINT ( 'NONE', #124 ) ;
#210 = CALENDAR_DATE ( 2023, 31, 3 ) ;
#211 = PERSON_AND_ORGANIZATION_ROLE ( 'design_owner' ) ;
#212 = PLANE ( 'NONE',  #15 ) ;
#213 = ADVANCED_FACE ( 'NONE', ( #41 ), #264, .F. ) ;
#214 = EDGE_LOOP ( 'NONE', ( #74, #294 ) ) ;
#215 = APPROVAL_ROLE ( '' ) ;
#216 = VERTEX_POINT ( 'NONE', #290 ) ;
#217 = CIRCLE ( 'NONE', #275, 2.499999999999992895 ) ;
#218 = EDGE_CURVE ( 'NONE', #221, #304, #20, .T. ) ;
#219 = CC_DESIGN_SECURITY_CLASSIFICATION ( #106, ( #17 ) ) ;
#220 = DIRECTION ( 'NONE',  ( -2.468850131082266527E-15, 0.7071067811865473507, -0.7071067811865477948 ) ) ;
#221 = VERTEX_POINT ( 'NONE', #96 ) ;
#222 = AXIS2_PLACEMENT_3D ( 'NONE', #235, #35, #195 ) ;
#223 =( LENGTH_UNIT ( ) NAMED_UNIT ( * ) SI_UNIT ( .MILLI., .METRE. ) );
#224 = EDGE_CURVE ( 'NONE', #101, #257, #285, .T. ) ;
#225 = APPROVAL_ROLE ( '' ) ;
#226 = EDGE_CURVE ( 'NONE', #209, #304, #123, .T. ) ;
#227 = DATE_AND_TIME ( #210, #36 ) ;
#228 = ORIENTED_EDGE ( 'NONE', *, *, #226, .T. ) ;
#229 = CARTESIAN_POINT ( 'NONE',  ( -6.413727576507131527E-31, 2.249632801925584666E-32, -1.836964587252313490E-16 ) ) ;
#230 = FACE_OUTER_BOUND ( 'NONE', #135, .T. ) ;
#231 = EDGE_CURVE ( 'NONE', #139, #216, #150, .T. ) ;
#232 = DIRECTION ( 'NONE',  ( 0.000000000000000000, 1.000000000000000000, 0.000000000000000000 ) ) ;
#233 = AXIS2_PLACEMENT_3D ( 'NONE', #68, #58, #232 ) ;
#234 = AXIS2_PLACEMENT_3D ( 'NONE', #138, #105, #192 ) ;
#235 = CARTESIAN_POINT ( 'NONE',  ( 0.000000000000000000, 0.000000000000000000, 0.000000000000000000 ) ) ;
#236 = ORIENTED_EDGE ( 'NONE', *, *, #199, .T. ) ;
#237 = CYLINDRICAL_SURFACE ( 'NONE', #28, 2.499999999999993339 ) ;
#238 = AXIS2_PLACEMENT_3D ( 'NONE', #86, #185, #54 ) ;
#239 = EDGE_CURVE ( 'NONE', #127, #168, #39, .T. ) ;
#240 = DIRECTION ( 'NONE',  ( -3.491481338843133355E-15, 1.224646799147353207E-16, -1.000000000000000000 ) ) ;
#241 = DIRECTION ( 'NONE',  ( -3.491481338843133355E-15, 1.224646799147353207E-16, -1.000000000000000000 ) ) ;
#242 = DIRECTION ( 'NONE',  ( -3.491481338843133355E-15, 1.224646799147353207E-16, -1.000000000000000000 ) ) ;
#243 = ORIENTED_EDGE ( 'NONE', *, *, #231, .T. ) ;
#244 = AXIS2_PLACEMENT_3D ( 'NONE', #279, #62, #65 ) ;
#245 = AXIS2_PLACEMENT_3D ( 'NONE', #148, #295, #82 ) ;
#246 = PRODUCT ( '372701', '372701', '', ( #254 ) ) ;
#247 = ADVANCED_FACE ( 'NONE', ( #265 ), #90, .T. ) ;
#248 = DIRECTION ( 'NONE',  ( -2.382254525458717469E-15, -0.7071067811865471286, -0.7071067811865479058 ) ) ;
#249 = CC_DESIGN_DATE_AND_TIME_ASSIGNMENT ( #227, #268, ( #80 ) ) ;
#250 = PERSON_AND_ORGANIZATION ( #132, #128 ) ;
#251 = DIRECTION ( 'NONE',  ( 0.000000000000000000, 1.000000000000000000, 0.000000000000000000 ) ) ;
#252 = ORIENTED_EDGE ( 'NONE', *, *, #239, .F. ) ;
#253 = CARTESIAN_POINT ( 'NONE',  ( 2.088915555256853563E-13, -2.000000000000007550, 60.00000000000000000 ) ) ;
#254 = MECHANICAL_CONTEXT ( 'NONE', #260, 'mechanical' ) ;
#255 = CARTESIAN_POINT ( 'NONE',  ( 5.237222008264700033E-14, 1.874699728327315441E-32, 15.00000000000000000 ) ) ;
#256 = APPROVAL_ROLE ( '' ) ;
#257 = VERTEX_POINT ( 'NONE', #277 ) ;
#258 = CIRCLE ( 'NONE', #118, 2.000000000000000000 ) ;
#259 = ORIENTED_EDGE ( 'NONE', *, *, #2, .F. ) ;
#260 = APPLICATION_CONTEXT ( 'configuration controlled 3d designs of mechanical parts and assemblies' ) ;
#261 = FACE_OUTER_BOUND ( 'NONE', #109, .T. ) ;
#262 = PERSON_AND_ORGANIZATION_ROLE ( 'design_supplier' ) ;
#263 = DIRECTION ( 'NONE',  ( -3.491481338843133355E-15, 1.224646799147353207E-16, -1.000000000000000000 ) ) ;
#264 = PLANE ( 'NONE',  #297 ) ;
#265 = FACE_OUTER_BOUND ( 'NONE', #197, .T. ) ;
#266 = CARTESIAN_POINT ( 'NONE',  ( 0.000000000000000000, 0.000000000000000000, 0.000000000000000000 ) ) ;
#267 = DIRECTION ( 'NONE',  ( -3.491481338843133355E-15, 1.224646799147353207E-16, -1.000000000000000000 ) ) ;
#268 = DATE_TIME_ROLE ( 'creation_date' ) ;
#269 = CYLINDRICAL_SURFACE ( 'NONE', #48, 2.499999999999993339 ) ;
#270 = VECTOR ( 'NONE', #7, 1000.000000000000000 ) ;
#271 = ADVANCED_FACE ( 'NONE', ( #64 ), #57, .F. ) ;
#272 = FACE_OUTER_BOUND ( 'NONE', #214, .T. ) ;
#273 = ORIENTED_EDGE ( 'NONE', *, *, #161, .F. ) ;
#274 = CC_DESIGN_PERSON_AND_ORGANIZATION_ASSIGNMENT ( #73, #262, ( #17 ) ) ;
#275 = AXIS2_PLACEMENT_3D ( 'NONE', #13, #110, #169 ) ;
#276 = COORDINATED_UNIVERSAL_TIME_OFFSET ( 1, 0, .AHEAD. ) ;
#277 = CARTESIAN_POINT ( 'NONE',  ( 2.077431396611664157E-13, 2.499999999999992895, 59.50000000000000000 ) ) ;
#278 = LOCAL_TIME ( 8, 31, 48.00000000000000000, #3 ) ;
#279 = CARTESIAN_POINT ( 'NONE',  ( 0.000000000000000000, 0.000000000000000000, 0.000000000000000000 ) ) ;
#280 = MANIFOLD_SOLID_BREP ( 'Corps-Déplacer/Copier1[1]', #44 ) ;
#281 = APPLICATION_PROTOCOL_DEFINITION ( 'international standard', 'config_control_design', 1994, #100 ) ;
#282 = DIRECTION ( 'NONE',  ( -3.491481338843133355E-15, 1.224646799147353207E-16, -1.000000000000000000 ) ) ;
#283 = EDGE_LOOP ( 'NONE', ( #193, #49, #117, #308 ) ) ;
#284 = AXIS2_PLACEMENT_3D ( 'NONE', #121, #240, #79 ) ;
#285 = LINE ( 'NONE', #153, #205 ) ;
#286 = DATE_TIME_ROLE ( 'classification_date' ) ;
#287 = MANIFOLD_SOLID_BREP ( 'Corps-Déplacer/Copier1[2]', #155 ) ;
#288 = AXIS2_PLACEMENT_3D ( 'NONE', #229, #33, #11 ) ;
#289 = ORIENTED_EDGE ( 'NONE', *, *, #224, .T. ) ;
#290 = CARTESIAN_POINT ( 'NONE',  ( 2.649227174111032857E-14, -2.499999999999992895, -6.735546172373926678E-16 ) ) ;
#291 = DIRECTION ( 'NONE',  ( -3.491481338843133355E-15, 1.224646799147353207E-16, -1.000000000000000000 ) ) ;
#292 = CIRCLE ( 'NONE', #125, 2.500000000000000000 ) ;
#293 =( NAMED_UNIT ( * ) SI_UNIT ( $, .STERADIAN. ) SOLID_ANGLE_UNIT ( ) );
#294 = ORIENTED_EDGE ( 'NONE', *, *, #191, .T. ) ;
#295 = DIRECTION ( 'NONE',  ( -3.491481338843133355E-15, 1.224646799147353207E-16, -1.000000000000000000 ) ) ;
#296 = LINE ( 'NONE', #157, #5 ) ;
#297 = AXIS2_PLACEMENT_3D ( 'NONE', #149, #267, #146 ) ;
#298 = LOCAL_TIME ( 8, 31, 48.00000000000000000, #42 ) ;
#299 = PLANE ( 'NONE',  #238 ) ;
#300 = FACE_OUTER_BOUND ( 'NONE', #9, .T. ) ;
#301 = ORIENTED_EDGE ( 'NONE', *, *, #191, .F. ) ;
#302 = CYLINDRICAL_SURFACE ( 'NONE', #222, 2.499999999999996891 ) ;
#303 = VECTOR ( 'NONE', #145, 1000.000000000000000 ) ;
#304 = VERTEX_POINT ( 'NONE', #204 ) ;
#305 = LINE ( 'NONE', #184, #270 ) ;
#306 = APPROVAL ( #115, 'UNSPECIFIED' ) ;
#307 = AXIS2_PLACEMENT_3D ( 'NONE', #134, #162, #108 ) ;
#308 = ORIENTED_EDGE ( 'NONE', *, *, #160, .F. ) ;
#309 = AXIS2_PLACEMENT_3D ( 'NONE', #152, #1, #81 ) ;
#310 = PERSON_AND_ORGANIZATION ( #132, #128 ) ;
#311 = COORDINATED_UNIVERSAL_TIME_OFFSET ( 1, 0, .AHEAD. ) ;
#312 = CIRCLE ( 'NONE', #181, 2.499999999999994227 ) ;
#313 = CARTESIAN_POINT ( 'NONE',  ( 1.068957861474238513E-30, 2.499999999999996891, 3.061616997868379197E-16 ) ) ;
ENDSEC;
END-ISO-10303-21;
