ISO-10303-21;
HEADER;
FILE_DESCRIPTION (( 'STEP AP203' ),
    '1' );
FILE_NAME ('372700.step',
    '2023-03-31T06:31:47',
    ( '' ),
    ( '' ),
    'SwSTEP 2.0',
    'SolidWorks 2022',
    '' );
FILE_SCHEMA (( 'CONFIG_CONTROL_DESIGN' ));
ENDSEC;

DATA;
#1 = DIRECTION ( 'NONE',  ( 3.491481338843133355E-15, -1.276467311168695266E-16, 1.000000000000000000 ) ) ;
#2 = APPROVAL ( #353, 'UNSPECIFIED' ) ;
#3 = DIRECTION ( 'NONE',  ( 0.000000000000000000, 1.000000000000000000, 0.000000000000000000 ) ) ;
#4 = CIRCLE ( 'NONE', #328, 1.999999999999998668 ) ;
#5 = DIRECTION ( 'NONE',  ( -2.468850131082271655E-15, 0.7071067811865455743, -0.7071067811865493491 ) ) ;
#6 = DIRECTION ( 'NONE',  ( 3.491481338843133355E-15, -1.276467311168695266E-16, 1.000000000000000000 ) ) ;
#7 = PLANE ( 'NONE',  #42 ) ;
#8 = CALENDAR_DATE ( 2023, 31, 3 ) ;
#9 = COORDINATED_UNIVERSAL_TIME_OFFSET ( 1, 0, .AHEAD. ) ;
#10 = LOCAL_TIME ( 8, 31, 47.00000000000000000, #254 ) ;
#11 = DIRECTION ( 'NONE',  ( -3.491481338843133355E-15, 1.276467311168695266E-16, -1.000000000000000000 ) ) ;
#12 = CC_DESIGN_APPROVAL ( #267, ( #112 ) ) ;
#13 = DIRECTION ( 'NONE',  ( 3.491481338843133355E-15, -1.224646799147353207E-16, 1.000000000000000000 ) ) ;
#14 = EDGE_LOOP ( 'NONE', ( #176, #139 ) ) ;
#15 = CARTESIAN_POINT ( 'NONE',  ( 1.349815555280683623E-13, -4.934855052078584576E-15, 38.66025403784433223 ) ) ;
#16 = VERTEX_POINT ( 'NONE', #50 ) ;
#17 = COORDINATED_UNIVERSAL_TIME_OFFSET ( 1, 0, .AHEAD. ) ;
#18 = AXIS2_PLACEMENT_3D ( 'NONE', #24, #131, #246 ) ;
#19 = DIRECTION ( 'NONE',  ( 0.000000000000000000, 1.000000000000000000, 0.000000000000000000 ) ) ;
#20 = EDGE_LOOP ( 'NONE', ( #342, #324, #269, #38 ) ) ;
#21 = DIRECTION ( 'NONE',  ( 0.000000000000000000, -1.000000000000000000, 0.000000000000000000 ) ) ;
#22 = EDGE_CURVE ( 'NONE', #61, #16, #26, .T. ) ;
#23 = VERTEX_POINT ( 'NONE', #159 ) ;
#24 = CARTESIAN_POINT ( 'NONE',  ( 0.000000000000000000, 0.000000000000000000, 0.000000000000000000 ) ) ;
#25 = CARTESIAN_POINT ( 'NONE',  ( 6.982962677686266711E-14, -2.000000000000001332, 20.00000000000000000 ) ) ;
#26 = CIRCLE ( 'NONE', #52, 1.999999999999998668 ) ;
#27 = CARTESIAN_POINT ( 'NONE',  ( -3.243059654561080903E-30, 9.511590187700546688E-32, -9.288492017647832554E-16 ) ) ;
#28 = CARTESIAN_POINT ( 'NONE',  ( 2.073939915272820834E-13, -7.274401986935278213E-15, 59.39999999999999147 ) ) ;
#29 = CARTESIAN_POINT ( 'NONE',  ( 2.094888803305880013E-13, 2.399999999999994138, 60.00000000000000000 ) ) ;
#30 = CIRCLE ( 'NONE', #360, 3.000000000000001332 ) ;
#31 = FACE_OUTER_BOUND ( 'NONE', #204, .T. ) ;
#32 = EDGE_CURVE ( 'NONE', #90, #261, #79, .T. ) ;
#33 = DIRECTION ( 'NONE',  ( -3.491481338843133355E-15, 1.224646799147353207E-16, -1.000000000000000000 ) ) ;
#34 = APPROVAL_STATUS ( 'not_yet_approved' ) ;
#35 = AXIS2_PLACEMENT_3D ( 'NONE', #322, #296, #266 ) ;
#36 = SECURITY_CLASSIFICATION_LEVEL ( 'unclassified' ) ;
#37 = AXIS2_PLACEMENT_3D ( 'NONE', #288, #13, #208 ) ;
#38 = ORIENTED_EDGE ( 'NONE', *, *, #32, .F. ) ;
#39 = DIRECTION ( 'NONE',  ( -4.456761796588770537E-31, -1.000000000000000000, -1.276467311168695266E-16 ) ) ;
#40 = PLANE ( 'NONE',  #37 ) ;
#41 = CARTESIAN_POINT ( 'NONE',  ( -6.413839710158237013E-31, 0.000000000000000000, -1.836996703606440502E-16 ) ) ;
#42 = AXIS2_PLACEMENT_3D ( 'NONE', #83, #224, #305 ) ;
#43 = ORIENTED_EDGE ( 'NONE', *, *, #194, .F. ) ;
#44 = APPLICATION_PROTOCOL_DEFINITION ( 'international standard', 'config_control_design', 1994, #91 ) ;
#45 = CC_DESIGN_PERSON_AND_ORGANIZATION_ASSIGNMENT ( #70, #153, ( #338 ) ) ;
#46 = ORIENTED_EDGE ( 'NONE', *, *, #141, .T. ) ;
#47 = ORIENTED_EDGE ( 'NONE', *, *, #196, .T. ) ;
#48 = CALENDAR_DATE ( 2023, 31, 3 ) ;
#49 = ADVANCED_FACE ( 'NONE', ( #252 ), #7, .F. ) ;
#50 = CARTESIAN_POINT ( 'NONE',  ( 6.982962677686266711E-14, -2.000000000000001332, 20.00000000000000000 ) ) ;
#51 = CARTESIAN_POINT ( 'NONE',  ( 3.515974274826081016E-14, 1.999999999999996225, 20.00000000000000000 ) ) ;
#52 = AXIS2_PLACEMENT_3D ( 'NONE', #303, #192, #108 ) ;
#53 = APPROVAL ( #291, 'UNSPECIFIED' ) ;
#54 = DIRECTION ( 'NONE',  ( 0.000000000000000000, 1.000000000000000000, 0.000000000000000000 ) ) ;
#55 = CYLINDRICAL_SURFACE ( 'NONE', #144, 1.999999999999999112 ) ;
#56 = SHAPE_DEFINITION_REPRESENTATION ( #123, #297 ) ;
#57 = LOCAL_TIME ( 8, 31, 47.00000000000000000, #17 ) ;
#58 = EDGE_CURVE ( 'NONE', #90, #69, #116, .T. ) ;
#59 = PERSON_AND_ORGANIZATION_ROLE ( 'design_supplier' ) ;
#60 = CARTESIAN_POINT ( 'NONE',  ( -3.243059654561080903E-30, 9.511590187700546688E-32, -9.288492017647832554E-16 ) ) ;
#61 = VERTEX_POINT ( 'NONE', #51 ) ;
#62 = DIRECTION ( 'NONE',  ( -3.491481338843133355E-15, 1.224646799147353207E-16, -1.000000000000000000 ) ) ;
#63 = AXIS2_PLACEMENT_3D ( 'NONE', #167, #33, #341 ) ;
#64 = APPROVAL_DATE_TIME ( #281, #267 ) ;
#65 = DIRECTION ( 'NONE',  ( -2.042810365310288034E-14, -1.000000000000000000, 0.000000000000000000 ) ) ;
#66 = ORIENTED_EDGE ( 'NONE', *, *, #141, .F. ) ;
#67 = PERSON_AND_ORGANIZATION ( #129, #109 ) ;
#68 = CARTESIAN_POINT ( 'NONE',  ( 6.982962677686266711E-14, 2.249639673992779022E-32, 20.00000000000000000 ) ) ;
#69 = VERTEX_POINT ( 'NONE', #227 ) ;
#70 = PERSON_AND_ORGANIZATION ( #129, #109 ) ;
#71 = AXIS2_PLACEMENT_3D ( 'NONE', #68, #125, #174 ) ;
#72 = EDGE_LOOP ( 'NONE', ( #231, #326, #98, #43 ) ) ;
#73 = APPLICATION_PROTOCOL_DEFINITION ( 'international standard', 'config_control_design', 1994, #193 ) ;
#74 = ORIENTED_EDGE ( 'NONE', *, *, #82, .T. ) ;
#75 = CYLINDRICAL_SURFACE ( 'NONE', #18, 2.999999999999998224 ) ;
#76 = EDGE_CURVE ( 'NONE', #16, #61, #173, .T. ) ;
#77 = LINE ( 'NONE', #207, #279 ) ;
#78 = CIRCLE ( 'NONE', #255, 1.999999999999999112 ) ;
#79 = LINE ( 'NONE', #29, #306 ) ;
#80 = DESIGN_CONTEXT ( 'detailed design', #193, 'design' ) ;
#81 = CARTESIAN_POINT ( 'NONE',  ( 2.094888803305880013E-13, -7.347880794884118356E-15, 60.00000000000000000 ) ) ;
#82 = EDGE_CURVE ( 'NONE', #88, #16, #157, .T. ) ;
#83 = CARTESIAN_POINT ( 'NONE',  ( 2.094888803305880013E-13, 1.799711739194219277E-32, 60.00000000000000000 ) ) ;
#84 = DIRECTION ( 'NONE',  ( 3.491481338843133355E-15, -1.276467311168695266E-16, 1.000000000000000000 ) ) ;
#85 = PERSON_AND_ORGANIZATION ( #129, #109 ) ;
#86 = CARTESIAN_POINT ( 'NONE',  ( 3.673940397442045077E-16, -2.999999999999998224, -3.673940397442070222E-16 ) ) ;
#87 = VECTOR ( 'NONE', #311, 1000.000000000000000 ) ;
#88 = VERTEX_POINT ( 'NONE', #164 ) ;
#89 = PERSON_AND_ORGANIZATION_ROLE ( 'classification_officer' ) ;
#90 = VERTEX_POINT ( 'NONE', #337 ) ;
#91 = APPLICATION_CONTEXT ( 'configuration controlled 3d designs of mechanical parts and assemblies' ) ;
#92 = AXIS2_PLACEMENT_3D ( 'NONE', #81, #275, #336 ) ;
#93 = EDGE_CURVE ( 'NONE', #69, #90, #189, .T. ) ;
#94 = CARTESIAN_POINT ( 'NONE',  ( 8.286001252710379101E-14, -3.029318708285628867E-15, 23.73205080756886431 ) ) ;
#95 = EDGE_LOOP ( 'NONE', ( #209, #47, #74, #355 ) ) ;
#96 = PLANE ( 'NONE',  #71 ) ;
#97 = CALENDAR_DATE ( 2023, 31, 3 ) ;
#98 = ORIENTED_EDGE ( 'NONE', *, *, #263, .F. ) ;
#99 =( NAMED_UNIT ( * ) PLANE_ANGLE_UNIT ( ) SI_UNIT ( $, .RADIAN. ) );
#100 = ORIENTED_EDGE ( 'NONE', *, *, #118, .F. ) ;
#101 = CALENDAR_DATE ( 2023, 31, 3 ) ;
#102 =( GEOMETRIC_REPRESENTATION_CONTEXT ( 3 ) GLOBAL_UNCERTAINTY_ASSIGNED_CONTEXT ( ( #285 ) ) GLOBAL_UNIT_ASSIGNED_CONTEXT ( ( #128, #99, #272 ) ) REPRESENTATION_CONTEXT ( 'NONE', 'WORKASPACE' ) );
#103 = CARTESIAN_POINT ( 'NONE',  ( 2.097827955623833808E-13, -2.400000000000008793, 60.00000000000000000 ) ) ;
#104 = ORIENTED_EDGE ( 'NONE', *, *, #263, .T. ) ;
#105 = AXIS2_PLACEMENT_3D ( 'NONE', #334, #114, #138 ) ;
#106 = CC_DESIGN_DATE_AND_TIME_ASSIGNMENT ( #156, #121, ( #335 ) ) ;
#107 = CARTESIAN_POINT ( 'NONE',  ( 1.349815555280683623E-13, -4.934855052078584576E-15, 38.66025403784433223 ) ) ;
#108 = DIRECTION ( 'NONE',  ( 0.000000000000000000, -1.000000000000000000, 0.000000000000000000 ) ) ;
#109 = ORGANIZATION ( 'UNSPECIFIED', 'UNSPECIFIED', '' ) ;
#110 = CIRCLE ( 'NONE', #136, 2.999999999999998224 ) ;
#111 = ADVANCED_FACE ( 'NONE', ( #31 ), #226, .T. ) ;
#112 = SECURITY_CLASSIFICATION ( '', '', #36 ) ;
#113 = CYLINDRICAL_SURFACE ( 'NONE', #63, 2.999999999999998224 ) ;
#114 = DIRECTION ( 'NONE',  ( -3.491481338843133355E-15, 1.224646799147353207E-16, -1.000000000000000000 ) ) ;
#115 = ORIENTED_EDGE ( 'NONE', *, *, #166, .F. ) ;
#116 = CIRCLE ( 'NONE', #92, 2.400000000000001688 ) ;
#117 = ORIENTED_EDGE ( 'NONE', *, *, #196, .F. ) ;
#118 = EDGE_CURVE ( 'NONE', #317, #186, #191, .T. ) ;
#119 = CARTESIAN_POINT ( 'NONE',  ( 8.286001252710379101E-14, -3.029318708285628867E-15, 23.73205080756886431 ) ) ;
#120 = PLANE ( 'NONE',  #214 ) ;
#121 = DATE_TIME_ROLE ( 'creation_date' ) ;
#122 = CARTESIAN_POINT ( 'NONE',  ( 1.454943960669370669E-13, -3.000000000000008882, 59.39999999999999147 ) ) ;
#123 = PRODUCT_DEFINITION_SHAPE ( 'NONE', 'NONE',  #335 ) ;
#124 = DIRECTION ( 'NONE',  ( 0.000000000000000000, -1.000000000000000000, 0.000000000000000000 ) ) ;
#125 = DIRECTION ( 'NONE',  ( 3.491481338843133355E-15, -1.224646799147353207E-16, 1.000000000000000000 ) ) ;
#126 = ORIENTED_EDGE ( 'NONE', *, *, #158, .F. ) ;
#127 = EDGE_LOOP ( 'NONE', ( #182, #295 ) ) ;
#128 =( LENGTH_UNIT ( ) NAMED_UNIT ( * ) SI_UNIT ( .MILLI., .METRE. ) );
#129 = PERSON ( 'UNSPECIFIED', 'UNSPECIFIED', 'UNSPECIFIED', ('UNSPECIFIED'), ('UNSPECIFIED'), ('UNSPECIFIED') ) ;
#130 = CLOSED_SHELL ( 'NONE', ( #299, #249, #140, #276 ) ) ;
#131 = DIRECTION ( 'NONE',  ( -3.491481338843133355E-15, 1.224646799147353207E-16, -1.000000000000000000 ) ) ;
#132 = CIRCLE ( 'NONE', #151, 1.999999999999998668 ) ;
#133 = DIRECTION ( 'NONE',  ( 3.491481338843133355E-15, -1.276467311168695266E-16, 1.000000000000000000 ) ) ;
#134 = DIRECTION ( 'NONE',  ( -3.491481338843133355E-15, 1.224646799147353207E-16, -1.000000000000000000 ) ) ;
#135 = CARTESIAN_POINT ( 'NONE',  ( -1.532736330333577546E-30, -1.999999999999999112, -4.389931325943830047E-16 ) ) ;
#136 = AXIS2_PLACEMENT_3D ( 'NONE', #119, #11, #346 ) ;
#137 = APPROVAL_ROLE ( '' ) ;
#138 = DIRECTION ( 'NONE',  ( 0.000000000000000000, 1.000000000000000000, 0.000000000000000000 ) ) ;
#139 = ORIENTED_EDGE ( 'NONE', *, *, #308, .F. ) ;
#140 = ADVANCED_FACE ( 'NONE', ( #309 ), #55, .T. ) ;
#141 = EDGE_CURVE ( 'NONE', #88, #215, #168, .T. ) ;
#142 = ORIENTED_EDGE ( 'NONE', *, *, #76, .F. ) ;
#143 = VECTOR ( 'NONE', #133, 1000.000000000000000 ) ;
#144 = AXIS2_PLACEMENT_3D ( 'NONE', #219, #165, #273 ) ;
#145 = LINE ( 'NONE', #86, #310 ) ;
#146 = LINE ( 'NONE', #179, #181 ) ;
#147 = CYLINDRICAL_SURFACE ( 'NONE', #307, 1.999999999999999112 ) ;
#148 = CARTESIAN_POINT ( 'NONE',  ( 6.982962677686266711E-14, -2.552934622337390728E-15, 20.00000000000000000 ) ) ;
#149 = CLOSED_SHELL ( 'NONE', ( #304, #163, #315, #169, #198, #49, #111, #274 ) ) ;
#150 = FACE_OUTER_BOUND ( 'NONE', #321, .T. ) ;
#151 = AXIS2_PLACEMENT_3D ( 'NONE', #148, #331, #124 ) ;
#152 = ORIENTED_EDGE ( 'NONE', *, *, #211, .T. ) ;
#153 = PERSON_AND_ORGANIZATION_ROLE ( 'creator' ) ;
#154 = EDGE_LOOP ( 'NONE', ( #126, #345, #212, #243 ) ) ;
#155 = PERSON_AND_ORGANIZATION_ROLE ( 'creator' ) ;
#156 = DATE_AND_TIME ( #48, #223 ) ;
#157 = LINE ( 'NONE', #135, #143 ) ;
#158 = EDGE_CURVE ( 'NONE', #69, #234, #190, .T. ) ;
#159 = CARTESIAN_POINT ( 'NONE',  ( 1.451270020271929625E-13, 2.999999999999995115, 23.73205080756886431 ) ) ;
#160 = EDGE_CURVE ( 'NONE', #261, #234, #294, .T. ) ;
#161 = DIRECTION ( 'NONE',  ( 0.000000000000000000, -1.000000000000000000, 0.000000000000000000 ) ) ;
#162 = AXIS2_PLACEMENT_3D ( 'NONE', #27, #1, #332 ) ;
#163 = ADVANCED_FACE ( 'NONE', ( #221 ), #362, .T. ) ;
#164 = CARTESIAN_POINT ( 'NONE',  ( -4.134412013878834135E-30, -1.999999999999999112, -1.184142663998522013E-15 ) ) ;
#165 = DIRECTION ( 'NONE',  ( 3.491481338843133355E-15, -1.276467311168695266E-16, 1.000000000000000000 ) ) ;
#166 = EDGE_CURVE ( 'NONE', #234, #186, #145, .T. ) ;
#167 = CARTESIAN_POINT ( 'NONE',  ( 0.000000000000000000, 0.000000000000000000, 0.000000000000000000 ) ) ;
#168 = CIRCLE ( 'NONE', #162, 1.999999999999999112 ) ;
#169 = ADVANCED_FACE ( 'NONE', ( #339 ), #113, .T. ) ;
#170 = EDGE_CURVE ( 'NONE', #317, #180, #4, .T. ) ;
#171 = CARTESIAN_POINT ( 'NONE',  ( 6.982962677686266711E-14, -2.552934622337390728E-15, 20.00000000000000000 ) ) ;
#172 = ORIENTED_EDGE ( 'NONE', *, *, #76, .T. ) ;
#173 = CIRCLE ( 'NONE', #349, 1.999999999999998668 ) ;
#174 = DIRECTION ( 'NONE',  ( -4.275831445896958607E-31, -1.000000000000000000, -1.224646799147353207E-16 ) ) ;
#175 = DIRECTION ( 'NONE',  ( -4.275831445896958607E-31, -1.000000000000000000, -1.224646799147353207E-16 ) ) ;
#176 = ORIENTED_EDGE ( 'NONE', *, *, #170, .F. ) ;
#177 = DIRECTION ( 'NONE',  ( 3.404208188709233130E-15, 0.2588190451025214056, 0.9659258262890680902 ) ) ;
#178 = PRODUCT ( '372700', '372700', '', ( #188 ) ) ;
#179 = CARTESIAN_POINT ( 'NONE',  ( 2.449293598294708386E-16, 1.999999999999999112, 7.159379187309405376E-17 ) ) ;
#180 = VERTEX_POINT ( 'NONE', #200 ) ;
#181 = VECTOR ( 'NONE', #348, 1000.000000000000000 ) ;
#182 = ORIENTED_EDGE ( 'NONE', *, *, #58, .F. ) ;
#183 = COORDINATED_UNIVERSAL_TIME_OFFSET ( 1, 0, .AHEAD. ) ;
#184 = PRODUCT_RELATED_PRODUCT_CATEGORY ( 'detail', '', ( #178 ) ) ;
#185 = CC_DESIGN_SECURITY_CLASSIFICATION ( #112, ( #338 ) ) ;
#186 = VERTEX_POINT ( 'NONE', #344 ) ;
#187 = FACE_OUTER_BOUND ( 'NONE', #72, .T. ) ;
#188 = MECHANICAL_CONTEXT ( 'NONE', #91, 'mechanical' ) ;
#189 = CIRCLE ( 'NONE', #205, 2.400000000000001688 ) ;
#190 = LINE ( 'NONE', #103, #239 ) ;
#191 = LINE ( 'NONE', #195, #333 ) ;
#192 = DIRECTION ( 'NONE',  ( 3.491481338843133355E-15, -1.276467311168695266E-16, 1.000000000000000000 ) ) ;
#193 = APPLICATION_CONTEXT ( 'configuration controlled 3d designs of mechanical parts and assemblies' ) ;
#194 = EDGE_CURVE ( 'NONE', #261, #23, #229, .T. ) ;
#195 = CARTESIAN_POINT ( 'NONE',  ( 1.349815555280683623E-13, -7.000000000000004441, 38.66025403784433223 ) ) ;
#196 = EDGE_CURVE ( 'NONE', #215, #88, #78, .T. ) ;
#197 = ORIENTED_EDGE ( 'NONE', *, *, #118, .T. ) ;
#198 = ADVANCED_FACE ( 'NONE', ( #282 ), #340, .T. ) ;
#199 = CALENDAR_DATE ( 2023, 31, 3 ) ;
#200 = CARTESIAN_POINT ( 'NONE',  ( 7.665098135177005431E-14, 1.999999999999996225, 20.00000000000000000 ) ) ;
#201 = ORIENTED_EDGE ( 'NONE', *, *, #347, .F. ) ;
#202 = CARTESIAN_POINT ( 'NONE',  ( 2.094888803305880013E-13, -7.347880794884118356E-15, 60.00000000000000000 ) ) ;
#203 = ORIENTED_EDGE ( 'NONE', *, *, #235, .T. ) ;
#204 = EDGE_LOOP ( 'NONE', ( #201, #314, #197, #152 ) ) ;
#205 = AXIS2_PLACEMENT_3D ( 'NONE', #278, #251, #54 ) ;
#206 = CARTESIAN_POINT ( 'NONE',  ( 2.073939915272820834E-13, -7.274401986935278213E-15, 59.39999999999999147 ) ) ;
#207 = CARTESIAN_POINT ( 'NONE',  ( 1.358388082874715336E-13, 6.999999999999993783, 38.66025403784433223 ) ) ;
#208 = DIRECTION ( 'NONE',  ( -4.275831445896958607E-31, -1.000000000000000000, -1.224646799147353207E-16 ) ) ;
#209 = ORIENTED_EDGE ( 'NONE', *, *, #235, .F. ) ;
#210 = DATE_AND_TIME ( #97, #354 ) ;
#211 = EDGE_CURVE ( 'NONE', #186, #23, #110, .T. ) ;
#212 = ORIENTED_EDGE ( 'NONE', *, *, #32, .T. ) ;
#213 = CC_DESIGN_PERSON_AND_ORGANIZATION_ASSIGNMENT ( #228, #59, ( #338 ) ) ;
#214 = AXIS2_PLACEMENT_3D ( 'NONE', #241, #323, #175 ) ;
#215 = VERTEX_POINT ( 'NONE', #268 ) ;
#216 = PERSON_AND_ORGANIZATION ( #129, #109 ) ;
#217 = CC_DESIGN_APPROVAL ( #2, ( #338 ) ) ;
#218 = DATE_AND_TIME ( #101, #57 ) ;
#219 = CARTESIAN_POINT ( 'NONE',  ( -6.413839710158237013E-31, 0.000000000000000000, -1.836996703606440502E-16 ) ) ;
#220 = AXIS2_PLACEMENT_3D ( 'NONE', #107, #84, #280 ) ;
#221 = FACE_OUTER_BOUND ( 'NONE', #20, .T. ) ;
#222 = CONICAL_SURFACE ( 'NONE', #233, 6.999999999999999112, 0.2617993877991502405 ) ;
#223 = LOCAL_TIME ( 8, 31, 47.00000000000000000, #271 ) ;
#224 = DIRECTION ( 'NONE',  ( -3.491481338843133355E-15, 1.224646799147353207E-16, -1.000000000000000000 ) ) ;
#225 = EDGE_LOOP ( 'NONE', ( #46, #203, #142, #265 ) ) ;
#226 = CONICAL_SURFACE ( 'NONE', #220, 6.999999999999999112, 0.2617993877991502405 ) ;
#227 = CARTESIAN_POINT ( 'NONE',  ( 2.087720905647048222E-13, -2.400000000000008793, 60.00000000000000000 ) ) ;
#228 = PERSON_AND_ORGANIZATION ( #129, #109 ) ;
#229 = LINE ( 'NONE', #236, #87 ) ;
#230 = DIRECTION ( 'NONE',  ( -3.491481338843133355E-15, 1.224646799147353207E-16, -1.000000000000000000 ) ) ;
#231 = ORIENTED_EDGE ( 'NONE', *, *, #160, .T. ) ;
#232 = CIRCLE ( 'NONE', #319, 2.999999999999998224 ) ;
#233 = AXIS2_PLACEMENT_3D ( 'NONE', #15, #330, #21 ) ;
#234 = VERTEX_POINT ( 'NONE', #122 ) ;
#235 = EDGE_CURVE ( 'NONE', #215, #61, #146, .T. ) ;
#236 = CARTESIAN_POINT ( 'NONE',  ( 1.282749433769086881E-30, 2.999999999999998224, 3.673940397442057896E-16 ) ) ;
#237 = FACE_OUTER_BOUND ( 'NONE', #225, .T. ) ;
#238 = ORIENTED_EDGE ( 'NONE', *, *, #347, .T. ) ;
#239 = VECTOR ( 'NONE', #302, 1000.000000000000000 ) ;
#240 = DIRECTION ( 'NONE',  ( -3.491481338843133355E-15, 1.224646799147353207E-16, -1.000000000000000000 ) ) ;
#241 = CARTESIAN_POINT ( 'NONE',  ( 6.982962677686266711E-14, 2.249639673992779022E-32, 20.00000000000000000 ) ) ;
#242 = CC_DESIGN_PERSON_AND_ORGANIZATION_ASSIGNMENT ( #301, #327, ( #178 ) ) ;
#243 = ORIENTED_EDGE ( 'NONE', *, *, #247, .F. ) ;
#244 = APPROVAL_DATE_TIME ( #218, #53 ) ;
#245 = ORIENTED_EDGE ( 'NONE', *, *, #194, .T. ) ;
#246 = DIRECTION ( 'NONE',  ( 4.275831445896958607E-31, 1.000000000000000000, 1.224646799147353454E-16 ) ) ;
#247 = EDGE_CURVE ( 'NONE', #234, #261, #30, .T. ) ;
#248 = DIRECTION ( 'NONE',  ( 3.372511997194914833E-15, -0.2588190451025215721, 0.9659258262890679791 ) ) ;
#249 = ADVANCED_FACE ( 'NONE', ( #351 ), #120, .T. ) ;
#250 = CARTESIAN_POINT ( 'NONE',  ( 6.982962677686266711E-14, -2.552934622337390728E-15, 20.00000000000000000 ) ) ;
#251 = DIRECTION ( 'NONE',  ( -3.491481338843133355E-15, 1.224646799147353207E-16, -1.000000000000000000 ) ) ;
#252 = FACE_OUTER_BOUND ( 'NONE', #127, .T. ) ;
#253 = CC_DESIGN_DATE_AND_TIME_ASSIGNMENT ( #283, #312, ( #112 ) ) ;
#254 = COORDINATED_UNIVERSAL_TIME_OFFSET ( 1, 0, .AHEAD. ) ;
#255 = AXIS2_PLACEMENT_3D ( 'NONE', #60, #313, #316 ) ;
#256 = PERSON_AND_ORGANIZATION ( #129, #109 ) ;
#257 = DIRECTION ( 'NONE',  ( 3.491481338843133355E-15, -1.276467311168695266E-16, 1.000000000000000000 ) ) ;
#258 = MANIFOLD_SOLID_BREP ( 'Corps-Déplacer/Copier1[2]', #130 ) ;
#259 = MANIFOLD_SOLID_BREP ( 'Corps-Déplacer/Copier1[1]', #149 ) ;
#260 = DIRECTION ( 'NONE',  ( 0.000000000000000000, 1.000000000000000000, 0.000000000000000000 ) ) ;
#261 = VERTEX_POINT ( 'NONE', #292 ) ;
#262 = FACE_OUTER_BOUND ( 'NONE', #287, .T. ) ;
#263 = EDGE_CURVE ( 'NONE', #23, #186, #232, .T. ) ;
#264 = DIRECTION ( 'NONE',  ( 3.491481338843133355E-15, -1.276467311168695266E-16, 1.000000000000000000 ) ) ;
#265 = ORIENTED_EDGE ( 'NONE', *, *, #82, .F. ) ;
#266 = DIRECTION ( 'NONE',  ( 1.000000000000000000, 0.000000000000000000, 0.000000000000000000 ) ) ;
#267 = APPROVAL ( #34, 'UNSPECIFIED' ) ;
#268 = CARTESIAN_POINT ( 'NONE',  ( 3.515974274826082909E-14, 1.999999999999999112, -6.735557395311669688E-16 ) ) ;
#269 = ORIENTED_EDGE ( 'NONE', *, *, #160, .F. ) ;
#270 = ORIENTED_EDGE ( 'NONE', *, *, #211, .F. ) ;
#271 = COORDINATED_UNIVERSAL_TIME_OFFSET ( 1, 0, .AHEAD. ) ;
#272 =( NAMED_UNIT ( * ) SI_UNIT ( $, .STERADIAN. ) SOLID_ANGLE_UNIT ( ) );
#273 = DIRECTION ( 'NONE',  ( -4.456761796588770537E-31, -1.000000000000000000, -1.276467311168695266E-16 ) ) ;
#274 = ADVANCED_FACE ( 'NONE', ( #290 ), #96, .F. ) ;
#275 = DIRECTION ( 'NONE',  ( -3.491481338843133355E-15, 1.224646799147353207E-16, -1.000000000000000000 ) ) ;
#276 = ADVANCED_FACE ( 'NONE', ( #262 ), #40, .F. ) ;
#277 = AXIS2_PLACEMENT_3D ( 'NONE', #202, #62, #260 ) ;
#278 = CARTESIAN_POINT ( 'NONE',  ( 2.094888803305880013E-13, -7.347880794884118356E-15, 60.00000000000000000 ) ) ;
#279 = VECTOR ( 'NONE', #177, 1000.000000000000000 ) ;
#280 = DIRECTION ( 'NONE',  ( 0.000000000000000000, -1.000000000000000000, 0.000000000000000000 ) ) ;
#281 = DATE_AND_TIME ( #8, #298 ) ;
#282 = FACE_OUTER_BOUND ( 'NONE', #154, .T. ) ;
#283 = DATE_AND_TIME ( #199, #10 ) ;
#284 = DIRECTION ( 'NONE',  ( 0.000000000000000000, -1.000000000000000000, 0.000000000000000000 ) ) ;
#285 = UNCERTAINTY_MEASURE_WITH_UNIT (LENGTH_MEASURE( 1.000000000000000082E-05 ), #128, 'distance_accuracy_value', 'NONE');
#286 = AXIS2_PLACEMENT_3D ( 'NONE', #28, #134, #3 ) ;
#287 = EDGE_LOOP ( 'NONE', ( #66, #117 ) ) ;
#288 = CARTESIAN_POINT ( 'NONE',  ( -4.275916139802294913E-31, 1.499789489284924339E-32, -1.224671056445937021E-16 ) ) ;
#289 = APPROVAL_PERSON_ORGANIZATION ( #85, #267, #137 ) ;
#290 = FACE_OUTER_BOUND ( 'NONE', #14, .T. ) ;
#291 = APPROVAL_STATUS ( 'not_yet_approved' ) ;
#292 = CARTESIAN_POINT ( 'NONE',  ( 2.073939915272820834E-13, 2.999999999999993783, 59.39999999999999147 ) ) ;
#293 = ORIENTED_EDGE ( 'NONE', *, *, #247, .T. ) ;
#294 = CIRCLE ( 'NONE', #286, 3.000000000000001332 ) ;
#295 = ORIENTED_EDGE ( 'NONE', *, *, #93, .F. ) ;
#296 = DIRECTION ( 'NONE',  ( 0.000000000000000000, 0.000000000000000000, 1.000000000000000000 ) ) ;
#297 = ADVANCED_BREP_SHAPE_REPRESENTATION ( '372700', ( #259, #258, #35 ), #102 ) ;
#298 = LOCAL_TIME ( 8, 31, 47.00000000000000000, #9 ) ;
#299 = ADVANCED_FACE ( 'NONE', ( #237 ), #147, .T. ) ;
#300 = EDGE_LOOP ( 'NONE', ( #172, #329 ) ) ;
#301 = PERSON_AND_ORGANIZATION ( #129, #109 ) ;
#302 = DIRECTION ( 'NONE',  ( -2.382254525458723780E-15, -0.7071067811865453523, -0.7071067811865496822 ) ) ;
#303 = CARTESIAN_POINT ( 'NONE',  ( 6.982962677686266711E-14, -2.552934622337390728E-15, 20.00000000000000000 ) ) ;
#304 = ADVANCED_FACE ( 'NONE', ( #150 ), #222, .T. ) ;
#305 = DIRECTION ( 'NONE',  ( 4.275831445896958607E-31, 1.000000000000000000, 1.224646799147353207E-16 ) ) ;
#306 = VECTOR ( 'NONE', #5, 1000.000000000000114 ) ;
#307 = AXIS2_PLACEMENT_3D ( 'NONE', #41, #264, #39 ) ;
#308 = EDGE_CURVE ( 'NONE', #180, #317, #132, .T. ) ;
#309 = FACE_OUTER_BOUND ( 'NONE', #95, .T. ) ;
#310 = VECTOR ( 'NONE', #230, 1000.000000000000000 ) ;
#311 = DIRECTION ( 'NONE',  ( -3.491481338843133355E-15, 1.224646799147353207E-16, -1.000000000000000000 ) ) ;
#312 = DATE_TIME_ROLE ( 'classification_date' ) ;
#313 = DIRECTION ( 'NONE',  ( 3.491481338843133355E-15, -1.276467311168695266E-16, 1.000000000000000000 ) ) ;
#314 = ORIENTED_EDGE ( 'NONE', *, *, #308, .T. ) ;
#315 = ADVANCED_FACE ( 'NONE', ( #187 ), #75, .T. ) ;
#316 = DIRECTION ( 'NONE',  ( -4.456761796588768785E-31, -1.000000000000000000, -1.276467311168694772E-16 ) ) ;
#317 = VERTEX_POINT ( 'NONE', #25 ) ;
#318 = APPROVAL_PERSON_ORGANIZATION ( #67, #53, #359 ) ;
#319 = AXIS2_PLACEMENT_3D ( 'NONE', #94, #320, #65 ) ;
#320 = DIRECTION ( 'NONE',  ( -3.491481338843133355E-15, 1.276467311168695266E-16, -1.000000000000000000 ) ) ;
#321 = EDGE_LOOP ( 'NONE', ( #358, #238, #104, #100 ) ) ;
#322 = CARTESIAN_POINT ( 'NONE',  ( 0.000000000000000000, 0.000000000000000000, 0.000000000000000000 ) ) ;
#323 = DIRECTION ( 'NONE',  ( 3.491481338843133355E-15, -1.224646799147353207E-16, 1.000000000000000000 ) ) ;
#324 = ORIENTED_EDGE ( 'NONE', *, *, #158, .T. ) ;
#325 = APPROVAL_DATE_TIME ( #210, #2 ) ;
#326 = ORIENTED_EDGE ( 'NONE', *, *, #166, .T. ) ;
#327 = PERSON_AND_ORGANIZATION_ROLE ( 'design_owner' ) ;
#328 = AXIS2_PLACEMENT_3D ( 'NONE', #171, #257, #284 ) ;
#329 = ORIENTED_EDGE ( 'NONE', *, *, #22, .T. ) ;
#330 = DIRECTION ( 'NONE',  ( 3.491481338843133355E-15, -1.276467311168695266E-16, 1.000000000000000000 ) ) ;
#331 = DIRECTION ( 'NONE',  ( 3.491481338843133355E-15, -1.276467311168695266E-16, 1.000000000000000000 ) ) ;
#332 = DIRECTION ( 'NONE',  ( -4.456761796588768785E-31, -1.000000000000000000, -1.276467311168694772E-16 ) ) ;
#333 = VECTOR ( 'NONE', #248, 1000.000000000000114 ) ;
#334 = CARTESIAN_POINT ( 'NONE',  ( 2.094888803305880013E-13, -7.347880794884118356E-15, 60.00000000000000000 ) ) ;
#335 = PRODUCT_DEFINITION ( 'UNKNOWN', '', #338, #80 ) ;
#336 = DIRECTION ( 'NONE',  ( 0.000000000000000000, 1.000000000000000000, 0.000000000000000000 ) ) ;
#337 = CARTESIAN_POINT ( 'NONE',  ( 2.094888803305880013E-13, 2.399999999999994138, 60.00000000000000000 ) ) ;
#338 = PRODUCT_DEFINITION_FORMATION_WITH_SPECIFIED_SOURCE ( 'ANY', '', #178, .NOT_KNOWN. ) ;
#339 = FACE_OUTER_BOUND ( 'NONE', #352, .T. ) ;
#340 = CONICAL_SURFACE ( 'NONE', #277, 2.400000000000001688, 0.7853981633974453924 ) ;
#341 = DIRECTION ( 'NONE',  ( 4.275831445896958607E-31, 1.000000000000000000, 1.224646799147353454E-16 ) ) ;
#342 = ORIENTED_EDGE ( 'NONE', *, *, #58, .T. ) ;
#343 = CC_DESIGN_PERSON_AND_ORGANIZATION_ASSIGNMENT ( #216, #155, ( #335 ) ) ;
#344 = CARTESIAN_POINT ( 'NONE',  ( 1.454943960669371679E-13, -3.000000000000001332, 23.73205080756886431 ) ) ;
#345 = ORIENTED_EDGE ( 'NONE', *, *, #93, .T. ) ;
#346 = DIRECTION ( 'NONE',  ( 0.000000000000000000, -1.000000000000000000, 0.000000000000000000 ) ) ;
#347 = EDGE_CURVE ( 'NONE', #180, #23, #77, .T. ) ;
#348 = DIRECTION ( 'NONE',  ( 3.491481338843133355E-15, -1.276467311168695266E-16, 1.000000000000000000 ) ) ;
#349 = AXIS2_PLACEMENT_3D ( 'NONE', #250, #6, #161 ) ;
#350 = PERSON_AND_ORGANIZATION ( #129, #109 ) ;
#351 = FACE_OUTER_BOUND ( 'NONE', #300, .T. ) ;
#352 = EDGE_LOOP ( 'NONE', ( #115, #293, #245, #270 ) ) ;
#353 = APPROVAL_STATUS ( 'not_yet_approved' ) ;
#354 = LOCAL_TIME ( 8, 31, 47.00000000000000000, #183 ) ;
#355 = ORIENTED_EDGE ( 'NONE', *, *, #22, .F. ) ;
#356 = APPROVAL_ROLE ( '' ) ;
#357 = CC_DESIGN_APPROVAL ( #53, ( #335 ) ) ;
#358 = ORIENTED_EDGE ( 'NONE', *, *, #170, .T. ) ;
#359 = APPROVAL_ROLE ( '' ) ;
#360 = AXIS2_PLACEMENT_3D ( 'NONE', #206, #240, #19 ) ;
#361 = CC_DESIGN_PERSON_AND_ORGANIZATION_ASSIGNMENT ( #256, #89, ( #112 ) ) ;
#362 = CONICAL_SURFACE ( 'NONE', #105, 2.400000000000001688, 0.7853981633974453924 ) ;
#363 = APPROVAL_PERSON_ORGANIZATION ( #350, #2, #356 ) ;
ENDSEC;
END-ISO-10303-21;
