ISO-10303-21;
HEADER;
FILE_DESCRIPTION (( 'STEP AP203' ),
    '1' );
FILE_NAME ('372699.step',
    '2023-03-31T06:31:47',
    ( '' ),
    ( '' ),
    'SwSTEP 2.0',
    'SolidWorks 2022',
    '' );
FILE_SCHEMA (( 'CONFIG_CONTROL_DESIGN' ));
ENDSEC;

DATA;
#1 = EDGE_CURVE ( 'NONE', #24, #235, #58, .T. ) ;
#2 = EDGE_CURVE ( 'NONE', #20, #263, #260, .T. ) ;
#3 = ORIENTED_EDGE ( 'NONE', *, *, #356, .T. ) ;
#4 = VECTOR ( 'NONE', #114, 1000.000000000000114 ) ;
#5 = CARTESIAN_POINT ( 'NONE',  ( 3.491481338843133986E-14, -1.276467311168695561E-15, 10.00000000000000178 ) ) ;
#6 = CARTESIAN_POINT ( 'NONE',  ( 1.000667421396370540E-13, -7.000000000000000000, 28.66025403784433578 ) ) ;
#7 = ORIENTED_EDGE ( 'NONE', *, *, #88, .F. ) ;
#8 = EDGE_LOOP ( 'NONE', ( #184, #192, #33, #327 ) ) ;
#9 = CIRCLE ( 'NONE', #100, 2.399999999999997691 ) ;
#10 = DIRECTION ( 'NONE',  ( 3.491481338843133355E-15, -1.276467311168695266E-16, 1.000000000000000000 ) ) ;
#11 = COORDINATED_UNIVERSAL_TIME_OFFSET ( 1, 0, .AHEAD. ) ;
#12 = ADVANCED_FACE ( 'NONE', ( #116 ), #234, .T. ) ;
#13 = DIRECTION ( 'NONE',  ( 3.491481338843133355E-15, -1.224646799147353207E-16, 1.000000000000000000 ) ) ;
#14 = DATE_AND_TIME ( #205, #133 ) ;
#15 = FACE_OUTER_BOUND ( 'NONE', #185, .T. ) ;
#16 = VERTEX_POINT ( 'NONE', #231 ) ;
#17 = DIRECTION ( 'NONE',  ( -4.275831445896958607E-31, -1.000000000000000000, -1.224646799147353207E-16 ) ) ;
#18 = CLOSED_SHELL ( 'NONE', ( #153, #246, #230, #351, #279, #274, #42, #294 ) ) ;
#19 = CIRCLE ( 'NONE', #324, 1.999999999999999112 ) ;
#20 = VERTEX_POINT ( 'NONE', #129 ) ;
#21 = PERSON_AND_ORGANIZATION ( #123, #340 ) ;
#22 = FACE_OUTER_BOUND ( 'NONE', #8, .T. ) ;
#23 = CARTESIAN_POINT ( 'NONE',  ( 1.745740669421566678E-13, -6.123233995736766085E-15, 50.00000000000000000 ) ) ;
#24 = VERTEX_POINT ( 'NONE', #131 ) ;
#25 = CC_DESIGN_SECURITY_CLASSIFICATION ( #224, ( #38 ) ) ;
#26 = MECHANICAL_CONTEXT ( 'NONE', #222, 'mechanical' ) ;
#27 = CONICAL_SURFACE ( 'NONE', #309, 2.399999999999997691, 0.7853981633974453924 ) ;
#28 = CC_DESIGN_DATE_AND_TIME_ASSIGNMENT ( #288, #171, ( #224 ) ) ;
#29 = AXIS2_PLACEMENT_3D ( 'NONE', #5, #104, #310 ) ;
#30 = DIRECTION ( 'NONE',  ( 0.000000000000000000, 1.000000000000000000, 0.000000000000000000 ) ) ;
#31 = APPROVAL_ROLE ( '' ) ;
#32 = LINE ( 'NONE', #208, #4 ) ;
#33 = ORIENTED_EDGE ( 'NONE', *, *, #307, .T. ) ;
#34 = PLANE ( 'NONE',  #85 ) ;
#35 = DATE_TIME_ROLE ( 'creation_date' ) ;
#36 = CYLINDRICAL_SURFACE ( 'NONE', #193, 2.999999999999994671 ) ;
#37 = FACE_OUTER_BOUND ( 'NONE', #254, .T. ) ;
#38 = PRODUCT_DEFINITION_FORMATION_WITH_SPECIFIED_SOURCE ( 'ANY', '', #53, .NOT_KNOWN. ) ;
#39 = MANIFOLD_SOLID_BREP ( 'Corps-Déplacer/Copier1[1]', #18 ) ;
#40 = VECTOR ( 'NONE', #97, 1000.000000000000114 ) ;
#41 = APPLICATION_PROTOCOL_DEFINITION ( 'international standard', 'config_control_design', 1994, #222 ) ;
#42 = ADVANCED_FACE ( 'NONE', ( #126 ), #94, .T. ) ;
#43 = CC_DESIGN_PERSON_AND_ORGANIZATION_ASSIGNMENT ( #127, #359, ( #53 ) ) ;
#44 = AXIS2_PLACEMENT_3D ( 'NONE', #265, #166, #349 ) ;
#45 = FACE_OUTER_BOUND ( 'NONE', #335, .T. ) ;
#46 = CARTESIAN_POINT ( 'NONE',  ( 1.745740669421566678E-13, 1.799711739194218455E-32, 50.00000000000000000 ) ) ;
#47 = ORIENTED_EDGE ( 'NONE', *, *, #187, .F. ) ;
#48 = ORIENTED_EDGE ( 'NONE', *, *, #203, .F. ) ;
#49 = ORIENTED_EDGE ( 'NONE', *, *, #334, .F. ) ;
#50 = AXIS2_PLACEMENT_3D ( 'NONE', #154, #137, #201 ) ;
#51 = CARTESIAN_POINT ( 'NONE',  ( 3.491481338843133986E-14, 2.249639673992779296E-32, 10.00000000000000178 ) ) ;
#52 = EDGE_CURVE ( 'NONE', #72, #235, #75, .T. ) ;
#53 = PRODUCT ( '372699', '372699', '', ( #26 ) ) ;
#54 = ORIENTED_EDGE ( 'NONE', *, *, #1, .T. ) ;
#55 = CALENDAR_DATE ( 2023, 31, 3 ) ;
#56 = CARTESIAN_POINT ( 'NONE',  ( 1.745740669421566678E-13, -6.123233995736766085E-15, 50.00000000000000000 ) ) ;
#57 = CC_DESIGN_PERSON_AND_ORGANIZATION_ASSIGNMENT ( #267, #347, ( #90 ) ) ;
#58 = CIRCLE ( 'NONE', #362, 2.999999999999994671 ) ;
#59 = AXIS2_PLACEMENT_3D ( 'NONE', #130, #77, #189 ) ;
#60 = DIRECTION ( 'NONE',  ( 0.000000000000000000, -1.000000000000000000, 0.000000000000000000 ) ) ;
#61 = VERTEX_POINT ( 'NONE', #191 ) ;
#62 = SHAPE_DEFINITION_REPRESENTATION ( #338, #139 ) ;
#63 = CYLINDRICAL_SURFACE ( 'NONE', #261, 1.999999999999997335 ) ;
#64 = ORIENTED_EDGE ( 'NONE', *, *, #339, .F. ) ;
#65 = EDGE_LOOP ( 'NONE', ( #82, #331, #108, #300 ) ) ;
#66 = DIRECTION ( 'NONE',  ( -4.275831445896958607E-31, -1.000000000000000000, -1.224646799147353207E-16 ) ) ;
#67 = APPROVAL_STATUS ( 'not_yet_approved' ) ;
#68 = FACE_OUTER_BOUND ( 'NONE', #212, .T. ) ;
#69 = DIRECTION ( 'NONE',  ( -3.491481338843133355E-15, 1.224646799147353207E-16, -1.000000000000000000 ) ) ;
#70 = AXIS2_PLACEMENT_3D ( 'NONE', #299, #13, #296 ) ;
#71 = VERTEX_POINT ( 'NONE', #217 ) ;
#72 = VERTEX_POINT ( 'NONE', #74 ) ;
#73 = APPROVAL_STATUS ( 'not_yet_approved' ) ;
#74 = CARTESIAN_POINT ( 'NONE',  ( 4.173616796333873337E-14, 1.999999999999994893, 10.00000000000000178 ) ) ;
#75 = LINE ( 'NONE', #252, #125 ) ;
#76 = CONICAL_SURFACE ( 'NONE', #282, 6.999999999999996447, 0.2617993877991501850 ) ;
#77 = DIRECTION ( 'NONE',  ( 0.000000000000000000, 0.000000000000000000, 1.000000000000000000 ) ) ;
#78 =( NAMED_UNIT ( * ) PLANE_ANGLE_UNIT ( ) SI_UNIT ( $, .RADIAN. ) );
#79 = AXIS2_PLACEMENT_3D ( 'NONE', #326, #177, #174 ) ;
#80 = APPLICATION_CONTEXT ( 'configuration controlled 3d designs of mechanical parts and assemblies' ) ;
#81 = UNCERTAINTY_MEASURE_WITH_UNIT (LENGTH_MEASURE( 1.000000000000000082E-05 ), #311, 'distance_accuracy_value', 'NONE');
#82 = ORIENTED_EDGE ( 'NONE', *, *, #242, .T. ) ;
#83 = CARTESIAN_POINT ( 'NONE',  ( -1.532736330333576670E-30, -1.999999999999997335, -4.389931325943828075E-16 ) ) ;
#84 = DIRECTION ( 'NONE',  ( -4.456761796588768785E-31, -1.000000000000000000, -1.276467311168694772E-16 ) ) ;
#85 = AXIS2_PLACEMENT_3D ( 'NONE', #115, #286, #17 ) ;
#86 = APPROVAL_PERSON_ORGANIZATION ( #320, #135, #141 ) ;
#87 = DESIGN_CONTEXT ( 'detailed design', #80, 'design' ) ;
#88 = EDGE_CURVE ( 'NONE', #61, #71, #206, .T. ) ;
#89 = PERSON_AND_ORGANIZATION_ROLE ( 'classification_officer' ) ;
#90 = PRODUCT_DEFINITION ( 'UNKNOWN', '', #38, #87 ) ;
#91 = APPROVAL_DATE_TIME ( #144, #135 ) ;
#92 = DATE_AND_TIME ( #318, #228 ) ;
#93 = DIRECTION ( 'NONE',  ( 4.275831445896958607E-31, 1.000000000000000000, 1.224646799147353207E-16 ) ) ;
#94 = CONICAL_SURFACE ( 'NONE', #236, 6.999999999999996447, 0.2617993877991501850 ) ;
#95 = DIRECTION ( 'NONE',  ( 0.000000000000000000, -1.000000000000000000, 0.000000000000000000 ) ) ;
#96 = EDGE_CURVE ( 'NONE', #72, #16, #155, .T. ) ;
#97 = DIRECTION ( 'NONE',  ( 3.372511997194914833E-15, -0.2588190451025215166, 0.9659258262890679791 ) ) ;
#98 = DIRECTION ( 'NONE',  ( -2.382254525458723780E-15, -0.7071067811865453523, -0.7071067811865496822 ) ) ;
#99 = DIRECTION ( 'NONE',  ( 3.491481338843133355E-15, -1.276467311168695266E-16, 1.000000000000000000 ) ) ;
#100 = AXIS2_PLACEMENT_3D ( 'NONE', #56, #172, #30 ) ;
#101 = EDGE_CURVE ( 'NONE', #200, #263, #215, .T. ) ;
#102 = CARTESIAN_POINT ( 'NONE',  ( 1.000667421396370540E-13, -3.658387740909890592E-15, 28.66025403784433578 ) ) ;
#103 =( GEOMETRIC_REPRESENTATION_CONTEXT ( 3 ) GLOBAL_UNCERTAINTY_ASSIGNED_CONTEXT ( ( #81 ) ) GLOBAL_UNIT_ASSIGNED_CONTEXT ( ( #311, #78, #163 ) ) REPRESENTATION_CONTEXT ( 'NONE', 'WORKASPACE' ) );
#104 = DIRECTION ( 'NONE',  ( 3.491481338843133355E-15, -1.276467311168695266E-16, 1.000000000000000000 ) ) ;
#105 = CIRCLE ( 'NONE', #358, 1.999999999999996225 ) ;
#106 = CYLINDRICAL_SURFACE ( 'NONE', #44, 2.999999999999994671 ) ;
#107 = APPROVAL_PERSON_ORGANIZATION ( #336, #250, #229 ) ;
#108 = ORIENTED_EDGE ( 'NONE', *, *, #334, .T. ) ;
#109 = ADVANCED_FACE ( 'NONE', ( #45 ), #315, .T. ) ;
#110 = DIRECTION ( 'NONE',  ( 0.000000000000000000, -1.000000000000000000, 0.000000000000000000 ) ) ;
#111 = CARTESIAN_POINT ( 'NONE',  ( -6.413839710158237013E-31, 0.000000000000000000, -1.836996703606440502E-16 ) ) ;
#112 = ORIENTED_EDGE ( 'NONE', *, *, #242, .F. ) ;
#113 = ORIENTED_EDGE ( 'NONE', *, *, #96, .T. ) ;
#114 = DIRECTION ( 'NONE',  ( -2.468850131082271655E-15, 0.7071067811865455743, -0.7071067811865493491 ) ) ;
#115 = CARTESIAN_POINT ( 'NONE',  ( -4.275870630573520576E-31, 1.499773526796243858E-32, -1.224658022084771305E-16 ) ) ;
#116 = FACE_OUTER_BOUND ( 'NONE', #302, .T. ) ;
#117 = PLANE ( 'NONE',  #70 ) ;
#118 = CIRCLE ( 'NONE', #79, 2.999999999999994671 ) ;
#119 = DIRECTION ( 'NONE',  ( 3.491481338843133355E-15, -1.276467311168695266E-16, 1.000000000000000000 ) ) ;
#120 = FACE_OUTER_BOUND ( 'NONE', #345, .T. ) ;
#121 = CARTESIAN_POINT ( 'NONE',  ( 1.745740669421566678E-13, -6.123233995736766085E-15, 50.00000000000000000 ) ) ;
#122 = ORIENTED_EDGE ( 'NONE', *, *, #170, .T. ) ;
#123 = PERSON ( 'UNSPECIFIED', 'UNSPECIFIED', 'UNSPECIFIED', ('UNSPECIFIED'), ('UNSPECIFIED'), ('UNSPECIFIED') ) ;
#124 = ADVANCED_FACE ( 'NONE', ( #179 ), #34, .F. ) ;
#125 = VECTOR ( 'NONE', #219, 1000.000000000000000 ) ;
#126 = FACE_OUTER_BOUND ( 'NONE', #194, .T. ) ;
#127 = PERSON_AND_ORGANIZATION ( #123, #340 ) ;
#128 = DIRECTION ( 'NONE',  ( -4.456761796588768785E-31, -1.000000000000000000, -1.276467311168694772E-16 ) ) ;
#129 = CARTESIAN_POINT ( 'NONE',  ( 1.738572771762734887E-13, -2.400000000000003908, 50.00000000000000000 ) ) ;
#130 = CARTESIAN_POINT ( 'NONE',  ( 0.000000000000000000, 0.000000000000000000, 0.000000000000000000 ) ) ;
#131 = CARTESIAN_POINT ( 'NONE',  ( 1.105795826785058217E-13, -2.999999999999996447, 13.73205080756886076 ) ) ;
#132 = EDGE_CURVE ( 'NONE', #277, #169, #346, .T. ) ;
#133 = LOCAL_TIME ( 8, 31, 47.00000000000000000, #11 ) ;
#134 = ORIENTED_EDGE ( 'NONE', *, *, #2, .F. ) ;
#135 = APPROVAL ( #67, 'UNSPECIFIED' ) ;
#136 = FACE_OUTER_BOUND ( 'NONE', #216, .T. ) ;
#137 = DIRECTION ( 'NONE',  ( -3.491481338843133355E-15, 1.224646799147353207E-16, -1.000000000000000000 ) ) ;
#138 = DIRECTION ( 'NONE',  ( 3.491481338843133355E-15, -1.276467311168695266E-16, 1.000000000000000000 ) ) ;
#139 = ADVANCED_BREP_SHAPE_REPRESENTATION ( '372699', ( #39, #165, #59 ), #103 ) ;
#140 = CIRCLE ( 'NONE', #50, 2.999999999999997335 ) ;
#141 = APPROVAL_ROLE ( '' ) ;
#142 = FACE_OUTER_BOUND ( 'NONE', #213, .T. ) ;
#143 = FACE_OUTER_BOUND ( 'NONE', #65, .T. ) ;
#144 = DATE_AND_TIME ( #207, #317 ) ;
#145 = CARTESIAN_POINT ( 'NONE',  ( 0.000000000000000000, 0.000000000000000000, 0.000000000000000000 ) ) ;
#146 = DIRECTION ( 'NONE',  ( -3.491481338843133355E-15, 1.224646799147353207E-16, -1.000000000000000000 ) ) ;
#147 = VECTOR ( 'NONE', #196, 1000.000000000000000 ) ;
#148 = VECTOR ( 'NONE', #289, 1000.000000000000000 ) ;
#149 = CARTESIAN_POINT ( 'NONE',  ( 1.000667421396370540E-13, -3.658387740909890592E-15, 28.66025403784433578 ) ) ;
#150 = CARTESIAN_POINT ( 'NONE',  ( 1.748679821739520473E-13, -2.400000000000003908, 50.00000000000000000 ) ) ;
#151 = DIRECTION ( 'NONE',  ( 3.491481338843133355E-15, -1.276467311168695266E-16, 1.000000000000000000 ) ) ;
#152 = ORIENTED_EDGE ( 'NONE', *, *, #88, .T. ) ;
#153 = ADVANCED_FACE ( 'NONE', ( #143 ), #76, .T. ) ;
#154 = CARTESIAN_POINT ( 'NONE',  ( 1.724791781388508004E-13, -6.049755187787925154E-15, 49.39999999999999858 ) ) ;
#155 = CIRCLE ( 'NONE', #245, 1.999999999999996225 ) ;
#156 = CC_DESIGN_APPROVAL ( #313, ( #224 ) ) ;
#157 = ORIENTED_EDGE ( 'NONE', *, *, #175, .F. ) ;
#158 = DIRECTION ( 'NONE',  ( 3.491481338843133355E-15, -1.276467311168695266E-16, 1.000000000000000000 ) ) ;
#159 = DIRECTION ( 'NONE',  ( 0.000000000000000000, 1.000000000000000000, 0.000000000000000000 ) ) ;
#160 = DIRECTION ( 'NONE',  ( 4.275831445896959482E-31, 1.000000000000000000, 1.224646799147353207E-16 ) ) ;
#161 = AXIS2_PLACEMENT_3D ( 'NONE', #121, #361, #159 ) ;
#162 = EDGE_CURVE ( 'NONE', #71, #169, #211, .T. ) ;
#163 =( NAMED_UNIT ( * ) SI_UNIT ( $, .STERADIAN. ) SOLID_ANGLE_UNIT ( ) );
#164 = EDGE_CURVE ( 'NONE', #200, #235, #270, .T. ) ;
#165 = MANIFOLD_SOLID_BREP ( 'Corps-Déplacer/Copier1[2]', #255 ) ;
#166 = DIRECTION ( 'NONE',  ( -3.491481338843133355E-15, 1.224646799147353207E-16, -1.000000000000000000 ) ) ;
#167 = CARTESIAN_POINT ( 'NONE',  ( 1.724791781388508004E-13, -6.049755187787925154E-15, 49.39999999999999858 ) ) ;
#168 = AXIS2_PLACEMENT_3D ( 'NONE', #167, #281, #197 ) ;
#169 = VERTEX_POINT ( 'NONE', #202 ) ;
#170 = EDGE_CURVE ( 'NONE', #20, #244, #9, .T. ) ;
#171 = DATE_TIME_ROLE ( 'classification_date' ) ;
#172 = DIRECTION ( 'NONE',  ( -3.491481338843133355E-15, 1.224646799147353207E-16, -1.000000000000000000 ) ) ;
#173 = ORIENTED_EDGE ( 'NONE', *, *, #132, .T. ) ;
#174 = DIRECTION ( 'NONE',  ( -2.042810365310288350E-14, -1.000000000000000000, 0.000000000000000000 ) ) ;
#175 = EDGE_CURVE ( 'NONE', #71, #61, #19, .T. ) ;
#176 = SECURITY_CLASSIFICATION_LEVEL ( 'unclassified' ) ;
#177 = DIRECTION ( 'NONE',  ( -3.491481338843133355E-15, 1.276467311168695266E-16, -1.000000000000000000 ) ) ;
#178 = ORIENTED_EDGE ( 'NONE', *, *, #1, .F. ) ;
#179 = FACE_OUTER_BOUND ( 'NONE', #204, .T. ) ;
#180 = COORDINATED_UNIVERSAL_TIME_OFFSET ( 1, 0, .AHEAD. ) ;
#181 = DIRECTION ( 'NONE',  ( 0.000000000000000000, 1.000000000000000000, 0.000000000000000000 ) ) ;
#182 = CARTESIAN_POINT ( 'NONE',  ( 2.449293598294705921E-16, 1.999999999999997335, 7.159379187309385654E-17 ) ) ;
#183 = CARTESIAN_POINT ( 'NONE',  ( 1.745740669421566678E-13, -6.123233995736766085E-15, 50.00000000000000000 ) ) ;
#184 = ORIENTED_EDGE ( 'NONE', *, *, #162, .F. ) ;
#185 = EDGE_LOOP ( 'NONE', ( #333, #360, #291, #48 ) ) ;
#186 = CARTESIAN_POINT ( 'NONE',  ( 4.794519913867246377E-14, -1.752851397116933700E-15, 13.73205080756886076 ) ) ;
#187 = EDGE_CURVE ( 'NONE', #244, #20, #221, .T. ) ;
#188 = AXIS2_PLACEMENT_3D ( 'NONE', #51, #297, #66 ) ;
#189 = DIRECTION ( 'NONE',  ( 1.000000000000000000, 0.000000000000000000, 0.000000000000000000 ) ) ;
#190 = ORIENTED_EDGE ( 'NONE', *, *, #339, .T. ) ;
#191 = CARTESIAN_POINT ( 'NONE',  ( -4.134412013878834135E-30, -1.999999999999999112, -1.184142663998522013E-15 ) ) ;
#192 = ORIENTED_EDGE ( 'NONE', *, *, #175, .T. ) ;
#193 = AXIS2_PLACEMENT_3D ( 'NONE', #145, #146, #160 ) ;
#194 = EDGE_LOOP ( 'NONE', ( #353, #113, #272, #54 ) ) ;
#195 = EDGE_CURVE ( 'NONE', #263, #200, #140, .T. ) ;
#196 = DIRECTION ( 'NONE',  ( 3.491481338843133355E-15, -1.276467311168695266E-16, 1.000000000000000000 ) ) ;
#197 = DIRECTION ( 'NONE',  ( 0.000000000000000000, 1.000000000000000000, 0.000000000000000000 ) ) ;
#198 = VECTOR ( 'NONE', #98, 1000.000000000000000 ) ;
#199 = PERSON_AND_ORGANIZATION_ROLE ( 'creator' ) ;
#200 = VERTEX_POINT ( 'NONE', #357 ) ;
#201 = DIRECTION ( 'NONE',  ( 0.000000000000000000, 1.000000000000000000, 0.000000000000000000 ) ) ;
#202 = CARTESIAN_POINT ( 'NONE',  ( 1.770233605404514654E-14, 1.999999999999994893, 10.00000000000000178 ) ) ;
#203 = EDGE_CURVE ( 'NONE', #244, #200, #32, .T. ) ;
#204 = EDGE_LOOP ( 'NONE', ( #7, #157 ) ) ;
#205 = CALENDAR_DATE ( 2023, 31, 3 ) ;
#206 = CIRCLE ( 'NONE', #363, 1.999999999999999112 ) ;
#207 = CALENDAR_DATE ( 2023, 31, 3 ) ;
#208 = CARTESIAN_POINT ( 'NONE',  ( 1.745740669421566678E-13, 2.399999999999991473, 50.00000000000000000 ) ) ;
#209 = DATE_AND_TIME ( #258, #276 ) ;
#210 = DIRECTION ( 'NONE',  ( -3.491481338843133355E-15, 1.224646799147353207E-16, -1.000000000000000000 ) ) ;
#211 = LINE ( 'NONE', #182, #298 ) ;
#212 = EDGE_LOOP ( 'NONE', ( #134, #122, #350, #275 ) ) ;
#213 = EDGE_LOOP ( 'NONE', ( #308, #190, #49, #284 ) ) ;
#214 = DIRECTION ( 'NONE',  ( -4.456761796588770537E-31, -1.000000000000000000, -1.276467311168695512E-16 ) ) ;
#215 = CIRCLE ( 'NONE', #168, 2.999999999999997335 ) ;
#216 = EDGE_LOOP ( 'NONE', ( #47, #312 ) ) ;
#217 = CARTESIAN_POINT ( 'NONE',  ( 1.770233605404516547E-14, 1.999999999999999112, -6.735557395311059307E-16 ) ) ;
#218 = ADVANCED_FACE ( 'NONE', ( #22 ), #63, .T. ) ;
#219 = DIRECTION ( 'NONE',  ( 3.404208188709233130E-15, 0.2588190451025213501, 0.9659258262890680902 ) ) ;
#220 = CC_DESIGN_PERSON_AND_ORGANIZATION_ASSIGNMENT ( #285, #295, ( #38 ) ) ;
#221 = CIRCLE ( 'NONE', #161, 2.399999999999997691 ) ;
#222 = APPLICATION_CONTEXT ( 'configuration controlled 3d designs of mechanical parts and assemblies' ) ;
#223 = CC_DESIGN_APPROVAL ( #250, ( #90 ) ) ;
#224 = SECURITY_CLASSIFICATION ( '', '', #176 ) ;
#225 = CARTESIAN_POINT ( 'NONE',  ( 3.491481338843133986E-14, -1.276467311168695561E-15, 10.00000000000000178 ) ) ;
#226 = DIRECTION ( 'NONE',  ( 0.000000000000000000, -1.000000000000000000, 0.000000000000000000 ) ) ;
#227 = AXIS2_PLACEMENT_3D ( 'NONE', #46, #210, #93 ) ;
#228 = LOCAL_TIME ( 8, 31, 47.00000000000000000, #233 ) ;
#229 = APPROVAL_ROLE ( '' ) ;
#230 = ADVANCED_FACE ( 'NONE', ( #142 ), #106, .T. ) ;
#231 = CARTESIAN_POINT ( 'NONE',  ( 3.491481338843133986E-14, -1.999999999999997335, 10.00000000000000178 ) ) ;
#232 = CC_DESIGN_PERSON_AND_ORGANIZATION_ASSIGNMENT ( #325, #199, ( #38 ) ) ;
#233 = COORDINATED_UNIVERSAL_TIME_OFFSET ( 1, 0, .AHEAD. ) ;
#234 = CYLINDRICAL_SURFACE ( 'NONE', #251, 1.999999999999997335 ) ;
#235 = VERTEX_POINT ( 'NONE', #352 ) ;
#236 = AXIS2_PLACEMENT_3D ( 'NONE', #102, #249, #337 ) ;
#237 = ORIENTED_EDGE ( 'NONE', *, *, #164, .T. ) ;
#238 = LOCAL_TIME ( 8, 31, 47.00000000000000000, #268 ) ;
#239 = APPROVAL_DATE_TIME ( #14, #313 ) ;
#240 = CARTESIAN_POINT ( 'NONE',  ( 1.105795826785057334E-13, -3.000000000000003553, 49.39999999999999858 ) ) ;
#241 = ORIENTED_EDGE ( 'NONE', *, *, #195, .T. ) ;
#242 = EDGE_CURVE ( 'NONE', #16, #72, #105, .T. ) ;
#243 = DIRECTION ( 'NONE',  ( 3.491481338843133355E-15, -1.276467311168695266E-16, 1.000000000000000000 ) ) ;
#244 = VERTEX_POINT ( 'NONE', #329 ) ;
#245 = AXIS2_PLACEMENT_3D ( 'NONE', #342, #341, #226 ) ;
#246 = ADVANCED_FACE ( 'NONE', ( #15 ), #27, .T. ) ;
#247 = DIRECTION ( 'NONE',  ( -3.491481338843133355E-15, 1.276467311168695266E-16, -1.000000000000000000 ) ) ;
#248 = APPLICATION_PROTOCOL_DEFINITION ( 'international standard', 'config_control_design', 1994, #80 ) ;
#249 = DIRECTION ( 'NONE',  ( 3.491481338843133355E-15, -1.276467311168695266E-16, 1.000000000000000000 ) ) ;
#250 = APPROVAL ( #73, 'UNSPECIFIED' ) ;
#251 = AXIS2_PLACEMENT_3D ( 'NONE', #111, #243, #214 ) ;
#252 = CARTESIAN_POINT ( 'NONE',  ( 1.009239948990402001E-13, 6.999999999999992895, 28.66025403784433578 ) ) ;
#253 = PRODUCT_RELATED_PRODUCT_CATEGORY ( 'detail', '', ( #53 ) ) ;
#254 = EDGE_LOOP ( 'NONE', ( #64, #241, #237, #178 ) ) ;
#255 = CLOSED_SHELL ( 'NONE', ( #12, #109, #218, #124 ) ) ;
#256 = CIRCLE ( 'NONE', #29, 1.999999999999996225 ) ;
#257 = DIRECTION ( 'NONE',  ( 0.000000000000000000, 1.000000000000000000, 0.000000000000000000 ) ) ;
#258 = CALENDAR_DATE ( 2023, 31, 3 ) ;
#259 = ORIENTED_EDGE ( 'NONE', *, *, #96, .F. ) ;
#260 = LINE ( 'NONE', #150, #198 ) ;
#261 = AXIS2_PLACEMENT_3D ( 'NONE', #321, #151, #271 ) ;
#262 = APPROVAL_STATUS ( 'not_yet_approved' ) ;
#263 = VERTEX_POINT ( 'NONE', #240 ) ;
#264 = COORDINATED_UNIVERSAL_TIME_OFFSET ( 1, 0, .AHEAD. ) ;
#265 = CARTESIAN_POINT ( 'NONE',  ( 0.000000000000000000, 0.000000000000000000, 0.000000000000000000 ) ) ;
#266 = CARTESIAN_POINT ( 'NONE',  ( 1.282749433769085480E-30, 2.999999999999994671, 3.673940397442053459E-16 ) ) ;
#267 = PERSON_AND_ORGANIZATION ( #123, #340 ) ;
#268 = COORDINATED_UNIVERSAL_TIME_OFFSET ( 1, 0, .AHEAD. ) ;
#269 = PLANE ( 'NONE',  #227 ) ;
#270 = LINE ( 'NONE', #266, #306 ) ;
#271 = DIRECTION ( 'NONE',  ( -4.456761796588770537E-31, -1.000000000000000000, -1.276467311168695512E-16 ) ) ;
#272 = ORIENTED_EDGE ( 'NONE', *, *, #301, .T. ) ;
#273 = ORIENTED_EDGE ( 'NONE', *, *, #162, .T. ) ;
#274 = ADVANCED_FACE ( 'NONE', ( #136 ), #269, .F. ) ;
#275 = ORIENTED_EDGE ( 'NONE', *, *, #195, .F. ) ;
#276 = LOCAL_TIME ( 8, 31, 47.00000000000000000, #264 ) ;
#277 = VERTEX_POINT ( 'NONE', #314 ) ;
#278 = DIRECTION ( 'NONE',  ( 3.491481338843133355E-15, -1.276467311168695266E-16, 1.000000000000000000 ) ) ;
#279 = ADVANCED_FACE ( 'NONE', ( #68 ), #316, .T. ) ;
#280 = DIRECTION ( 'NONE',  ( -3.491481338843133355E-15, 1.224646799147353207E-16, -1.000000000000000000 ) ) ;
#281 = DIRECTION ( 'NONE',  ( -3.491481338843133355E-15, 1.224646799147353207E-16, -1.000000000000000000 ) ) ;
#282 = AXIS2_PLACEMENT_3D ( 'NONE', #149, #119, #110 ) ;
#283 = APPROVAL_PERSON_ORGANIZATION ( #21, #313, #31 ) ;
#284 = ORIENTED_EDGE ( 'NONE', *, *, #164, .F. ) ;
#285 = PERSON_AND_ORGANIZATION ( #123, #340 ) ;
#286 = DIRECTION ( 'NONE',  ( 3.491481338843133355E-15, -1.224646799147353207E-16, 1.000000000000000000 ) ) ;
#287 = AXIS2_PLACEMENT_3D ( 'NONE', #183, #280, #257 ) ;
#288 = DATE_AND_TIME ( #55, #238 ) ;
#289 = DIRECTION ( 'NONE',  ( -3.491481338843133355E-15, 1.224646799147353207E-16, -1.000000000000000000 ) ) ;
#290 = CC_DESIGN_APPROVAL ( #135, ( #38 ) ) ;
#291 = ORIENTED_EDGE ( 'NONE', *, *, #101, .F. ) ;
#292 = PERSON_AND_ORGANIZATION ( #123, #340 ) ;
#293 = LINE ( 'NONE', #330, #148 ) ;
#294 = ADVANCED_FACE ( 'NONE', ( #120 ), #117, .F. ) ;
#295 = PERSON_AND_ORGANIZATION_ROLE ( 'design_supplier' ) ;
#296 = DIRECTION ( 'NONE',  ( -4.275831445896958607E-31, -1.000000000000000000, -1.224646799147353207E-16 ) ) ;
#297 = DIRECTION ( 'NONE',  ( 3.491481338843133355E-15, -1.224646799147353207E-16, 1.000000000000000000 ) ) ;
#298 = VECTOR ( 'NONE', #10, 1000.000000000000000 ) ;
#299 = CARTESIAN_POINT ( 'NONE',  ( 3.491481338843133986E-14, 2.249639673992779296E-32, 10.00000000000000178 ) ) ;
#300 = ORIENTED_EDGE ( 'NONE', *, *, #301, .F. ) ;
#301 = EDGE_CURVE ( 'NONE', #16, #24, #354, .T. ) ;
#302 = EDGE_LOOP ( 'NONE', ( #152, #273, #305, #355 ) ) ;
#303 = CC_DESIGN_DATE_AND_TIME_ASSIGNMENT ( #92, #35, ( #90 ) ) ;
#304 = CARTESIAN_POINT ( 'NONE',  ( -3.243059654561080903E-30, 9.511590187700546688E-32, -9.288492017647832554E-16 ) ) ;
#305 = ORIENTED_EDGE ( 'NONE', *, *, #132, .F. ) ;
#306 = VECTOR ( 'NONE', #348, 1000.000000000000000 ) ;
#307 = EDGE_CURVE ( 'NONE', #61, #277, #343, .T. ) ;
#308 = ORIENTED_EDGE ( 'NONE', *, *, #101, .T. ) ;
#309 = AXIS2_PLACEMENT_3D ( 'NONE', #23, #69, #181 ) ;
#310 = DIRECTION ( 'NONE',  ( 0.000000000000000000, -1.000000000000000000, 0.000000000000000000 ) ) ;
#311 =( LENGTH_UNIT ( ) NAMED_UNIT ( * ) SI_UNIT ( .MILLI., .METRE. ) );
#312 = ORIENTED_EDGE ( 'NONE', *, *, #170, .F. ) ;
#313 = APPROVAL ( #262, 'UNSPECIFIED' ) ;
#314 = CARTESIAN_POINT ( 'NONE',  ( 3.491481338843133986E-14, -1.999999999999997335, 10.00000000000000178 ) ) ;
#315 = PLANE ( 'NONE',  #188 ) ;
#316 = CONICAL_SURFACE ( 'NONE', #287, 2.399999999999997691, 0.7853981633974453924 ) ;
#317 = LOCAL_TIME ( 8, 31, 47.00000000000000000, #180 ) ;
#318 = CALENDAR_DATE ( 2023, 31, 3 ) ;
#319 = CC_DESIGN_PERSON_AND_ORGANIZATION_ASSIGNMENT ( #292, #89, ( #224 ) ) ;
#320 = PERSON_AND_ORGANIZATION ( #123, #340 ) ;
#321 = CARTESIAN_POINT ( 'NONE',  ( -6.413839710158237013E-31, 0.000000000000000000, -1.836996703606440502E-16 ) ) ;
#322 = CARTESIAN_POINT ( 'NONE',  ( 3.491481338843133986E-14, -1.276467311168695561E-15, 10.00000000000000178 ) ) ;
#323 = DIRECTION ( 'NONE',  ( 0.000000000000000000, -1.000000000000000000, 0.000000000000000000 ) ) ;
#324 = AXIS2_PLACEMENT_3D ( 'NONE', #304, #158, #128 ) ;
#325 = PERSON_AND_ORGANIZATION ( #123, #340 ) ;
#326 = CARTESIAN_POINT ( 'NONE',  ( 4.794519913867246377E-14, -1.752851397116933700E-15, 13.73205080756886076 ) ) ;
#327 = ORIENTED_EDGE ( 'NONE', *, *, #356, .F. ) ;
#328 = APPROVAL_DATE_TIME ( #209, #250 ) ;
#329 = CARTESIAN_POINT ( 'NONE',  ( 1.745740669421566678E-13, 2.399999999999991473, 50.00000000000000000 ) ) ;
#330 = CARTESIAN_POINT ( 'NONE',  ( 3.673940397442041133E-16, -2.999999999999994671, -3.673940397442065784E-16 ) ) ;
#331 = ORIENTED_EDGE ( 'NONE', *, *, #52, .T. ) ;
#332 = AXIS2_PLACEMENT_3D ( 'NONE', #322, #138, #60 ) ;
#333 = ORIENTED_EDGE ( 'NONE', *, *, #187, .T. ) ;
#334 = EDGE_CURVE ( 'NONE', #235, #24, #118, .T. ) ;
#335 = EDGE_LOOP ( 'NONE', ( #173, #3 ) ) ;
#336 = PERSON_AND_ORGANIZATION ( #123, #340 ) ;
#337 = DIRECTION ( 'NONE',  ( 0.000000000000000000, -1.000000000000000000, 0.000000000000000000 ) ) ;
#338 = PRODUCT_DEFINITION_SHAPE ( 'NONE', 'NONE',  #90 ) ;
#339 = EDGE_CURVE ( 'NONE', #263, #24, #293, .T. ) ;
#340 = ORGANIZATION ( 'UNSPECIFIED', 'UNSPECIFIED', '' ) ;
#341 = DIRECTION ( 'NONE',  ( 3.491481338843133355E-15, -1.276467311168695266E-16, 1.000000000000000000 ) ) ;
#342 = CARTESIAN_POINT ( 'NONE',  ( 3.491481338843133986E-14, -1.276467311168695561E-15, 10.00000000000000178 ) ) ;
#343 = LINE ( 'NONE', #83, #147 ) ;
#344 = CARTESIAN_POINT ( 'NONE',  ( -3.243059654561080903E-30, 9.511590187700546688E-32, -9.288492017647832554E-16 ) ) ;
#345 = EDGE_LOOP ( 'NONE', ( #112, #259 ) ) ;
#346 = CIRCLE ( 'NONE', #332, 1.999999999999996225 ) ;
#347 = PERSON_AND_ORGANIZATION_ROLE ( 'creator' ) ;
#348 = DIRECTION ( 'NONE',  ( -3.491481338843133355E-15, 1.224646799147353207E-16, -1.000000000000000000 ) ) ;
#349 = DIRECTION ( 'NONE',  ( 4.275831445896959482E-31, 1.000000000000000000, 1.224646799147353207E-16 ) ) ;
#350 = ORIENTED_EDGE ( 'NONE', *, *, #203, .T. ) ;
#351 = ADVANCED_FACE ( 'NONE', ( #37 ), #36, .T. ) ;
#352 = CARTESIAN_POINT ( 'NONE',  ( 1.102121886387616542E-13, 2.999999999999993339, 13.73205080756886076 ) ) ;
#353 = ORIENTED_EDGE ( 'NONE', *, *, #52, .F. ) ;
#354 = LINE ( 'NONE', #6, #40 ) ;
#355 = ORIENTED_EDGE ( 'NONE', *, *, #307, .F. ) ;
#356 = EDGE_CURVE ( 'NONE', #169, #277, #256, .T. ) ;
#357 = CARTESIAN_POINT ( 'NONE',  ( 1.724791781388508004E-13, 2.999999999999991562, 49.39999999999999858 ) ) ;
#358 = AXIS2_PLACEMENT_3D ( 'NONE', #225, #99, #95 ) ;
#359 = PERSON_AND_ORGANIZATION_ROLE ( 'design_owner' ) ;
#360 = ORIENTED_EDGE ( 'NONE', *, *, #2, .T. ) ;
#361 = DIRECTION ( 'NONE',  ( -3.491481338843133355E-15, 1.224646799147353207E-16, -1.000000000000000000 ) ) ;
#362 = AXIS2_PLACEMENT_3D ( 'NONE', #186, #247, #323 ) ;
#363 = AXIS2_PLACEMENT_3D ( 'NONE', #344, #278, #84 ) ;
ENDSEC;
END-ISO-10303-21;
