ISO-10303-21;
HEADER;
FILE_DESCRIPTION (( 'STEP AP203' ),
    '1' );
FILE_NAME ('372698.step',
    '2023-03-31T06:31:46',
    ( '' ),
    ( '' ),
    'SwSTEP 2.0',
    'SolidWorks 2022',
    '' );
FILE_SCHEMA (( 'CONFIG_CONTROL_DESIGN' ));
ENDSEC;

DATA;
#1 = EDGE_CURVE ( 'NONE', #38, #157, #143, .T. ) ;
#2 = CARTESIAN_POINT ( 'NONE',  ( 1.741207000342173473E-13, -2.000000000000010214, 69.60000000000000853 ) ) ;
#3 = CARTESIAN_POINT ( 'NONE',  ( 2.444036937190193601E-13, -8.572527594031472993E-15, 70.00000000000000000 ) ) ;
#4 = CARTESIAN_POINT ( 'NONE',  ( -4.275832747872699746E-31, 1.999999999999994005, -1.224647172048026391E-16 ) ) ;
#5 = PRODUCT_DEFINITION_SHAPE ( 'NONE', 'NONE',  #183 ) ;
#6 = CARTESIAN_POINT ( 'NONE',  ( 2.439258338750972239E-13, -1.600000000000010081, 70.00000000000000000 ) ) ;
#7 = CARTESIAN_POINT ( 'NONE',  ( 0.000000000000000000, 0.000000000000000000, 0.000000000000000000 ) ) ;
#8 = VERTEX_POINT ( 'NONE', #202 ) ;
#9 = LOCAL_TIME ( 8, 31, 46.00000000000000000, #113 ) ;
#10 = ORIENTED_EDGE ( 'NONE', *, *, #271, .F. ) ;
#11 = CARTESIAN_POINT ( 'NONE',  ( 1.047444401652940007E-13, 1.999999999999993561, 30.00000000000000000 ) ) ;
#12 = CALENDAR_DATE ( 2023, 31, 3 ) ;
#13 = DIRECTION ( 'NONE',  ( -3.491481338843133355E-15, 1.224646799147353207E-16, -1.000000000000000000 ) ) ;
#14 = EDGE_CURVE ( 'NONE', #157, #38, #226, .T. ) ;
#15 = DIRECTION ( 'NONE',  ( 3.491481338843133355E-15, -1.224646799147353207E-16, 1.000000000000000000 ) ) ;
#16 = DIRECTION ( 'NONE',  ( 0.000000000000000000, 1.000000000000000000, 0.000000000000000000 ) ) ;
#17 = APPROVAL_ROLE ( '' ) ;
#18 = CARTESIAN_POINT ( 'NONE',  ( 2.444036937190193601E-13, -8.572527594031472993E-15, 70.00000000000000000 ) ) ;
#19 = PERSON_AND_ORGANIZATION ( #129, #59 ) ;
#20 =( LENGTH_UNIT ( ) NAMED_UNIT ( * ) SI_UNIT ( .MILLI., .METRE. ) );
#21 = CYLINDRICAL_SURFACE ( 'NONE', #305, 1.999999999999995781 ) ;
#22 = CC_DESIGN_PERSON_AND_ORGANIZATION_ASSIGNMENT ( #210, #185, ( #224 ) ) ;
#23 = CYLINDRICAL_SURFACE ( 'NONE', #79, 1.999999999999995781 ) ;
#24 = DATE_AND_TIME ( #92, #9 ) ;
#25 = ORIENTED_EDGE ( 'NONE', *, *, #158, .T. ) ;
#26 = LOCAL_TIME ( 8, 31, 46.00000000000000000, #290 ) ;
#27 = DIRECTION ( 'NONE',  ( -3.491481338843133355E-15, 1.224646799147353207E-16, -1.000000000000000000 ) ) ;
#28 = COORDINATED_UNIVERSAL_TIME_OFFSET ( 1, 0, .AHEAD. ) ;
#29 = FACE_OUTER_BOUND ( 'NONE', #264, .T. ) ;
#30 = CARTESIAN_POINT ( 'NONE',  ( -1.282749563966659244E-30, 4.499279804657179445E-32, -3.673940770342725410E-16 ) ) ;
#31 = CALENDAR_DATE ( 2023, 31, 3 ) ;
#32 = PLANE ( 'NONE',  #190 ) ;
#33 = FACE_OUTER_BOUND ( 'NONE', #228, .T. ) ;
#34 = DIRECTION ( 'NONE',  ( -2.382254525458708792E-15, -0.7071067811865495711, -0.7071067811865455743 ) ) ;
#35 = CARTESIAN_POINT ( 'NONE',  ( 1.047444401652940007E-13, -3.673940397442059178E-15, 30.00000000000000000 ) ) ;
#36 = AXIS2_PLACEMENT_3D ( 'NONE', #7, #295, #77 ) ;
#37 = ADVANCED_FACE ( 'NONE', ( #156 ), #126, .T. ) ;
#38 = VERTEX_POINT ( 'NONE', #11 ) ;
#39 = APPROVAL_STATUS ( 'not_yet_approved' ) ;
#40 = EDGE_LOOP ( 'NONE', ( #103, #259 ) ) ;
#41 = APPLICATION_PROTOCOL_DEFINITION ( 'international standard', 'config_control_design', 1994, #164 ) ;
#42 = EDGE_LOOP ( 'NONE', ( #114, #110, #208, #66 ) ) ;
#43 = APPROVAL_STATUS ( 'not_yet_approved' ) ;
#44 = CARTESIAN_POINT ( 'NONE',  ( 2.444036937190193601E-13, -8.572527594031472993E-15, 70.00000000000000000 ) ) ;
#45 = CIRCLE ( 'NONE', #261, 1.600000000000001421 ) ;
#46 =( GEOMETRIC_REPRESENTATION_CONTEXT ( 3 ) GLOBAL_UNCERTAINTY_ASSIGNED_CONTEXT ( ( #247 ) ) GLOBAL_UNIT_ASSIGNED_CONTEXT ( ( #20, #286, #177 ) ) REPRESENTATION_CONTEXT ( 'NONE', 'WORKASPACE' ) );
#47 = CARTESIAN_POINT ( 'NONE',  ( 2.444036937190193601E-13, -8.572527594031472993E-15, 70.00000000000000000 ) ) ;
#48 = DIRECTION ( 'NONE',  ( -3.491481338843133355E-15, 1.224646799147353207E-16, -1.000000000000000000 ) ) ;
#49 = AXIS2_PLACEMENT_3D ( 'NONE', #189, #75, #243 ) ;
#50 = APPROVAL_DATE_TIME ( #74, #162 ) ;
#51 = APPROVAL_ROLE ( '' ) ;
#52 = EDGE_CURVE ( 'NONE', #8, #137, #56, .T. ) ;
#53 = AXIS2_PLACEMENT_3D ( 'NONE', #308, #195, #117 ) ;
#54 = DIRECTION ( 'NONE',  ( 0.000000000000000000, 1.000000000000000000, 0.000000000000000000 ) ) ;
#55 = DIRECTION ( 'NONE',  ( -3.491481338843133355E-15, 1.224646799147353207E-16, -1.000000000000000000 ) ) ;
#56 = LINE ( 'NONE', #227, #268 ) ;
#57 = DIRECTION ( 'NONE',  ( -3.491481338843133355E-15, 1.224646799147353207E-16, -1.000000000000000000 ) ) ;
#58 = DIRECTION ( 'NONE',  ( -3.491481338843133355E-15, 1.224646799147353207E-16, -1.000000000000000000 ) ) ;
#59 = ORGANIZATION ( 'UNSPECIFIED', 'UNSPECIFIED', '' ) ;
#60 = CARTESIAN_POINT ( 'NONE',  ( 2.445996372068829464E-13, -1.600000000000010081, 70.00000000000000000 ) ) ;
#61 = DIRECTION ( 'NONE',  ( 0.000000000000000000, 1.000000000000000000, 0.000000000000000000 ) ) ;
#62 = ADVANCED_BREP_SHAPE_REPRESENTATION ( '372698', ( #184, #281, #36 ), #46 ) ;
#63 = EDGE_LOOP ( 'NONE', ( #128, #139, #166, #10 ) ) ;
#64 = APPROVAL_DATE_TIME ( #229, #288 ) ;
#65 = VERTEX_POINT ( 'NONE', #4 ) ;
#66 = ORIENTED_EDGE ( 'NONE', *, *, #14, .F. ) ;
#67 = CC_DESIGN_PERSON_AND_ORGANIZATION_ASSIGNMENT ( #278, #155, ( #224 ) ) ;
#68 = CLOSED_SHELL ( 'NONE', ( #94, #37, #257, #134, #194, #214 ) ) ;
#69 = PLANE ( 'NONE',  #291 ) ;
#70 = EDGE_CURVE ( 'NONE', #137, #181, #123, .T. ) ;
#71 = FACE_OUTER_BOUND ( 'NONE', #145, .T. ) ;
#72 = AXIS2_PLACEMENT_3D ( 'NONE', #192, #48, #142 ) ;
#73 = VECTOR ( 'NONE', #58, 1000.000000000000000 ) ;
#74 = DATE_AND_TIME ( #169, #293 ) ;
#75 = DIRECTION ( 'NONE',  ( -3.491481338843133355E-15, 1.224646799147353207E-16, -1.000000000000000000 ) ) ;
#76 = CLOSED_SHELL ( 'NONE', ( #248, #171, #82, #148 ) ) ;
#77 = DIRECTION ( 'NONE',  ( 1.000000000000000000, 0.000000000000000000, 0.000000000000000000 ) ) ;
#78 = DIRECTION ( 'NONE',  ( 0.000000000000000000, 1.000000000000000000, 0.000000000000000000 ) ) ;
#79 = AXIS2_PLACEMENT_3D ( 'NONE', #287, #260, #299 ) ;
#80 = SECURITY_CLASSIFICATION ( '', '', #131 ) ;
#81 = DESIGN_CONTEXT ( 'detailed design', #164, 'design' ) ;
#82 = ADVANCED_FACE ( 'NONE', ( #71 ), #23, .T. ) ;
#83 = EDGE_LOOP ( 'NONE', ( #307, #111 ) ) ;
#84 = ORIENTED_EDGE ( 'NONE', *, *, #70, .T. ) ;
#85 = APPROVAL_DATE_TIME ( #119, #174 ) ;
#86 = DIRECTION ( 'NONE',  ( -4.275831445896958607E-31, -1.000000000000000000, -1.224646799147353207E-16 ) ) ;
#87 = AXIS2_PLACEMENT_3D ( 'NONE', #44, #304, #168 ) ;
#88 = PERSON_AND_ORGANIZATION ( #129, #59 ) ;
#89 = DIRECTION ( 'NONE',  ( -3.491481338843133355E-15, 1.224646799147353207E-16, -1.000000000000000000 ) ) ;
#90 = EDGE_CURVE ( 'NONE', #159, #8, #45, .T. ) ;
#91 = FACE_OUTER_BOUND ( 'NONE', #63, .T. ) ;
#92 = CALENDAR_DATE ( 2023, 31, 3 ) ;
#93 = AXIS2_PLACEMENT_3D ( 'NONE', #18, #302, #212 ) ;
#94 = ADVANCED_FACE ( 'NONE', ( #109 ), #204, .T. ) ;
#95 = ORIENTED_EDGE ( 'NONE', *, *, #218, .T. ) ;
#96 = CARTESIAN_POINT ( 'NONE',  ( 2.430071011834821320E-13, 1.999999999999992673, 69.60000000000000853 ) ) ;
#97 = AXIS2_PLACEMENT_3D ( 'NONE', #35, #203, #294 ) ;
#98 = VECTOR ( 'NONE', #34, 1000.000000000000114 ) ;
#99 = PRODUCT ( '372698', '372698', '', ( #258 ) ) ;
#100 = CARTESIAN_POINT ( 'NONE',  ( 2.444036937190193601E-13, 1.199807826129474044E-32, 70.00000000000000000 ) ) ;
#101 = DIRECTION ( 'NONE',  ( -3.491481338843133355E-15, 1.224646799147353207E-16, -1.000000000000000000 ) ) ;
#102 = CARTESIAN_POINT ( 'NONE',  ( 0.000000000000000000, 0.000000000000000000, 0.000000000000000000 ) ) ;
#103 = ORIENTED_EDGE ( 'NONE', *, *, #1, .T. ) ;
#104 = ORIENTED_EDGE ( 'NONE', *, *, #152, .F. ) ;
#105 = DIRECTION ( 'NONE',  ( -3.491481338843133355E-15, 1.224646799147353207E-16, -1.000000000000000000 ) ) ;
#106 = FACE_OUTER_BOUND ( 'NONE', #40, .T. ) ;
#107 = ORIENTED_EDGE ( 'NONE', *, *, #1, .F. ) ;
#108 = CC_DESIGN_PERSON_AND_ORGANIZATION_ASSIGNMENT ( #237, #282, ( #80 ) ) ;
#109 = FACE_OUTER_BOUND ( 'NONE', #231, .T. ) ;
#110 = ORIENTED_EDGE ( 'NONE', *, *, #207, .T. ) ;
#111 = ORIENTED_EDGE ( 'NONE', *, *, #90, .F. ) ;
#112 = ORIENTED_EDGE ( 'NONE', *, *, #152, .T. ) ;
#113 = COORDINATED_UNIVERSAL_TIME_OFFSET ( 1, 0, .AHEAD. ) ;
#114 = ORIENTED_EDGE ( 'NONE', *, *, #158, .F. ) ;
#115 = APPROVAL_STATUS ( 'not_yet_approved' ) ;
#116 = APPLICATION_CONTEXT ( 'configuration controlled 3d designs of mechanical parts and assemblies' ) ;
#117 = DIRECTION ( 'NONE',  ( -4.275831445896958607E-31, -1.000000000000000000, -1.224646799147353207E-16 ) ) ;
#118 = CC_DESIGN_PERSON_AND_ORGANIZATION_ASSIGNMENT ( #140, #173, ( #183 ) ) ;
#119 = DATE_AND_TIME ( #31, #26 ) ;
#120 = LOCAL_TIME ( 8, 31, 46.00000000000000000, #179 ) ;
#121 = DIRECTION ( 'NONE',  ( 3.491481338843133355E-15, -1.224646799147353207E-16, 1.000000000000000000 ) ) ;
#122 = CARTESIAN_POINT ( 'NONE',  ( 2.449293598294697047E-16, -1.999999999999999112, -2.449293598294713810E-16 ) ) ;
#123 = CIRCLE ( 'NONE', #223, 2.000000000000001332 ) ;
#124 = CIRCLE ( 'NONE', #252, 1.999999999999997113 ) ;
#125 = DIRECTION ( 'NONE',  ( 0.000000000000000000, 1.000000000000000000, 0.000000000000000000 ) ) ;
#126 = CYLINDRICAL_SURFACE ( 'NONE', #310, 1.999999999999999112 ) ;
#127 = ORIENTED_EDGE ( 'NONE', *, *, #271, .T. ) ;
#128 = ORIENTED_EDGE ( 'NONE', *, *, #225, .T. ) ;
#129 = PERSON ( 'UNSPECIFIED', 'UNSPECIFIED', 'UNSPECIFIED', ('UNSPECIFIED'), ('UNSPECIFIED'), ('UNSPECIFIED') ) ;
#130 = CONICAL_SURFACE ( 'NONE', #216, 1.600000000000001421, 0.7853981633974512766 ) ;
#131 = SECURITY_CLASSIFICATION_LEVEL ( 'unclassified' ) ;
#132 = APPROVAL_ROLE ( '' ) ;
#133 = EDGE_LOOP ( 'NONE', ( #95, #141 ) ) ;
#134 = ADVANCED_FACE ( 'NONE', ( #215 ), #217, .T. ) ;
#135 = CARTESIAN_POINT ( 'NONE',  ( 1.047444401652940007E-13, 1.999999999999993561, 30.00000000000000000 ) ) ;
#136 = VECTOR ( 'NONE', #57, 1000.000000000000000 ) ;
#137 = VERTEX_POINT ( 'NONE', #96 ) ;
#138 = CARTESIAN_POINT ( 'NONE',  ( 8.551662891793913710E-31, 1.999999999999999112, 2.449293598294705428E-16 ) ) ;
#139 = ORIENTED_EDGE ( 'NONE', *, *, #303, .T. ) ;
#140 = PERSON_AND_ORGANIZATION ( #129, #59 ) ;
#141 = ORIENTED_EDGE ( 'NONE', *, *, #176, .T. ) ;
#142 = DIRECTION ( 'NONE',  ( 4.275831445896958607E-31, 1.000000000000000000, 1.224646799147353207E-16 ) ) ;
#143 = CIRCLE ( 'NONE', #97, 1.999999999999997113 ) ;
#144 = CIRCLE ( 'NONE', #272, 1.999999999999994005 ) ;
#145 = EDGE_LOOP ( 'NONE', ( #170, #209, #127, #280 ) ) ;
#146 = ORIENTED_EDGE ( 'NONE', *, *, #225, .F. ) ;
#147 = DIRECTION ( 'NONE',  ( 4.275831445896959482E-31, 1.000000000000000000, 1.224646799147353207E-16 ) ) ;
#148 = ADVANCED_FACE ( 'NONE', ( #29 ), #221, .T. ) ;
#149 = FACE_OUTER_BOUND ( 'NONE', #83, .T. ) ;
#150 = DIRECTION ( 'NONE',  ( 4.275831445896958607E-31, 1.000000000000000000, 1.224646799147353207E-16 ) ) ;
#151 = DIRECTION ( 'NONE',  ( -3.491481338843133355E-15, 1.224646799147353207E-16, -1.000000000000000000 ) ) ;
#152 = EDGE_CURVE ( 'NONE', #159, #181, #222, .T. ) ;
#153 = ORIENTED_EDGE ( 'NONE', *, *, #52, .T. ) ;
#154 = CC_DESIGN_DATE_AND_TIME_ASSIGNMENT ( #24, #306, ( #183 ) ) ;
#155 = PERSON_AND_ORGANIZATION_ROLE ( 'creator' ) ;
#156 = FACE_OUTER_BOUND ( 'NONE', #235, .T. ) ;
#157 = VERTEX_POINT ( 'NONE', #205 ) ;
#158 = EDGE_CURVE ( 'NONE', #181, #157, #201, .T. ) ;
#159 = VERTEX_POINT ( 'NONE', #6 ) ;
#160 = APPROVAL_PERSON_ORGANIZATION ( #220, #174, #51 ) ;
#161 = PERSON_AND_ORGANIZATION ( #129, #59 ) ;
#162 = APPROVAL ( #39, 'UNSPECIFIED' ) ;
#163 = DIRECTION ( 'NONE',  ( -3.491481338843133355E-15, 1.224646799147353207E-16, -1.000000000000000000 ) ) ;
#164 = APPLICATION_CONTEXT ( 'configuration controlled 3d designs of mechanical parts and assemblies' ) ;
#165 = CARTESIAN_POINT ( 'NONE',  ( 8.551662891793899697E-31, 1.999999999999995781, 2.449293598294700991E-16 ) ) ;
#166 = ORIENTED_EDGE ( 'NONE', *, *, #218, .F. ) ;
#167 = APPLICATION_PROTOCOL_DEFINITION ( 'international standard', 'config_control_design', 1994, #116 ) ;
#168 = DIRECTION ( 'NONE',  ( 0.000000000000000000, 1.000000000000000000, 0.000000000000000000 ) ) ;
#169 = CALENDAR_DATE ( 2023, 31, 3 ) ;
#170 = ORIENTED_EDGE ( 'NONE', *, *, #303, .F. ) ;
#171 = ADVANCED_FACE ( 'NONE', ( #244 ), #32, .F. ) ;
#172 = CC_DESIGN_APPROVAL ( #162, ( #183 ) ) ;
#173 = PERSON_AND_ORGANIZATION_ROLE ( 'creator' ) ;
#174 = APPROVAL ( #115, 'UNSPECIFIED' ) ;
#175 = ORIENTED_EDGE ( 'NONE', *, *, #90, .T. ) ;
#176 = EDGE_CURVE ( 'NONE', #289, #65, #144, .T. ) ;
#177 =( NAMED_UNIT ( * ) SI_UNIT ( $, .STERADIAN. ) SOLID_ANGLE_UNIT ( ) );
#178 = VECTOR ( 'NONE', #249, 1000.000000000000000 ) ;
#179 = COORDINATED_UNIVERSAL_TIME_OFFSET ( 1, 0, .AHEAD. ) ;
#180 = EDGE_CURVE ( 'NONE', #251, #297, #187, .T. ) ;
#181 = VERTEX_POINT ( 'NONE', #2 ) ;
#182 = ORIENTED_EDGE ( 'NONE', *, *, #180, .F. ) ;
#183 = PRODUCT_DEFINITION ( 'UNKNOWN', '', #224, #81 ) ;
#184 = MANIFOLD_SOLID_BREP ( 'Corps-Déplacer/Copier1[1]', #68 ) ;
#185 = PERSON_AND_ORGANIZATION_ROLE ( 'design_supplier' ) ;
#186 = AXIS2_PLACEMENT_3D ( 'NONE', #279, #13, #61 ) ;
#187 = CIRCLE ( 'NONE', #49, 1.999999999999997113 ) ;
#188 = LINE ( 'NONE', #138, #178 ) ;
#189 = CARTESIAN_POINT ( 'NONE',  ( 1.047444401652940007E-13, -3.673940397442059178E-15, 30.00000000000000000 ) ) ;
#190 = AXIS2_PLACEMENT_3D ( 'NONE', #265, #121, #193 ) ;
#191 = ORIENTED_EDGE ( 'NONE', *, *, #207, .F. ) ;
#192 = CARTESIAN_POINT ( 'NONE',  ( 0.000000000000000000, 0.000000000000000000, 0.000000000000000000 ) ) ;
#193 = DIRECTION ( 'NONE',  ( -4.275831445896958607E-31, -1.000000000000000000, -1.224646799147353207E-16 ) ) ;
#194 = ADVANCED_FACE ( 'NONE', ( #33 ), #130, .T. ) ;
#195 = DIRECTION ( 'NONE',  ( 3.491481338843133355E-15, -1.224646799147353207E-16, 1.000000000000000000 ) ) ;
#196 = PRODUCT_RELATED_PRODUCT_CATEGORY ( 'detail', '', ( #99 ) ) ;
#197 = VECTOR ( 'NONE', #101, 1000.000000000000000 ) ;
#198 = DIRECTION ( 'NONE',  ( -3.491481338843133355E-15, 1.224646799147353207E-16, -1.000000000000000000 ) ) ;
#199 = DIRECTION ( 'NONE',  ( -3.491481338843133355E-15, 1.224646799147353207E-16, -1.000000000000000000 ) ) ;
#200 = LOCAL_TIME ( 8, 31, 46.00000000000000000, #253 ) ;
#201 = LINE ( 'NONE', #122, #136 ) ;
#202 = CARTESIAN_POINT ( 'NONE',  ( 2.444036937190193601E-13, 1.599999999999992761, 70.00000000000000000 ) ) ;
#203 = DIRECTION ( 'NONE',  ( -3.491481338843133355E-15, 1.224646799147353207E-16, -1.000000000000000000 ) ) ;
#204 = CONICAL_SURFACE ( 'NONE', #93, 1.600000000000001421, 0.7853981633974512766 ) ;
#205 = CARTESIAN_POINT ( 'NONE',  ( 1.741207000342174735E-13, -2.000000000000000444, 30.00000000000000000 ) ) ;
#206 = DIRECTION ( 'NONE',  ( -2.468850131082257455E-15, 0.7071067811865497932, -0.7071067811865453523 ) ) ;
#207 = EDGE_CURVE ( 'NONE', #181, #137, #277, .T. ) ;
#208 = ORIENTED_EDGE ( 'NONE', *, *, #266, .T. ) ;
#209 = ORIENTED_EDGE ( 'NONE', *, *, #180, .T. ) ;
#210 = PERSON_AND_ORGANIZATION ( #129, #59 ) ;
#211 = CC_DESIGN_SECURITY_CLASSIFICATION ( #80, ( #224 ) ) ;
#212 = DIRECTION ( 'NONE',  ( 0.000000000000000000, 1.000000000000000000, 0.000000000000000000 ) ) ;
#213 = CARTESIAN_POINT ( 'NONE',  ( 2.449293598294692609E-16, -1.999999999999995781, -2.449293598294709866E-16 ) ) ;
#214 = ADVANCED_FACE ( 'NONE', ( #149 ), #274, .F. ) ;
#215 = FACE_OUTER_BOUND ( 'NONE', #42, .T. ) ;
#216 = AXIS2_PLACEMENT_3D ( 'NONE', #3, #199, #273 ) ;
#217 = CYLINDRICAL_SURFACE ( 'NONE', #72, 1.999999999999999112 ) ;
#218 = EDGE_CURVE ( 'NONE', #65, #289, #300, .T. ) ;
#219 = DIRECTION ( 'NONE',  ( 4.275831445896959482E-31, 1.000000000000000000, 1.224646799147353207E-16 ) ) ;
#220 = PERSON_AND_ORGANIZATION ( #129, #59 ) ;
#221 = PLANE ( 'NONE',  #53 ) ;
#222 = LINE ( 'NONE', #60, #98 ) ;
#223 = AXIS2_PLACEMENT_3D ( 'NONE', #276, #151, #78 ) ;
#224 = PRODUCT_DEFINITION_FORMATION_WITH_SPECIFIED_SOURCE ( 'ANY', '', #99, .NOT_KNOWN. ) ;
#225 = EDGE_CURVE ( 'NONE', #297, #251, #124, .T. ) ;
#226 = CIRCLE ( 'NONE', #186, 1.999999999999997113 ) ;
#227 = CARTESIAN_POINT ( 'NONE',  ( 2.444036937190193601E-13, 1.599999999999992761, 70.00000000000000000 ) ) ;
#228 = EDGE_LOOP ( 'NONE', ( #104, #175, #153, #191 ) ) ;
#229 = DATE_AND_TIME ( #296, #200 ) ;
#230 = DIRECTION ( 'NONE',  ( 4.275831445896958607E-31, 1.000000000000000000, 1.224646799147353207E-16 ) ) ;
#231 = EDGE_LOOP ( 'NONE', ( #309, #112, #250, #240 ) ) ;
#232 = CC_DESIGN_APPROVAL ( #288, ( #80 ) ) ;
#233 = DATE_AND_TIME ( #12, #120 ) ;
#234 = CARTESIAN_POINT ( 'NONE',  ( 1.047444401652940007E-13, -3.673940397442059178E-15, 30.00000000000000000 ) ) ;
#235 = EDGE_LOOP ( 'NONE', ( #84, #25, #107, #267 ) ) ;
#236 = CC_DESIGN_APPROVAL ( #174, ( #224 ) ) ;
#237 = PERSON_AND_ORGANIZATION ( #129, #59 ) ;
#238 = LINE ( 'NONE', #213, #73 ) ;
#239 = CARTESIAN_POINT ( 'NONE',  ( 5.261714944247638858E-14, -2.000000000000000444, 30.00000000000000000 ) ) ;
#240 = ORIENTED_EDGE ( 'NONE', *, *, #52, .F. ) ;
#241 = EDGE_CURVE ( 'NONE', #8, #159, #262, .T. ) ;
#242 = CARTESIAN_POINT ( 'NONE',  ( -1.282749563966659244E-30, 4.499279804657179445E-32, -3.673940770342725410E-16 ) ) ;
#243 = DIRECTION ( 'NONE',  ( 0.000000000000000000, 1.000000000000000000, 0.000000000000000000 ) ) ;
#244 = FACE_OUTER_BOUND ( 'NONE', #133, .T. ) ;
#245 = AXIS2_PLACEMENT_3D ( 'NONE', #100, #55, #150 ) ;
#246 = CARTESIAN_POINT ( 'NONE',  ( 2.430071011834821320E-13, -8.523541722065579564E-15, 69.60000000000000853 ) ) ;
#247 = UNCERTAINTY_MEASURE_WITH_UNIT (LENGTH_MEASURE( 1.000000000000000082E-05 ), #20, 'distance_accuracy_value', 'NONE');
#248 = ADVANCED_FACE ( 'NONE', ( #91 ), #21, .T. ) ;
#249 = DIRECTION ( 'NONE',  ( -3.491481338843133355E-15, 1.224646799147353207E-16, -1.000000000000000000 ) ) ;
#250 = ORIENTED_EDGE ( 'NONE', *, *, #70, .F. ) ;
#251 = VERTEX_POINT ( 'NONE', #239 ) ;
#252 = AXIS2_PLACEMENT_3D ( 'NONE', #234, #89, #125 ) ;
#253 = COORDINATED_UNIVERSAL_TIME_OFFSET ( 1, 0, .AHEAD. ) ;
#254 = PERSON_AND_ORGANIZATION_ROLE ( 'design_owner' ) ;
#255 = DATE_TIME_ROLE ( 'classification_date' ) ;
#256 = CARTESIAN_POINT ( 'NONE',  ( 5.261714944247644538E-14, -1.999999999999994005, -6.123234368639260996E-16 ) ) ;
#257 = ADVANCED_FACE ( 'NONE', ( #106 ), #69, .F. ) ;
#258 = MECHANICAL_CONTEXT ( 'NONE', #116, 'mechanical' ) ;
#259 = ORIENTED_EDGE ( 'NONE', *, *, #14, .T. ) ;
#260 = DIRECTION ( 'NONE',  ( -3.491481338843133355E-15, 1.224646799147353207E-16, -1.000000000000000000 ) ) ;
#261 = AXIS2_PLACEMENT_3D ( 'NONE', #47, #163, #16 ) ;
#262 = CIRCLE ( 'NONE', #87, 1.600000000000001421 ) ;
#263 = DIRECTION ( 'NONE',  ( 4.275831445896958607E-31, 1.000000000000000000, 1.224646799147352961E-16 ) ) ;
#264 = EDGE_LOOP ( 'NONE', ( #146, #182 ) ) ;
#265 = CARTESIAN_POINT ( 'NONE',  ( -6.413747819833296218E-31, 2.249639902328589723E-32, -1.836970385171362705E-16 ) ) ;
#266 = EDGE_CURVE ( 'NONE', #137, #38, #188, .T. ) ;
#267 = ORIENTED_EDGE ( 'NONE', *, *, #266, .F. ) ;
#268 = VECTOR ( 'NONE', #206, 1000.000000000000114 ) ;
#269 = APPROVAL_PERSON_ORGANIZATION ( #88, #162, #132 ) ;
#270 = DIRECTION ( 'NONE',  ( -3.491481338843133355E-15, 1.224646799147353207E-16, -1.000000000000000000 ) ) ;
#271 = EDGE_CURVE ( 'NONE', #297, #65, #284, .T. ) ;
#272 = AXIS2_PLACEMENT_3D ( 'NONE', #242, #27, #219 ) ;
#273 = DIRECTION ( 'NONE',  ( 0.000000000000000000, 1.000000000000000000, 0.000000000000000000 ) ) ;
#274 = PLANE ( 'NONE',  #245 ) ;
#275 = DIRECTION ( 'NONE',  ( -3.491481338843133355E-15, 1.224646799147353207E-16, -1.000000000000000000 ) ) ;
#276 = CARTESIAN_POINT ( 'NONE',  ( 2.430071011834821320E-13, -8.523541722065579564E-15, 69.60000000000000853 ) ) ;
#277 = CIRCLE ( 'NONE', #311, 2.000000000000001332 ) ;
#278 = PERSON_AND_ORGANIZATION ( #129, #59 ) ;
#279 = CARTESIAN_POINT ( 'NONE',  ( 1.047444401652940007E-13, -3.673940397442059178E-15, 30.00000000000000000 ) ) ;
#280 = ORIENTED_EDGE ( 'NONE', *, *, #176, .F. ) ;
#281 = MANIFOLD_SOLID_BREP ( 'Corps-Déplacer/Copier1[2]', #76 ) ;
#282 = PERSON_AND_ORGANIZATION_ROLE ( 'classification_officer' ) ;
#283 = APPROVAL_PERSON_ORGANIZATION ( #19, #288, #17 ) ;
#284 = LINE ( 'NONE', #165, #197 ) ;
#285 = SHAPE_DEFINITION_REPRESENTATION ( #5, #62 ) ;
#286 =( NAMED_UNIT ( * ) PLANE_ANGLE_UNIT ( ) SI_UNIT ( $, .RADIAN. ) );
#287 = CARTESIAN_POINT ( 'NONE',  ( 0.000000000000000000, 0.000000000000000000, 0.000000000000000000 ) ) ;
#288 = APPROVAL ( #43, 'UNSPECIFIED' ) ;
#289 = VERTEX_POINT ( 'NONE', #256 ) ;
#290 = COORDINATED_UNIVERSAL_TIME_OFFSET ( 1, 0, .AHEAD. ) ;
#291 = AXIS2_PLACEMENT_3D ( 'NONE', #301, #15, #86 ) ;
#292 = CC_DESIGN_PERSON_AND_ORGANIZATION_ASSIGNMENT ( #161, #254, ( #99 ) ) ;
#293 = LOCAL_TIME ( 8, 31, 46.00000000000000000, #28 ) ;
#294 = DIRECTION ( 'NONE',  ( 0.000000000000000000, 1.000000000000000000, 0.000000000000000000 ) ) ;
#295 = DIRECTION ( 'NONE',  ( 0.000000000000000000, 0.000000000000000000, 1.000000000000000000 ) ) ;
#296 = CALENDAR_DATE ( 2023, 31, 3 ) ;
#297 = VERTEX_POINT ( 'NONE', #135 ) ;
#298 = CARTESIAN_POINT ( 'NONE',  ( 0.000000000000000000, 0.000000000000000000, 0.000000000000000000 ) ) ;
#299 = DIRECTION ( 'NONE',  ( 4.275831445896958607E-31, 1.000000000000000000, 1.224646799147352961E-16 ) ) ;
#300 = CIRCLE ( 'NONE', #313, 1.999999999999994005 ) ;
#301 = CARTESIAN_POINT ( 'NONE',  ( 1.047444401652940007E-13, 1.499759782661850218E-32, 30.00000000000000000 ) ) ;
#302 = DIRECTION ( 'NONE',  ( -3.491481338843133355E-15, 1.224646799147353207E-16, -1.000000000000000000 ) ) ;
#303 = EDGE_CURVE ( 'NONE', #251, #289, #238, .T. ) ;
#304 = DIRECTION ( 'NONE',  ( -3.491481338843133355E-15, 1.224646799147353207E-16, -1.000000000000000000 ) ) ;
#305 = AXIS2_PLACEMENT_3D ( 'NONE', #298, #275, #263 ) ;
#306 = DATE_TIME_ROLE ( 'creation_date' ) ;
#307 = ORIENTED_EDGE ( 'NONE', *, *, #241, .F. ) ;
#308 = CARTESIAN_POINT ( 'NONE',  ( 1.047444401652940007E-13, 1.499759782661850218E-32, 30.00000000000000000 ) ) ;
#309 = ORIENTED_EDGE ( 'NONE', *, *, #241, .T. ) ;
#310 = AXIS2_PLACEMENT_3D ( 'NONE', #102, #105, #230 ) ;
#311 = AXIS2_PLACEMENT_3D ( 'NONE', #246, #198, #54 ) ;
#312 = CC_DESIGN_DATE_AND_TIME_ASSIGNMENT ( #233, #255, ( #80 ) ) ;
#313 = AXIS2_PLACEMENT_3D ( 'NONE', #30, #270, #147 ) ;
ENDSEC;
END-ISO-10303-21;
