ISO-10303-21;
HEADER;
FILE_DESCRIPTION (( 'STEP AP203' ),
    '1' );
FILE_NAME ('372697.step',
    '2023-03-31T06:31:46',
    ( '' ),
    ( '' ),
    'SwSTEP 2.0',
    'SolidWorks 2022',
    '' );
FILE_SCHEMA (( 'CONFIG_CONTROL_DESIGN' ));
ENDSEC;

DATA;
#1 = EDGE_CURVE ( 'NONE', #269, #184, #146, .T. ) ;
#2 = COORDINATED_UNIVERSAL_TIME_OFFSET ( 1, 0, .AHEAD. ) ;
#3 = ORIENTED_EDGE ( 'NONE', *, *, #261, .T. ) ;
#4 = CALENDAR_DATE ( 2023, 31, 3 ) ;
#5 = DIRECTION ( 'NONE',  ( 3.491481338843133355E-15, -1.224646799147353207E-16, 1.000000000000000000 ) ) ;
#6 = ORIENTED_EDGE ( 'NONE', *, *, #173, .F. ) ;
#7 = CARTESIAN_POINT ( 'NONE',  ( 2.449293598294697047E-16, -1.999999999999999112, -2.449293598294713810E-16 ) ) ;
#8 = DIRECTION ( 'NONE',  ( -3.491481338843133355E-15, 1.224646799147353207E-16, -1.000000000000000000 ) ) ;
#9 = CARTESIAN_POINT ( 'NONE',  ( 2.094888803305880013E-13, -7.347880794884118356E-15, 60.00000000000000000 ) ) ;
#10 = FACE_OUTER_BOUND ( 'NONE', #280, .T. ) ;
#11 = CARTESIAN_POINT ( 'NONE',  ( 0.000000000000000000, 0.000000000000000000, 0.000000000000000000 ) ) ;
#12 = ADVANCED_FACE ( 'NONE', ( #144 ), #121, .T. ) ;
#13 = COORDINATED_UNIVERSAL_TIME_OFFSET ( 1, 0, .AHEAD. ) ;
#14 = FACE_OUTER_BOUND ( 'NONE', #35, .T. ) ;
#15 = CARTESIAN_POINT ( 'NONE',  ( 6.982962677686266711E-14, 1.499759782661851039E-32, 20.00000000000000000 ) ) ;
#16 = CIRCLE ( 'NONE', #99, 1.999999999999994005 ) ;
#17 = FACE_OUTER_BOUND ( 'NONE', #287, .T. ) ;
#18 = DIRECTION ( 'NONE',  ( -2.468850131082257455E-15, 0.7071067811865497932, -0.7071067811865453523 ) ) ;
#19 = ORIENTED_EDGE ( 'NONE', *, *, #94, .F. ) ;
#20 = DATE_AND_TIME ( #25, #313 ) ;
#21 = CARTESIAN_POINT ( 'NONE',  ( 1.392058866457861400E-13, -1.999999999999999112, 20.00000000000000000 ) ) ;
#22 = CIRCLE ( 'NONE', #44, 1.999999999999996669 ) ;
#23 = AXIS2_PLACEMENT_3D ( 'NONE', #285, #8, #201 ) ;
#24 = DIRECTION ( 'NONE',  ( 3.491481338843133355E-15, -1.224646799147353207E-16, 1.000000000000000000 ) ) ;
#25 = CALENDAR_DATE ( 2023, 31, 3 ) ;
#26 = DIRECTION ( 'NONE',  ( 0.000000000000000000, 1.000000000000000000, 0.000000000000000000 ) ) ;
#27 = DATE_TIME_ROLE ( 'creation_date' ) ;
#28 = COORDINATED_UNIVERSAL_TIME_OFFSET ( 1, 0, .AHEAD. ) ;
#29 = FACE_OUTER_BOUND ( 'NONE', #145, .T. ) ;
#30 = LOCAL_TIME ( 8, 31, 46.00000000000000000, #2 ) ;
#31 = PERSON_AND_ORGANIZATION_ROLE ( 'creator' ) ;
#32 = CARTESIAN_POINT ( 'NONE',  ( 1.392058866457860390E-13, -2.000000000000008882, 59.60000000000000142 ) ) ;
#33 = FACE_OUTER_BOUND ( 'NONE', #210, .T. ) ;
#34 = SECURITY_CLASSIFICATION ( '', '', #92 ) ;
#35 = EDGE_LOOP ( 'NONE', ( #216, #252, #228, #255 ) ) ;
#36 = ORIENTED_EDGE ( 'NONE', *, *, #261, .F. ) ;
#37 = VERTEX_POINT ( 'NONE', #21 ) ;
#38 = ADVANCED_FACE ( 'NONE', ( #123 ), #64, .T. ) ;
#39 = DIRECTION ( 'NONE',  ( 0.000000000000000000, 1.000000000000000000, 0.000000000000000000 ) ) ;
#40 = PERSON_AND_ORGANIZATION ( #248, #265 ) ;
#41 = ORIENTED_EDGE ( 'NONE', *, *, #185, .F. ) ;
#42 = CIRCLE ( 'NONE', #264, 1.999999999999994005 ) ;
#43 = CARTESIAN_POINT ( 'NONE',  ( 6.982962677686266711E-14, -2.449293598294706513E-15, 20.00000000000000000 ) ) ;
#44 = AXIS2_PLACEMENT_3D ( 'NONE', #167, #120, #291 ) ;
#45 = CARTESIAN_POINT ( 'NONE',  ( 0.000000000000000000, 0.000000000000000000, 0.000000000000000000 ) ) ;
#46 = CARTESIAN_POINT ( 'NONE',  ( 2.080922877950507480E-13, -7.298894922918224927E-15, 59.60000000000000142 ) ) ;
#47 = MANIFOLD_SOLID_BREP ( 'Corps-Déplacer/Copier1[2]', #181 ) ;
#48 = CONICAL_SURFACE ( 'NONE', #105, 1.600000000000001421, 0.7853981633974512766 ) ;
#49 = COORDINATED_UNIVERSAL_TIME_OFFSET ( 1, 0, .AHEAD. ) ;
#50 = CC_DESIGN_DATE_AND_TIME_ASSIGNMENT ( #125, #74, ( #34 ) ) ;
#51 = ADVANCED_FACE ( 'NONE', ( #257 ), #158, .T. ) ;
#52 = APPROVAL ( #147, 'UNSPECIFIED' ) ;
#53 = PERSON_AND_ORGANIZATION_ROLE ( 'creator' ) ;
#54 = PERSON_AND_ORGANIZATION ( #248, #265 ) ;
#55 = DIRECTION ( 'NONE',  ( 4.275831445896959482E-31, 1.000000000000000000, 1.224646799147353207E-16 ) ) ;
#56 = ORIENTED_EDGE ( 'NONE', *, *, #163, .F. ) ;
#57 = LINE ( 'NONE', #7, #311 ) ;
#58 = APPLICATION_PROTOCOL_DEFINITION ( 'international standard', 'config_control_design', 1994, #290 ) ;
#59 = VERTEX_POINT ( 'NONE', #136 ) ;
#60 = CIRCLE ( 'NONE', #132, 1.999999999999996669 ) ;
#61 = ORIENTED_EDGE ( 'NONE', *, *, #294, .F. ) ;
#62 = DIRECTION ( 'NONE',  ( -3.491481338843133355E-15, 1.224646799147353207E-16, -1.000000000000000000 ) ) ;
#63 = CARTESIAN_POINT ( 'NONE',  ( 2.096848238184515624E-13, -1.600000000000008749, 60.00000000000000000 ) ) ;
#64 = CYLINDRICAL_SURFACE ( 'NONE', #77, 1.999999999999995337 ) ;
#65 = DIRECTION ( 'NONE',  ( -3.491481338843133355E-15, 1.224646799147353207E-16, -1.000000000000000000 ) ) ;
#66 = AXIS2_PLACEMENT_3D ( 'NONE', #46, #148, #26 ) ;
#67 = ORIENTED_EDGE ( 'NONE', *, *, #185, .T. ) ;
#68 = CARTESIAN_POINT ( 'NONE',  ( 2.094888803305880013E-13, 1.599999999999994094, 60.00000000000000000 ) ) ;
#69 = EDGE_CURVE ( 'NONE', #130, #170, #16, .T. ) ;
#70 = CARTESIAN_POINT ( 'NONE',  ( 2.094888803305880013E-13, 1.599999999999994094, 60.00000000000000000 ) ) ;
#71 = ORIENTED_EDGE ( 'NONE', *, *, #219, .T. ) ;
#72 = VECTOR ( 'NONE', #180, 1000.000000000000000 ) ;
#73 = PRODUCT_DEFINITION_SHAPE ( 'NONE', 'NONE',  #192 ) ;
#74 = DATE_TIME_ROLE ( 'classification_date' ) ;
#75 = APPROVAL_STATUS ( 'not_yet_approved' ) ;
#76 = CC_DESIGN_PERSON_AND_ORGANIZATION_ASSIGNMENT ( #155, #150, ( #293 ) ) ;
#77 = AXIS2_PLACEMENT_3D ( 'NONE', #172, #162, #207 ) ;
#78 =( GEOMETRIC_REPRESENTATION_CONTEXT ( 3 ) GLOBAL_UNCERTAINTY_ASSIGNED_CONTEXT ( ( #250 ) ) GLOBAL_UNIT_ASSIGNED_CONTEXT ( ( #260, #97, #169 ) ) REPRESENTATION_CONTEXT ( 'NONE', 'WORKASPACE' ) );
#79 = EDGE_LOOP ( 'NONE', ( #19, #67, #233, #6 ) ) ;
#80 = ORIENTED_EDGE ( 'NONE', *, *, #101, .F. ) ;
#81 = APPLICATION_PROTOCOL_DEFINITION ( 'international standard', 'config_control_design', 1994, #107 ) ;
#82 = PLANE ( 'NONE',  #258 ) ;
#83 = AXIS2_PLACEMENT_3D ( 'NONE', #189, #309, #102 ) ;
#84 = CIRCLE ( 'NONE', #23, 2.000000000000001332 ) ;
#85 = ADVANCED_FACE ( 'NONE', ( #33 ), #297, .T. ) ;
#86 = CARTESIAN_POINT ( 'NONE',  ( 8.551662891793913710E-31, 1.999999999999999112, 2.449293598294705428E-16 ) ) ;
#87 = CARTESIAN_POINT ( 'NONE',  ( -1.282741596833768882E-30, 4.499251859716778976E-32, -3.673917951567205431E-16 ) ) ;
#88 = ORIENTED_EDGE ( 'NONE', *, *, #160, .F. ) ;
#89 = DIRECTION ( 'NONE',  ( 0.000000000000000000, 1.000000000000000000, 0.000000000000000000 ) ) ;
#90 = CIRCLE ( 'NONE', #223, 1.600000000000001421 ) ;
#91 = LOCAL_TIME ( 8, 31, 46.00000000000000000, #13 ) ;
#92 = SECURITY_CLASSIFICATION_LEVEL ( 'unclassified' ) ;
#93 = LINE ( 'NONE', #300, #244 ) ;
#94 = EDGE_CURVE ( 'NONE', #59, #186, #281, .T. ) ;
#95 = ORIENTED_EDGE ( 'NONE', *, *, #152, .F. ) ;
#96 = CARTESIAN_POINT ( 'NONE',  ( 8.551662891793897945E-31, 1.999999999999995337, 2.449293598294700498E-16 ) ) ;
#97 =( NAMED_UNIT ( * ) PLANE_ANGLE_UNIT ( ) SI_UNIT ( $, .RADIAN. ) );
#98 = CALENDAR_DATE ( 2023, 31, 3 ) ;
#99 = AXIS2_PLACEMENT_3D ( 'NONE', #87, #65, #161 ) ;
#100 = CC_DESIGN_APPROVAL ( #52, ( #34 ) ) ;
#101 = EDGE_CURVE ( 'NONE', #37, #184, #239, .T. ) ;
#102 = DIRECTION ( 'NONE',  ( 4.275831445896958607E-31, 1.000000000000000000, 1.224646799147353207E-16 ) ) ;
#103 = DIRECTION ( 'NONE',  ( -3.491481338843133355E-15, 1.224646799147353207E-16, -1.000000000000000000 ) ) ;
#104 = AXIS2_PLACEMENT_3D ( 'NONE', #222, #62, #204 ) ;
#105 = AXIS2_PLACEMENT_3D ( 'NONE', #310, #103, #126 ) ;
#106 = LOCAL_TIME ( 8, 31, 46.00000000000000000, #197 ) ;
#107 = APPLICATION_CONTEXT ( 'configuration controlled 3d designs of mechanical parts and assemblies' ) ;
#108 = PERSON_AND_ORGANIZATION ( #248, #265 ) ;
#109 = AXIS2_PLACEMENT_3D ( 'NONE', #45, #301, #218 ) ;
#110 = DIRECTION ( 'NONE',  ( 0.000000000000000000, 0.000000000000000000, 1.000000000000000000 ) ) ;
#111 = DIRECTION ( 'NONE',  ( -3.491481338843133355E-15, 1.224646799147353207E-16, -1.000000000000000000 ) ) ;
#112 = DIRECTION ( 'NONE',  ( -3.491481338843133355E-15, 1.224646799147353207E-16, -1.000000000000000000 ) ) ;
#113 = AXIS2_PLACEMENT_3D ( 'NONE', #133, #187, #232 ) ;
#114 = DIRECTION ( 'NONE',  ( -4.275831445896958607E-31, -1.000000000000000000, -1.224646799147353207E-16 ) ) ;
#115 = EDGE_LOOP ( 'NONE', ( #275, #116, #135, #95 ) ) ;
#116 = ORIENTED_EDGE ( 'NONE', *, *, #163, .T. ) ;
#117 = CALENDAR_DATE ( 2023, 31, 3 ) ;
#118 = DATE_AND_TIME ( #117, #91 ) ;
#119 = APPROVAL_PERSON_ORGANIZATION ( #171, #52, #174 ) ;
#120 = DIRECTION ( 'NONE',  ( -3.491481338843133355E-15, 1.224646799147353207E-16, -1.000000000000000000 ) ) ;
#121 = CYLINDRICAL_SURFACE ( 'NONE', #83, 1.999999999999995337 ) ;
#122 = VECTOR ( 'NONE', #18, 1000.000000000000114 ) ;
#123 = FACE_OUTER_BOUND ( 'NONE', #208, .T. ) ;
#124 = SHAPE_DEFINITION_REPRESENTATION ( #73, #176 ) ;
#125 = DATE_AND_TIME ( #98, #211 ) ;
#126 = DIRECTION ( 'NONE',  ( 0.000000000000000000, 1.000000000000000000, 0.000000000000000000 ) ) ;
#127 = CC_DESIGN_PERSON_AND_ORGANIZATION_ASSIGNMENT ( #276, #31, ( #192 ) ) ;
#128 = AXIS2_PLACEMENT_3D ( 'NONE', #43, #286, #89 ) ;
#129 = CARTESIAN_POINT ( 'NONE',  ( -6.413707984168844411E-31, 2.249625929858389488E-32, -1.836958975783602715E-16 ) ) ;
#130 = VERTEX_POINT ( 'NONE', #177 ) ;
#131 = DIRECTION ( 'NONE',  ( -3.491481338843133355E-15, 1.224646799147353207E-16, -1.000000000000000000 ) ) ;
#132 = AXIS2_PLACEMENT_3D ( 'NONE', #191, #262, #241 ) ;
#133 = CARTESIAN_POINT ( 'NONE',  ( 2.094888803305880013E-13, 1.199807826129476233E-32, 60.00000000000000000 ) ) ;
#134 = CARTESIAN_POINT ( 'NONE',  ( 6.982962677686266711E-14, 1.499759782661851039E-32, 20.00000000000000000 ) ) ;
#135 = ORIENTED_EDGE ( 'NONE', *, *, #294, .T. ) ;
#136 = CARTESIAN_POINT ( 'NONE',  ( 2.090110204866658651E-13, -1.600000000000008749, 60.00000000000000000 ) ) ;
#137 = AXIS2_PLACEMENT_3D ( 'NONE', #134, #5, #114 ) ;
#138 = DESIGN_CONTEXT ( 'detailed design', #107, 'design' ) ;
#139 = PERSON_AND_ORGANIZATION_ROLE ( 'classification_officer' ) ;
#140 = PERSON_AND_ORGANIZATION ( #248, #265 ) ;
#141 = DIRECTION ( 'NONE',  ( 1.000000000000000000, 0.000000000000000000, 0.000000000000000000 ) ) ;
#142 = ADVANCED_FACE ( 'NONE', ( #10 ), #277, .T. ) ;
#143 = DIRECTION ( 'NONE',  ( -3.491481338843133355E-15, 1.224646799147353207E-16, -1.000000000000000000 ) ) ;
#144 = FACE_OUTER_BOUND ( 'NONE', #115, .T. ) ;
#145 = EDGE_LOOP ( 'NONE', ( #283, #178 ) ) ;
#146 = LINE ( 'NONE', #86, #209 ) ;
#147 = APPROVAL_STATUS ( 'not_yet_approved' ) ;
#148 = DIRECTION ( 'NONE',  ( -3.491481338843133355E-15, 1.224646799147353207E-16, -1.000000000000000000 ) ) ;
#149 = CIRCLE ( 'NONE', #104, 1.600000000000001421 ) ;
#150 = PERSON_AND_ORGANIZATION_ROLE ( 'design_supplier' ) ;
#151 = PRODUCT ( '372697', '372697', '', ( #214 ) ) ;
#152 = EDGE_CURVE ( 'NONE', #170, #130, #42, .T. ) ;
#153 = DATE_AND_TIME ( #246, #106 ) ;
#154 = ORIENTED_EDGE ( 'NONE', *, *, #173, .T. ) ;
#155 = PERSON_AND_ORGANIZATION ( #248, #265 ) ;
#156 = DIRECTION ( 'NONE',  ( -2.382254525458708792E-15, -0.7071067811865495711, -0.7071067811865455743 ) ) ;
#157 = ADVANCED_FACE ( 'NONE', ( #202 ), #82, .F. ) ;
#158 = CONICAL_SURFACE ( 'NONE', #296, 1.600000000000001421, 0.7853981633974512766 ) ;
#159 = DIRECTION ( 'NONE',  ( 4.275831445896958607E-31, 1.000000000000000000, 1.224646799147353207E-16 ) ) ;
#160 = EDGE_CURVE ( 'NONE', #279, #269, #304, .T. ) ;
#161 = DIRECTION ( 'NONE',  ( 4.275831445896959482E-31, 1.000000000000000000, 1.224646799147353207E-16 ) ) ;
#162 = DIRECTION ( 'NONE',  ( -3.491481338843133355E-15, 1.224646799147353207E-16, -1.000000000000000000 ) ) ;
#163 = EDGE_CURVE ( 'NONE', #237, #266, #22, .T. ) ;
#164 = VECTOR ( 'NONE', #156, 1000.000000000000114 ) ;
#165 = CARTESIAN_POINT ( 'NONE',  ( 0.000000000000000000, 0.000000000000000000, 0.000000000000000000 ) ) ;
#166 = ADVANCED_FACE ( 'NONE', ( #14 ), #217, .T. ) ;
#167 = CARTESIAN_POINT ( 'NONE',  ( 6.982962677686266711E-14, -2.449293598294706513E-15, 20.00000000000000000 ) ) ;
#168 = ORIENTED_EDGE ( 'NONE', *, *, #101, .T. ) ;
#169 =( NAMED_UNIT ( * ) SI_UNIT ( $, .STERADIAN. ) SOLID_ANGLE_UNIT ( ) );
#170 = VERTEX_POINT ( 'NONE', #190 ) ;
#171 = PERSON_AND_ORGANIZATION ( #248, #265 ) ;
#172 = CARTESIAN_POINT ( 'NONE',  ( 0.000000000000000000, 0.000000000000000000, 0.000000000000000000 ) ) ;
#173 = EDGE_CURVE ( 'NONE', #186, #269, #270, .T. ) ;
#174 = APPROVAL_ROLE ( '' ) ;
#175 = PRODUCT_RELATED_PRODUCT_CATEGORY ( 'detail', '', ( #151 ) ) ;
#176 = ADVANCED_BREP_SHAPE_REPRESENTATION ( '372697', ( #253, #47, #182 ), #78 ) ;
#177 = CARTESIAN_POINT ( 'NONE',  ( -4.275753076543797008E-31, 1.999999999999994005, -1.224624353272506412E-16 ) ) ;
#178 = ORIENTED_EDGE ( 'NONE', *, *, #152, .T. ) ;
#179 = APPROVAL ( #259, 'UNSPECIFIED' ) ;
#180 = DIRECTION ( 'NONE',  ( -3.491481338843133355E-15, 1.224646799147353207E-16, -1.000000000000000000 ) ) ;
#181 = CLOSED_SHELL ( 'NONE', ( #38, #227, #12, #142 ) ) ;
#182 = AXIS2_PLACEMENT_3D ( 'NONE', #165, #110, #141 ) ;
#183 = ADVANCED_FACE ( 'NONE', ( #221 ), #48, .T. ) ;
#184 = VERTEX_POINT ( 'NONE', #193 ) ;
#185 = EDGE_CURVE ( 'NONE', #59, #279, #149, .T. ) ;
#186 = VERTEX_POINT ( 'NONE', #32 ) ;
#187 = DIRECTION ( 'NONE',  ( -3.491481338843133355E-15, 1.224646799147353207E-16, -1.000000000000000000 ) ) ;
#188 = DIRECTION ( 'NONE',  ( -4.275831445896958607E-31, -1.000000000000000000, -1.224646799147353207E-16 ) ) ;
#189 = CARTESIAN_POINT ( 'NONE',  ( 0.000000000000000000, 0.000000000000000000, 0.000000000000000000 ) ) ;
#190 = CARTESIAN_POINT ( 'NONE',  ( 3.515974274826078492E-14, -1.999999999999994005, -6.123211549863132114E-16 ) ) ;
#191 = CARTESIAN_POINT ( 'NONE',  ( 6.982962677686266711E-14, -2.449293598294706513E-15, 20.00000000000000000 ) ) ;
#192 = PRODUCT_DEFINITION ( 'UNKNOWN', '', #293, #138 ) ;
#193 = CARTESIAN_POINT ( 'NONE',  ( 6.982962677686266711E-14, 1.999999999999994005, 20.00000000000000000 ) ) ;
#194 = CC_DESIGN_PERSON_AND_ORGANIZATION_ASSIGNMENT ( #40, #139, ( #34 ) ) ;
#195 = AXIS2_PLACEMENT_3D ( 'NONE', #129, #24, #188 ) ;
#196 = APPROVAL_DATE_TIME ( #118, #179 ) ;
#197 = COORDINATED_UNIVERSAL_TIME_OFFSET ( 1, 0, .AHEAD. ) ;
#198 = APPROVAL_PERSON_ORGANIZATION ( #108, #302, #249 ) ;
#199 = ORIENTED_EDGE ( 'NONE', *, *, #69, .F. ) ;
#200 = CARTESIAN_POINT ( 'NONE',  ( 2.094888803305880013E-13, -7.347880794884118356E-15, 60.00000000000000000 ) ) ;
#201 = DIRECTION ( 'NONE',  ( 0.000000000000000000, 1.000000000000000000, 0.000000000000000000 ) ) ;
#202 = FACE_OUTER_BOUND ( 'NONE', #256, .T. ) ;
#203 = DIRECTION ( 'NONE',  ( -3.491481338843133355E-15, 1.224646799147353207E-16, -1.000000000000000000 ) ) ;
#204 = DIRECTION ( 'NONE',  ( 0.000000000000000000, 1.000000000000000000, 0.000000000000000000 ) ) ;
#205 = CARTESIAN_POINT ( 'NONE',  ( -1.282741596833768882E-30, 4.499251859716778976E-32, -3.673917951567205431E-16 ) ) ;
#206 = EDGE_CURVE ( 'NONE', #186, #37, #57, .T. ) ;
#207 = DIRECTION ( 'NONE',  ( 4.275831445896958607E-31, 1.000000000000000000, 1.224646799147353207E-16 ) ) ;
#208 = EDGE_LOOP ( 'NONE', ( #3, #231, #199, #61 ) ) ;
#209 = VECTOR ( 'NONE', #242, 1000.000000000000000 ) ;
#210 = EDGE_LOOP ( 'NONE', ( #305, #154, #230, #80 ) ) ;
#211 = LOCAL_TIME ( 8, 31, 46.00000000000000000, #28 ) ;
#212 = DIRECTION ( 'NONE',  ( -4.275831445896958607E-31, -1.000000000000000000, -1.224646799147353207E-16 ) ) ;
#213 = ORIENTED_EDGE ( 'NONE', *, *, #94, .T. ) ;
#214 = MECHANICAL_CONTEXT ( 'NONE', #290, 'mechanical' ) ;
#215 = CC_DESIGN_DATE_AND_TIME_ASSIGNMENT ( #153, #27, ( #192 ) ) ;
#216 = ORIENTED_EDGE ( 'NONE', *, *, #307, .T. ) ;
#217 = CYLINDRICAL_SURFACE ( 'NONE', #109, 1.999999999999999112 ) ;
#218 = DIRECTION ( 'NONE',  ( 4.275831445896958607E-31, 1.000000000000000000, 1.224646799147353207E-16 ) ) ;
#219 = EDGE_CURVE ( 'NONE', #279, #59, #90, .T. ) ;
#220 = CARTESIAN_POINT ( 'NONE',  ( 3.515974274826075967E-14, -1.999999999999999112, 20.00000000000000000 ) ) ;
#221 = FACE_OUTER_BOUND ( 'NONE', #79, .T. ) ;
#222 = CARTESIAN_POINT ( 'NONE',  ( 2.094888803305880013E-13, -7.347880794884118356E-15, 60.00000000000000000 ) ) ;
#223 = AXIS2_PLACEMENT_3D ( 'NONE', #200, #267, #247 ) ;
#224 = CC_DESIGN_SECURITY_CLASSIFICATION ( #34, ( #293 ) ) ;
#225 = CC_DESIGN_PERSON_AND_ORGANIZATION_ASSIGNMENT ( #54, #53, ( #293 ) ) ;
#226 = ORIENTED_EDGE ( 'NONE', *, *, #307, .F. ) ;
#227 = ADVANCED_FACE ( 'NONE', ( #29 ), #245, .F. ) ;
#228 = ORIENTED_EDGE ( 'NONE', *, *, #243, .F. ) ;
#229 = CARTESIAN_POINT ( 'NONE',  ( 6.982962677686266711E-14, -2.449293598294706513E-15, 20.00000000000000000 ) ) ;
#230 = ORIENTED_EDGE ( 'NONE', *, *, #1, .T. ) ;
#231 = ORIENTED_EDGE ( 'NONE', *, *, #268, .T. ) ;
#232 = DIRECTION ( 'NONE',  ( 4.275831445896958607E-31, 1.000000000000000000, 1.224646799147353207E-16 ) ) ;
#233 = ORIENTED_EDGE ( 'NONE', *, *, #160, .T. ) ;
#234 = DIRECTION ( 'NONE',  ( 0.000000000000000000, 1.000000000000000000, 0.000000000000000000 ) ) ;
#235 = ORIENTED_EDGE ( 'NONE', *, *, #243, .T. ) ;
#236 = DIRECTION ( 'NONE',  ( -3.491481338843133355E-15, 1.224646799147353207E-16, -1.000000000000000000 ) ) ;
#237 = VERTEX_POINT ( 'NONE', #220 ) ;
#238 = APPROVAL_ROLE ( '' ) ;
#239 = CIRCLE ( 'NONE', #273, 1.999999999999996669 ) ;
#240 = APPROVAL_PERSON_ORGANIZATION ( #284, #179, #238 ) ;
#241 = DIRECTION ( 'NONE',  ( 0.000000000000000000, 1.000000000000000000, 0.000000000000000000 ) ) ;
#242 = DIRECTION ( 'NONE',  ( -3.491481338843133355E-15, 1.224646799147353207E-16, -1.000000000000000000 ) ) ;
#243 = EDGE_CURVE ( 'NONE', #184, #37, #60, .T. ) ;
#244 = VECTOR ( 'NONE', #143, 1000.000000000000000 ) ;
#245 = PLANE ( 'NONE',  #195 ) ;
#246 = CALENDAR_DATE ( 2023, 31, 3 ) ;
#247 = DIRECTION ( 'NONE',  ( 0.000000000000000000, 1.000000000000000000, 0.000000000000000000 ) ) ;
#248 = PERSON ( 'UNSPECIFIED', 'UNSPECIFIED', 'UNSPECIFIED', ('UNSPECIFIED'), ('UNSPECIFIED'), ('UNSPECIFIED') ) ;
#249 = APPROVAL_ROLE ( '' ) ;
#250 = UNCERTAINTY_MEASURE_WITH_UNIT (LENGTH_MEASURE( 1.000000000000000082E-05 ), #260, 'distance_accuracy_value', 'NONE');
#251 = CC_DESIGN_PERSON_AND_ORGANIZATION_ASSIGNMENT ( #140, #298, ( #151 ) ) ;
#252 = ORIENTED_EDGE ( 'NONE', *, *, #206, .T. ) ;
#253 = MANIFOLD_SOLID_BREP ( 'Corps-Déplacer/Copier1[1]', #254 ) ;
#254 = CLOSED_SHELL ( 'NONE', ( #51, #166, #157, #85, #183, #272 ) ) ;
#255 = ORIENTED_EDGE ( 'NONE', *, *, #1, .F. ) ;
#256 = EDGE_LOOP ( 'NONE', ( #235, #168 ) ) ;
#257 = FACE_OUTER_BOUND ( 'NONE', #282, .T. ) ;
#258 = AXIS2_PLACEMENT_3D ( 'NONE', #15, #263, #212 ) ;
#259 = APPROVAL_STATUS ( 'not_yet_approved' ) ;
#260 =( LENGTH_UNIT ( ) NAMED_UNIT ( * ) SI_UNIT ( .MILLI., .METRE. ) );
#261 = EDGE_CURVE ( 'NONE', #266, #237, #299, .T. ) ;
#262 = DIRECTION ( 'NONE',  ( -3.491481338843133355E-15, 1.224646799147353207E-16, -1.000000000000000000 ) ) ;
#263 = DIRECTION ( 'NONE',  ( 3.491481338843133355E-15, -1.224646799147353207E-16, 1.000000000000000000 ) ) ;
#264 = AXIS2_PLACEMENT_3D ( 'NONE', #205, #111, #55 ) ;
#265 = ORGANIZATION ( 'UNSPECIFIED', 'UNSPECIFIED', '' ) ;
#266 = VERTEX_POINT ( 'NONE', #303 ) ;
#267 = DIRECTION ( 'NONE',  ( -3.491481338843133355E-15, 1.224646799147353207E-16, -1.000000000000000000 ) ) ;
#268 = EDGE_CURVE ( 'NONE', #237, #170, #93, .T. ) ;
#269 = VERTEX_POINT ( 'NONE', #288 ) ;
#270 = CIRCLE ( 'NONE', #66, 2.000000000000001332 ) ;
#271 = APPROVAL_DATE_TIME ( #274, #302 ) ;
#272 = ADVANCED_FACE ( 'NONE', ( #17 ), #308, .F. ) ;
#273 = AXIS2_PLACEMENT_3D ( 'NONE', #229, #203, #234 ) ;
#274 = DATE_AND_TIME ( #4, #30 ) ;
#275 = ORIENTED_EDGE ( 'NONE', *, *, #268, .F. ) ;
#276 = PERSON_AND_ORGANIZATION ( #248, #265 ) ;
#277 = PLANE ( 'NONE',  #137 ) ;
#278 = AXIS2_PLACEMENT_3D ( 'NONE', #11, #236, #159 ) ;
#279 = VERTEX_POINT ( 'NONE', #68 ) ;
#280 = EDGE_LOOP ( 'NONE', ( #36, #56 ) ) ;
#281 = LINE ( 'NONE', #63, #164 ) ;
#282 = EDGE_LOOP ( 'NONE', ( #71, #213, #226, #88 ) ) ;
#283 = ORIENTED_EDGE ( 'NONE', *, *, #69, .T. ) ;
#284 = PERSON_AND_ORGANIZATION ( #248, #265 ) ;
#285 = CARTESIAN_POINT ( 'NONE',  ( 2.080922877950507480E-13, -7.298894922918224927E-15, 59.60000000000000142 ) ) ;
#286 = DIRECTION ( 'NONE',  ( -3.491481338843133355E-15, 1.224646799147353207E-16, -1.000000000000000000 ) ) ;
#287 = EDGE_LOOP ( 'NONE', ( #295, #41 ) ) ;
#288 = CARTESIAN_POINT ( 'NONE',  ( 2.080922877950507480E-13, 1.999999999999994005, 59.60000000000000142 ) ) ;
#289 = CC_DESIGN_APPROVAL ( #179, ( #192 ) ) ;
#290 = APPLICATION_CONTEXT ( 'configuration controlled 3d designs of mechanical parts and assemblies' ) ;
#291 = DIRECTION ( 'NONE',  ( 0.000000000000000000, 1.000000000000000000, 0.000000000000000000 ) ) ;
#292 = APPROVAL_DATE_TIME ( #20, #52 ) ;
#293 = PRODUCT_DEFINITION_FORMATION_WITH_SPECIFIED_SOURCE ( 'ANY', '', #151, .NOT_KNOWN. ) ;
#294 = EDGE_CURVE ( 'NONE', #266, #130, #306, .T. ) ;
#295 = ORIENTED_EDGE ( 'NONE', *, *, #219, .F. ) ;
#296 = AXIS2_PLACEMENT_3D ( 'NONE', #9, #112, #39 ) ;
#297 = CYLINDRICAL_SURFACE ( 'NONE', #278, 1.999999999999999112 ) ;
#298 = PERSON_AND_ORGANIZATION_ROLE ( 'design_owner' ) ;
#299 = CIRCLE ( 'NONE', #128, 1.999999999999996669 ) ;
#300 = CARTESIAN_POINT ( 'NONE',  ( 2.449293598294692116E-16, -1.999999999999995337, -2.449293598294709373E-16 ) ) ;
#301 = DIRECTION ( 'NONE',  ( -3.491481338843133355E-15, 1.224646799147353207E-16, -1.000000000000000000 ) ) ;
#302 = APPROVAL ( #75, 'UNSPECIFIED' ) ;
#303 = CARTESIAN_POINT ( 'NONE',  ( 6.982962677686266711E-14, 1.999999999999994005, 20.00000000000000000 ) ) ;
#304 = LINE ( 'NONE', #70, #122 ) ;
#305 = ORIENTED_EDGE ( 'NONE', *, *, #206, .F. ) ;
#306 = LINE ( 'NONE', #96, #72 ) ;
#307 = EDGE_CURVE ( 'NONE', #269, #186, #84, .T. ) ;
#308 = PLANE ( 'NONE',  #113 ) ;
#309 = DIRECTION ( 'NONE',  ( -3.491481338843133355E-15, 1.224646799147353207E-16, -1.000000000000000000 ) ) ;
#310 = CARTESIAN_POINT ( 'NONE',  ( 2.094888803305880013E-13, -7.347880794884118356E-15, 60.00000000000000000 ) ) ;
#311 = VECTOR ( 'NONE', #131, 1000.000000000000000 ) ;
#312 = CC_DESIGN_APPROVAL ( #302, ( #293 ) ) ;
#313 = LOCAL_TIME ( 8, 31, 46.00000000000000000, #49 ) ;
ENDSEC;
END-ISO-10303-21;
