ISO-10303-21;
HEADER;
FILE_DESCRIPTION (( 'STEP AP203' ),
    '1' );
FILE_NAME ('372696.step',
    '2023-03-31T06:31:45',
    ( '' ),
    ( '' ),
    'SwSTEP 2.0',
    'SolidWorks 2022',
    '' );
FILE_SCHEMA (( 'CONFIG_CONTROL_DESIGN' ));
ENDSEC;

DATA;
#1 = ORIENTED_EDGE ( 'NONE', *, *, #244, .T. ) ;
#2 = APPROVAL_PERSON_ORGANIZATION ( #266, #184, #238 ) ;
#3 = UNCERTAINTY_MEASURE_WITH_UNIT (LENGTH_MEASURE( 1.000000000000000082E-05 ), #190, 'distance_accuracy_value', 'NONE');
#4 = APPROVAL_STATUS ( 'not_yet_approved' ) ;
#5 = ORIENTED_EDGE ( 'NONE', *, *, #117, .T. ) ;
#6 = LINE ( 'NONE', #199, #241 ) ;
#7 = ORIENTED_EDGE ( 'NONE', *, *, #117, .F. ) ;
#8 = PERSON_AND_ORGANIZATION ( #50, #21 ) ;
#9 = CARTESIAN_POINT ( 'NONE',  ( 1.745740669421566678E-13, -6.123233995736766085E-15, 50.00000000000000000 ) ) ;
#10 = ORIENTED_EDGE ( 'NONE', *, *, #271, .F. ) ;
#11 = APPROVAL_DATE_TIME ( #204, #99 ) ;
#12 = LINE ( 'NONE', #161, #270 ) ;
#13 = AXIS2_PLACEMENT_3D ( 'NONE', #288, #104, #237 ) ;
#14 = CC_DESIGN_DATE_AND_TIME_ASSIGNMENT ( #301, #23, ( #77 ) ) ;
#15 = ORIENTED_EDGE ( 'NONE', *, *, #193, .F. ) ;
#16 = CARTESIAN_POINT ( 'NONE',  ( 1.770233605404512445E-14, -1.999999999999997113, 10.00000000000000000 ) ) ;
#17 = APPROVAL_STATUS ( 'not_yet_approved' ) ;
#18 = AXIS2_PLACEMENT_3D ( 'NONE', #253, #69, #169 ) ;
#19 = CARTESIAN_POINT ( 'NONE',  ( 1.747700104300202289E-13, -1.600000000000007416, 50.00000000000000000 ) ) ;
#20 = MECHANICAL_CONTEXT ( 'NONE', #52, 'mechanical' ) ;
#21 = ORGANIZATION ( 'UNSPECIFIED', 'UNSPECIFIED', '' ) ;
#22 = VERTEX_POINT ( 'NONE', #252 ) ;
#23 = DATE_TIME_ROLE ( 'classification_date' ) ;
#24 = ORIENTED_EDGE ( 'NONE', *, *, #205, .F. ) ;
#25 = CIRCLE ( 'NONE', #170, 2.000000000000001332 ) ;
#26 = ORIENTED_EDGE ( 'NONE', *, *, #151, .F. ) ;
#27 = EDGE_LOOP ( 'NONE', ( #173, #258 ) ) ;
#28 = EDGE_CURVE ( 'NONE', #49, #230, #171, .T. ) ;
#29 = SECURITY_CLASSIFICATION_LEVEL ( 'unclassified' ) ;
#30 = EDGE_LOOP ( 'NONE', ( #211, #162, #134, #275 ) ) ;
#31 = DIRECTION ( 'NONE',  ( -3.491481338843133355E-15, 1.224646799147353207E-16, -1.000000000000000000 ) ) ;
#32 = DIRECTION ( 'NONE',  ( -3.491481338843133355E-15, 1.224646799147353207E-16, -1.000000000000000000 ) ) ;
#33 = AXIS2_PLACEMENT_3D ( 'NONE', #36, #197, #167 ) ;
#34 = AXIS2_PLACEMENT_3D ( 'NONE', #9, #100, #306 ) ;
#35 = CARTESIAN_POINT ( 'NONE',  ( 3.491481338843133355E-14, -1.224646799147353256E-15, 10.00000000000000000 ) ) ;
#36 = CARTESIAN_POINT ( 'NONE',  ( 3.491481338843133355E-14, -1.224646799147353256E-15, 10.00000000000000000 ) ) ;
#37 = CLOSED_SHELL ( 'NONE', ( #129, #128, #182, #307 ) ) ;
#38 = APPROVAL_PERSON_ORGANIZATION ( #8, #68, #188 ) ;
#39 = CARTESIAN_POINT ( 'NONE',  ( 2.449293598294691623E-16, -1.999999999999994893, -2.449293598294708880E-16 ) ) ;
#40 = DIRECTION ( 'NONE',  ( 4.275831445896958607E-31, 1.000000000000000000, 1.224646799147353207E-16 ) ) ;
#41 = CALENDAR_DATE ( 2023, 31, 3 ) ;
#42 = ORIENTED_EDGE ( 'NONE', *, *, #165, .T. ) ;
#43 = APPLICATION_PROTOCOL_DEFINITION ( 'international standard', 'config_control_design', 1994, #52 ) ;
#44 = DIRECTION ( 'NONE',  ( -3.491481338843133355E-15, 1.224646799147353207E-16, -1.000000000000000000 ) ) ;
#45 = VERTEX_POINT ( 'NONE', #294 ) ;
#46 = CIRCLE ( 'NONE', #33, 1.999999999999995781 ) ;
#47 = CC_DESIGN_APPROVAL ( #68, ( #166 ) ) ;
#48 = CARTESIAN_POINT ( 'NONE',  ( 1.745740669421566678E-13, -6.123233995736766085E-15, 50.00000000000000000 ) ) ;
#49 = VERTEX_POINT ( 'NONE', #310 ) ;
#50 = PERSON ( 'UNSPECIFIED', 'UNSPECIFIED', 'UNSPECIFIED', ('UNSPECIFIED'), ('UNSPECIFIED'), ('UNSPECIFIED') ) ;
#51 = COORDINATED_UNIVERSAL_TIME_OFFSET ( 1, 0, .AHEAD. ) ;
#52 = APPLICATION_CONTEXT ( 'configuration controlled 3d designs of mechanical parts and assemblies' ) ;
#53 = FACE_OUTER_BOUND ( 'NONE', #268, .T. ) ;
#54 = PERSON_AND_ORGANIZATION ( #50, #21 ) ;
#55 = PRODUCT_DEFINITION ( 'UNKNOWN', '', #166, #261 ) ;
#56 = DIRECTION ( 'NONE',  ( 0.000000000000000000, 1.000000000000000000, 0.000000000000000000 ) ) ;
#57 = ORIENTED_EDGE ( 'NONE', *, *, #267, .T. ) ;
#58 = ADVANCED_FACE ( 'NONE', ( #63 ), #164, .T. ) ;
#59 = DIRECTION ( 'NONE',  ( 0.000000000000000000, 1.000000000000000000, 0.000000000000000000 ) ) ;
#60 = CARTESIAN_POINT ( 'NONE',  ( 1.745740669421566678E-13, -6.123233995736766085E-15, 50.00000000000000000 ) ) ;
#61 = CIRCLE ( 'NONE', #292, 1.999999999999994005 ) ;
#62 = ORIENTED_EDGE ( 'NONE', *, *, #227, .F. ) ;
#63 = FACE_OUTER_BOUND ( 'NONE', #183, .T. ) ;
#64 = FACE_OUTER_BOUND ( 'NONE', #228, .T. ) ;
#65 = MANIFOLD_SOLID_BREP ( 'Corps-Déplacer/Copier1[1]', #98 ) ;
#66 = DIRECTION ( 'NONE',  ( -4.275831445896958607E-31, -1.000000000000000000, -1.224646799147353207E-16 ) ) ;
#67 = AXIS2_PLACEMENT_3D ( 'NONE', #35, #139, #311 ) ;
#68 = APPROVAL ( #80, 'UNSPECIFIED' ) ;
#69 = DIRECTION ( 'NONE',  ( 3.491481338843133355E-15, -1.224646799147353207E-16, 1.000000000000000000 ) ) ;
#70 = AXIS2_PLACEMENT_3D ( 'NONE', #194, #220, #66 ) ;
#71 = APPROVAL_PERSON_ORGANIZATION ( #229, #99, #278 ) ;
#72 = ORIENTED_EDGE ( 'NONE', *, *, #28, .F. ) ;
#73 = EDGE_LOOP ( 'NONE', ( #10, #57, #118, #26 ) ) ;
#74 = FACE_OUTER_BOUND ( 'NONE', #179, .T. ) ;
#75 = DIRECTION ( 'NONE',  ( -3.491481338843133355E-15, 1.224646799147353207E-16, -1.000000000000000000 ) ) ;
#76 = CIRCLE ( 'NONE', #251, 1.999999999999994005 ) ;
#77 = SECURITY_CLASSIFICATION ( '', '', #29 ) ;
#78 = COORDINATED_UNIVERSAL_TIME_OFFSET ( 1, 0, .AHEAD. ) ;
#79 = LINE ( 'NONE', #180, #125 ) ;
#80 = APPROVAL_STATUS ( 'not_yet_approved' ) ;
#81 = EDGE_LOOP ( 'NONE', ( #24, #62 ) ) ;
#82 = AXIS2_PLACEMENT_3D ( 'NONE', #214, #85, #101 ) ;
#83 = ADVANCED_BREP_SHAPE_REPRESENTATION ( '372696', ( #65, #289, #138 ), #313 ) ;
#84 = ORIENTED_EDGE ( 'NONE', *, *, #178, .F. ) ;
#85 = DIRECTION ( 'NONE',  ( -3.491481338843133355E-15, 1.224646799147353207E-16, -1.000000000000000000 ) ) ;
#86 = CIRCLE ( 'NONE', #67, 1.999999999999995781 ) ;
#87 = LOCAL_TIME ( 8, 31, 45.00000000000000000, #78 ) ;
#88 = ADVANCED_FACE ( 'NONE', ( #209 ), #133, .T. ) ;
#89 = APPROVAL_DATE_TIME ( #132, #184 ) ;
#90 =( NAMED_UNIT ( * ) SI_UNIT ( $, .STERADIAN. ) SOLID_ANGLE_UNIT ( ) );
#91 = AXIS2_PLACEMENT_3D ( 'NONE', #312, #269, #136 ) ;
#92 = FACE_OUTER_BOUND ( 'NONE', #121, .T. ) ;
#93 = CIRCLE ( 'NONE', #298, 1.999999999999995781 ) ;
#94 = CARTESIAN_POINT ( 'NONE',  ( 1.745740669421566678E-13, 1.599999999999995204, 50.00000000000000000 ) ) ;
#95 = CONICAL_SURFACE ( 'NONE', #304, 1.600000000000001421, 0.7853981633974512766 ) ;
#96 = SHAPE_DEFINITION_REPRESENTATION ( #272, #83 ) ;
#97 = CALENDAR_DATE ( 2023, 31, 3 ) ;
#98 = CLOSED_SHELL ( 'NONE', ( #154, #88, #119, #58, #149, #144 ) ) ;
#99 = APPROVAL ( #4, 'UNSPECIFIED' ) ;
#100 = DIRECTION ( 'NONE',  ( -3.491481338843133355E-15, 1.224646799147353207E-16, -1.000000000000000000 ) ) ;
#101 = DIRECTION ( 'NONE',  ( 4.275831445896957731E-31, 1.000000000000000000, 1.224646799147353207E-16 ) ) ;
#102 = ORIENTED_EDGE ( 'NONE', *, *, #244, .F. ) ;
#103 = DIRECTION ( 'NONE',  ( 0.000000000000000000, 1.000000000000000000, 0.000000000000000000 ) ) ;
#104 = DIRECTION ( 'NONE',  ( -3.491481338843133355E-15, 1.224646799147353207E-16, -1.000000000000000000 ) ) ;
#105 = CIRCLE ( 'NONE', #236, 1.999999999999995781 ) ;
#106 = FACE_OUTER_BOUND ( 'NONE', #73, .T. ) ;
#107 = DIRECTION ( 'NONE',  ( -3.491481338843133355E-15, 1.224646799147353207E-16, -1.000000000000000000 ) ) ;
#108 = PERSON_AND_ORGANIZATION_ROLE ( 'creator' ) ;
#109 = DIRECTION ( 'NONE',  ( 0.000000000000000000, 1.000000000000000000, 0.000000000000000000 ) ) ;
#110 = VECTOR ( 'NONE', #255, 1000.000000000000000 ) ;
#111 = DATE_AND_TIME ( #286, #87 ) ;
#112 = CC_DESIGN_PERSON_AND_ORGANIZATION_ASSIGNMENT ( #219, #187, ( #217 ) ) ;
#113 = CARTESIAN_POINT ( 'NONE',  ( 3.491481338843133355E-14, 1.499759782661852681E-32, 10.00000000000000000 ) ) ;
#114 = DIRECTION ( 'NONE',  ( 0.000000000000000000, 1.000000000000000000, 0.000000000000000000 ) ) ;
#115 = PLANE ( 'NONE',  #70 ) ;
#116 = DIRECTION ( 'NONE',  ( 4.275831445896959482E-31, 1.000000000000000000, 1.224646799147353207E-16 ) ) ;
#117 = EDGE_CURVE ( 'NONE', #230, #159, #76, .T. ) ;
#118 = ORIENTED_EDGE ( 'NONE', *, *, #28, .T. ) ;
#119 = ADVANCED_FACE ( 'NONE', ( #225 ), #168, .F. ) ;
#120 = CALENDAR_DATE ( 2023, 31, 3 ) ;
#121 = EDGE_LOOP ( 'NONE', ( #42, #213, #7, #72 ) ) ;
#122 = CARTESIAN_POINT ( 'NONE',  ( -4.275693451549261261E-31, 1.999999999999994005, -1.224607275995342675E-16 ) ) ;
#123 = DIRECTION ( 'NONE',  ( 4.275831445896959482E-31, 1.000000000000000000, 1.224646799147353207E-16 ) ) ;
#124 = PERSON_AND_ORGANIZATION_ROLE ( 'design_supplier' ) ;
#125 = VECTOR ( 'NONE', #273, 1000.000000000000000 ) ;
#126 = CC_DESIGN_APPROVAL ( #99, ( #77 ) ) ;
#127 = CARTESIAN_POINT ( 'NONE',  ( -1.282735634334315395E-30, 4.499230946083962375E-32, -3.673900874290041694E-16 ) ) ;
#128 = ADVANCED_FACE ( 'NONE', ( #64 ), #115, .F. ) ;
#129 = ADVANCED_FACE ( 'NONE', ( #92 ), #254, .T. ) ;
#130 = CC_DESIGN_APPROVAL ( #184, ( #55 ) ) ;
#131 = CARTESIAN_POINT ( 'NONE',  ( 1.042910732573548064E-13, -1.999999999999997113, 10.00000000000000000 ) ) ;
#132 = DATE_AND_TIME ( #207, #223 ) ;
#133 = CYLINDRICAL_SURFACE ( 'NONE', #82, 1.999999999999998224 ) ;
#134 = ORIENTED_EDGE ( 'NONE', *, *, #297, .T. ) ;
#135 = DATE_AND_TIME ( #97, #176 ) ;
#136 = DIRECTION ( 'NONE',  ( 4.275831445896958607E-31, 1.000000000000000000, 1.224646799147353207E-16 ) ) ;
#137 =( NAMED_UNIT ( * ) PLANE_ANGLE_UNIT ( ) SI_UNIT ( $, .RADIAN. ) );
#138 = AXIS2_PLACEMENT_3D ( 'NONE', #203, #248, #250 ) ;
#139 = DIRECTION ( 'NONE',  ( -3.491481338843133355E-15, 1.224646799147353207E-16, -1.000000000000000000 ) ) ;
#140 = LINE ( 'NONE', #19, #296 ) ;
#141 = ORIENTED_EDGE ( 'NONE', *, *, #174, .T. ) ;
#142 = PLANE ( 'NONE',  #18 ) ;
#143 = AXIS2_PLACEMENT_3D ( 'NONE', #189, #246, #114 ) ;
#144 = ADVANCED_FACE ( 'NONE', ( #147 ), #303, .F. ) ;
#145 = ORIENTED_EDGE ( 'NONE', *, *, #212, .T. ) ;
#146 = CARTESIAN_POINT ( 'NONE',  ( 8.551662891793896194E-31, 1.999999999999994893, 2.449293598294700005E-16 ) ) ;
#147 = FACE_OUTER_BOUND ( 'NONE', #81, .T. ) ;
#148 = COORDINATED_UNIVERSAL_TIME_OFFSET ( 1, 0, .AHEAD. ) ;
#149 = ADVANCED_FACE ( 'NONE', ( #280 ), #95, .T. ) ;
#150 = AXIS2_PLACEMENT_3D ( 'NONE', #60, #152, #259 ) ;
#151 = EDGE_CURVE ( 'NONE', #159, #230, #61, .T. ) ;
#152 = DIRECTION ( 'NONE',  ( -3.491481338843133355E-15, 1.224646799147353207E-16, -1.000000000000000000 ) ) ;
#153 = PERSON_AND_ORGANIZATION ( #50, #21 ) ;
#154 = ADVANCED_FACE ( 'NONE', ( #53 ), #210, .T. ) ;
#155 = CARTESIAN_POINT ( 'NONE',  ( 1.770233605404513076E-14, -1.999999999999994005, -6.123194472585358489E-16 ) ) ;
#156 = CIRCLE ( 'NONE', #143, 2.000000000000001332 ) ;
#157 = EDGE_CURVE ( 'NONE', #226, #45, #25, .T. ) ;
#158 = DIRECTION ( 'NONE',  ( 0.000000000000000000, 1.000000000000000000, 0.000000000000000000 ) ) ;
#159 = VERTEX_POINT ( 'NONE', #155 ) ;
#160 = VERTEX_POINT ( 'NONE', #131 ) ;
#161 = CARTESIAN_POINT ( 'NONE',  ( 8.551662891793908455E-31, 1.999999999999998224, 2.449293598294704442E-16 ) ) ;
#162 = ORIENTED_EDGE ( 'NONE', *, *, #227, .T. ) ;
#163 = PERSON_AND_ORGANIZATION_ROLE ( 'creator' ) ;
#164 = CYLINDRICAL_SURFACE ( 'NONE', #13, 1.999999999999998224 ) ;
#165 = EDGE_CURVE ( 'NONE', #49, #198, #93, .T. ) ;
#166 = PRODUCT_DEFINITION_FORMATION_WITH_SPECIFIED_SOURCE ( 'ANY', '', #217, .NOT_KNOWN. ) ;
#167 = DIRECTION ( 'NONE',  ( 0.000000000000000000, 1.000000000000000000, 0.000000000000000000 ) ) ;
#168 = PLANE ( 'NONE',  #202 ) ;
#169 = DIRECTION ( 'NONE',  ( -4.275831445896958607E-31, -1.000000000000000000, -1.224646799147353207E-16 ) ) ;
#170 = AXIS2_PLACEMENT_3D ( 'NONE', #181, #185, #103 ) ;
#171 = LINE ( 'NONE', #146, #110 ) ;
#172 = PERSON_AND_ORGANIZATION_ROLE ( 'classification_officer' ) ;
#173 = ORIENTED_EDGE ( 'NONE', *, *, #178, .T. ) ;
#174 = EDGE_CURVE ( 'NONE', #226, #22, #12, .T. ) ;
#175 = DIRECTION ( 'NONE',  ( 4.275831445896958607E-31, 1.000000000000000000, 1.224646799147353207E-16 ) ) ;
#176 = LOCAL_TIME ( 8, 31, 45.00000000000000000, #265 ) ;
#177 = ORIENTED_EDGE ( 'NONE', *, *, #151, .T. ) ;
#178 = EDGE_CURVE ( 'NONE', #22, #160, #105, .T. ) ;
#179 = EDGE_LOOP ( 'NONE', ( #305, #285 ) ) ;
#180 = CARTESIAN_POINT ( 'NONE',  ( 2.449293598294696061E-16, -1.999999999999998224, -2.449293598294712331E-16 ) ) ;
#181 = CARTESIAN_POINT ( 'NONE',  ( 1.731774744066194397E-13, -6.074248123770872657E-15, 49.60000000000000853 ) ) ;
#182 = ADVANCED_FACE ( 'NONE', ( #106 ), #263, .T. ) ;
#183 = EDGE_LOOP ( 'NONE', ( #102, #282, #141, #15 ) ) ;
#184 = APPROVAL ( #17, 'UNSPECIFIED' ) ;
#185 = DIRECTION ( 'NONE',  ( -3.491481338843133355E-15, 1.224646799147353207E-16, -1.000000000000000000 ) ) ;
#186 = CARTESIAN_POINT ( 'NONE',  ( -1.282735634334315395E-30, 4.499230946083962375E-32, -3.673900874290041694E-16 ) ) ;
#187 = PERSON_AND_ORGANIZATION_ROLE ( 'design_owner' ) ;
#188 = APPROVAL_ROLE ( '' ) ;
#189 = CARTESIAN_POINT ( 'NONE',  ( 1.731774744066194397E-13, -6.074248123770872657E-15, 49.60000000000000853 ) ) ;
#190 =( LENGTH_UNIT ( ) NAMED_UNIT ( * ) SI_UNIT ( .MILLI., .METRE. ) );
#191 = DIRECTION ( 'NONE',  ( 3.491481338843133355E-15, -1.224646799147353207E-16, 1.000000000000000000 ) ) ;
#192 = APPLICATION_PROTOCOL_DEFINITION ( 'international standard', 'config_control_design', 1994, #222 ) ;
#193 = EDGE_CURVE ( 'NONE', #160, #22, #86, .T. ) ;
#194 = CARTESIAN_POINT ( 'NONE',  ( -6.413678171671576976E-31, 2.249615473041981187E-32, -1.836950437145020847E-16 ) ) ;
#195 = CARTESIAN_POINT ( 'NONE',  ( 1.745740669421566678E-13, -6.123233995736766085E-15, 50.00000000000000000 ) ) ;
#196 = AXIS2_PLACEMENT_3D ( 'NONE', #195, #107, #109 ) ;
#197 = DIRECTION ( 'NONE',  ( -3.491481338843133355E-15, 1.224646799147353207E-16, -1.000000000000000000 ) ) ;
#198 = VERTEX_POINT ( 'NONE', #16 ) ;
#199 = CARTESIAN_POINT ( 'NONE',  ( 1.745740669421566678E-13, 1.599999999999995204, 50.00000000000000000 ) ) ;
#200 = ORIENTED_EDGE ( 'NONE', *, *, #174, .F. ) ;
#201 = DIRECTION ( 'NONE',  ( -3.491481338843133355E-15, 1.224646799147353207E-16, -1.000000000000000000 ) ) ;
#202 = AXIS2_PLACEMENT_3D ( 'NONE', #113, #191, #295 ) ;
#203 = CARTESIAN_POINT ( 'NONE',  ( 0.000000000000000000, 0.000000000000000000, 0.000000000000000000 ) ) ;
#204 = DATE_AND_TIME ( #120, #239 ) ;
#205 = EDGE_CURVE ( 'NONE', #291, #234, #215, .T. ) ;
#206 = DIRECTION ( 'NONE',  ( -3.491481338843133355E-15, 1.224646799147353207E-16, -1.000000000000000000 ) ) ;
#207 = CALENDAR_DATE ( 2023, 31, 3 ) ;
#208 = ORIENTED_EDGE ( 'NONE', *, *, #297, .F. ) ;
#209 = FACE_OUTER_BOUND ( 'NONE', #232, .T. ) ;
#210 = CONICAL_SURFACE ( 'NONE', #34, 1.600000000000001421, 0.7853981633974512766 ) ;
#211 = ORIENTED_EDGE ( 'NONE', *, *, #212, .F. ) ;
#212 = EDGE_CURVE ( 'NONE', #234, #45, #140, .T. ) ;
#213 = ORIENTED_EDGE ( 'NONE', *, *, #271, .T. ) ;
#214 = CARTESIAN_POINT ( 'NONE',  ( 0.000000000000000000, 0.000000000000000000, 0.000000000000000000 ) ) ;
#215 = CIRCLE ( 'NONE', #196, 1.600000000000001421 ) ;
#216 = DIRECTION ( 'NONE',  ( -2.382254525458708792E-15, -0.7071067811865495711, -0.7071067811865455743 ) ) ;
#217 = PRODUCT ( '372696', '372696', '', ( #20 ) ) ;
#218 = EDGE_CURVE ( 'NONE', #45, #226, #156, .T. ) ;
#219 = PERSON_AND_ORGANIZATION ( #50, #21 ) ;
#220 = DIRECTION ( 'NONE',  ( 3.491481338843133355E-15, -1.224646799147353207E-16, 1.000000000000000000 ) ) ;
#221 = CC_DESIGN_PERSON_AND_ORGANIZATION_ASSIGNMENT ( #54, #124, ( #166 ) ) ;
#222 = APPLICATION_CONTEXT ( 'configuration controlled 3d designs of mechanical parts and assemblies' ) ;
#223 = LOCAL_TIME ( 8, 31, 45.00000000000000000, #51 ) ;
#224 = CC_DESIGN_SECURITY_CLASSIFICATION ( #77, ( #166 ) ) ;
#225 = FACE_OUTER_BOUND ( 'NONE', #27, .T. ) ;
#226 = VERTEX_POINT ( 'NONE', #249 ) ;
#227 = EDGE_CURVE ( 'NONE', #234, #291, #274, .T. ) ;
#228 = EDGE_LOOP ( 'NONE', ( #5, #177 ) ) ;
#229 = PERSON_AND_ORGANIZATION ( #50, #21 ) ;
#230 = VERTEX_POINT ( 'NONE', #122 ) ;
#231 = ORIENTED_EDGE ( 'NONE', *, *, #205, .T. ) ;
#232 = EDGE_LOOP ( 'NONE', ( #281, #1, #84, #200 ) ) ;
#233 = PERSON_AND_ORGANIZATION ( #50, #21 ) ;
#234 = VERTEX_POINT ( 'NONE', #235 ) ;
#235 = CARTESIAN_POINT ( 'NONE',  ( 1.740962070982345820E-13, -1.600000000000007416, 50.00000000000000000 ) ) ;
#236 = AXIS2_PLACEMENT_3D ( 'NONE', #240, #31, #158 ) ;
#237 = DIRECTION ( 'NONE',  ( 4.275831445896957731E-31, 1.000000000000000000, 1.224646799147353207E-16 ) ) ;
#238 = APPROVAL_ROLE ( '' ) ;
#239 = LOCAL_TIME ( 8, 31, 45.00000000000000000, #148 ) ;
#240 = CARTESIAN_POINT ( 'NONE',  ( 3.491481338843133355E-14, -1.224646799147353256E-15, 10.00000000000000000 ) ) ;
#241 = VECTOR ( 'NONE', #302, 1000.000000000000114 ) ;
#242 = DIRECTION ( 'NONE',  ( -3.491481338843133355E-15, 1.224646799147353207E-16, -1.000000000000000000 ) ) ;
#243 = DATE_TIME_ROLE ( 'creation_date' ) ;
#244 = EDGE_CURVE ( 'NONE', #45, #160, #79, .T. ) ;
#245 = VECTOR ( 'NONE', #44, 1000.000000000000000 ) ;
#246 = DIRECTION ( 'NONE',  ( -3.491481338843133355E-15, 1.224646799147353207E-16, -1.000000000000000000 ) ) ;
#247 = CC_DESIGN_PERSON_AND_ORGANIZATION_ASSIGNMENT ( #153, #108, ( #55 ) ) ;
#248 = DIRECTION ( 'NONE',  ( 0.000000000000000000, 0.000000000000000000, 1.000000000000000000 ) ) ;
#249 = CARTESIAN_POINT ( 'NONE',  ( 1.731774744066194397E-13, 1.999999999999995337, 49.60000000000000853 ) ) ;
#250 = DIRECTION ( 'NONE',  ( 1.000000000000000000, 0.000000000000000000, 0.000000000000000000 ) ) ;
#251 = AXIS2_PLACEMENT_3D ( 'NONE', #186, #206, #116 ) ;
#252 = CARTESIAN_POINT ( 'NONE',  ( 3.491481338843133355E-14, 1.999999999999994449, 10.00000000000000000 ) ) ;
#253 = CARTESIAN_POINT ( 'NONE',  ( 3.491481338843133355E-14, 1.499759782661852681E-32, 10.00000000000000000 ) ) ;
#254 = CYLINDRICAL_SURFACE ( 'NONE', #279, 1.999999999999994893 ) ;
#255 = DIRECTION ( 'NONE',  ( -3.491481338843133355E-15, 1.224646799147353207E-16, -1.000000000000000000 ) ) ;
#256 = ORIENTED_EDGE ( 'NONE', *, *, #157, .F. ) ;
#257 = CARTESIAN_POINT ( 'NONE',  ( 1.745740669421566678E-13, 1.199807826129478012E-32, 50.00000000000000000 ) ) ;
#258 = ORIENTED_EDGE ( 'NONE', *, *, #193, .T. ) ;
#259 = DIRECTION ( 'NONE',  ( 0.000000000000000000, 1.000000000000000000, 0.000000000000000000 ) ) ;
#260 = APPROVAL_DATE_TIME ( #111, #68 ) ;
#261 = DESIGN_CONTEXT ( 'detailed design', #222, 'design' ) ;
#262 = DIRECTION ( 'NONE',  ( -3.491481338843133355E-15, 1.224646799147353207E-16, -1.000000000000000000 ) ) ;
#263 = CYLINDRICAL_SURFACE ( 'NONE', #91, 1.999999999999994893 ) ;
#264 = AXIS2_PLACEMENT_3D ( 'NONE', #257, #75, #175 ) ;
#265 = COORDINATED_UNIVERSAL_TIME_OFFSET ( 1, 0, .AHEAD. ) ;
#266 = PERSON_AND_ORGANIZATION ( #50, #21 ) ;
#267 = EDGE_CURVE ( 'NONE', #198, #49, #46, .T. ) ;
#268 = EDGE_LOOP ( 'NONE', ( #231, #145, #256, #208 ) ) ;
#269 = DIRECTION ( 'NONE',  ( -3.491481338843133355E-15, 1.224646799147353207E-16, -1.000000000000000000 ) ) ;
#270 = VECTOR ( 'NONE', #262, 1000.000000000000000 ) ;
#271 = EDGE_CURVE ( 'NONE', #198, #159, #276, .T. ) ;
#272 = PRODUCT_DEFINITION_SHAPE ( 'NONE', 'NONE',  #55 ) ;
#273 = DIRECTION ( 'NONE',  ( -3.491481338843133355E-15, 1.224646799147353207E-16, -1.000000000000000000 ) ) ;
#274 = CIRCLE ( 'NONE', #150, 1.600000000000001421 ) ;
#275 = ORIENTED_EDGE ( 'NONE', *, *, #218, .F. ) ;
#276 = LINE ( 'NONE', #39, #245 ) ;
#277 = CC_DESIGN_PERSON_AND_ORGANIZATION_ASSIGNMENT ( #309, #163, ( #166 ) ) ;
#278 = APPROVAL_ROLE ( '' ) ;
#279 = AXIS2_PLACEMENT_3D ( 'NONE', #300, #299, #40 ) ;
#280 = FACE_OUTER_BOUND ( 'NONE', #30, .T. ) ;
#281 = ORIENTED_EDGE ( 'NONE', *, *, #157, .T. ) ;
#282 = ORIENTED_EDGE ( 'NONE', *, *, #218, .T. ) ;
#283 = COORDINATED_UNIVERSAL_TIME_OFFSET ( 1, 0, .AHEAD. ) ;
#284 = PRODUCT_RELATED_PRODUCT_CATEGORY ( 'detail', '', ( #217 ) ) ;
#285 = ORIENTED_EDGE ( 'NONE', *, *, #267, .F. ) ;
#286 = CALENDAR_DATE ( 2023, 31, 3 ) ;
#287 = CARTESIAN_POINT ( 'NONE',  ( 3.491481338843133355E-14, -1.224646799147353256E-15, 10.00000000000000000 ) ) ;
#288 = CARTESIAN_POINT ( 'NONE',  ( 0.000000000000000000, 0.000000000000000000, 0.000000000000000000 ) ) ;
#289 = MANIFOLD_SOLID_BREP ( 'Corps-Déplacer/Copier1[2]', #37 ) ;
#290 = CC_DESIGN_DATE_AND_TIME_ASSIGNMENT ( #135, #243, ( #55 ) ) ;
#291 = VERTEX_POINT ( 'NONE', #94 ) ;
#292 = AXIS2_PLACEMENT_3D ( 'NONE', #127, #32, #123 ) ;
#293 = CC_DESIGN_PERSON_AND_ORGANIZATION_ASSIGNMENT ( #233, #172, ( #77 ) ) ;
#294 = CARTESIAN_POINT ( 'NONE',  ( 1.042910732573546550E-13, -2.000000000000007550, 49.60000000000000853 ) ) ;
#295 = DIRECTION ( 'NONE',  ( -4.275831445896958607E-31, -1.000000000000000000, -1.224646799147353207E-16 ) ) ;
#296 = VECTOR ( 'NONE', #216, 1000.000000000000114 ) ;
#297 = EDGE_CURVE ( 'NONE', #291, #226, #6, .T. ) ;
#298 = AXIS2_PLACEMENT_3D ( 'NONE', #287, #242, #59 ) ;
#299 = DIRECTION ( 'NONE',  ( -3.491481338843133355E-15, 1.224646799147353207E-16, -1.000000000000000000 ) ) ;
#300 = CARTESIAN_POINT ( 'NONE',  ( 0.000000000000000000, 0.000000000000000000, 0.000000000000000000 ) ) ;
#301 = DATE_AND_TIME ( #41, #308 ) ;
#302 = DIRECTION ( 'NONE',  ( -2.468850131082257455E-15, 0.7071067811865497932, -0.7071067811865453523 ) ) ;
#303 = PLANE ( 'NONE',  #264 ) ;
#304 = AXIS2_PLACEMENT_3D ( 'NONE', #48, #201, #56 ) ;
#305 = ORIENTED_EDGE ( 'NONE', *, *, #165, .F. ) ;
#306 = DIRECTION ( 'NONE',  ( 0.000000000000000000, 1.000000000000000000, 0.000000000000000000 ) ) ;
#307 = ADVANCED_FACE ( 'NONE', ( #74 ), #142, .T. ) ;
#308 = LOCAL_TIME ( 8, 31, 45.00000000000000000, #283 ) ;
#309 = PERSON_AND_ORGANIZATION ( #50, #21 ) ;
#310 = CARTESIAN_POINT ( 'NONE',  ( 3.491481338843133355E-14, 1.999999999999994449, 10.00000000000000000 ) ) ;
#311 = DIRECTION ( 'NONE',  ( 0.000000000000000000, 1.000000000000000000, 0.000000000000000000 ) ) ;
#312 = CARTESIAN_POINT ( 'NONE',  ( 0.000000000000000000, 0.000000000000000000, 0.000000000000000000 ) ) ;
#313 =( GEOMETRIC_REPRESENTATION_CONTEXT ( 3 ) GLOBAL_UNCERTAINTY_ASSIGNED_CONTEXT ( ( #3 ) ) GLOBAL_UNIT_ASSIGNED_CONTEXT ( ( #190, #137, #90 ) ) REPRESENTATION_CONTEXT ( 'NONE', 'WORKASPACE' ) );
ENDSEC;
END-ISO-10303-21;
