ISO-10303-21;
HEADER;
FILE_DESCRIPTION (( 'STEP AP203' ),
    '1' );
FILE_NAME ('372695.step',
    '2023-03-31T06:31:45',
    ( '' ),
    ( '' ),
    'SwSTEP 2.0',
    'SolidWorks 2022',
    '' );
FILE_SCHEMA (( 'CONFIG_CONTROL_DESIGN' ));
ENDSEC;

DATA;
#1 = ADVANCED_FACE ( 'NONE', ( #272 ), #194, .T. ) ;
#2 = CARTESIAN_POINT ( 'NONE',  ( 7.810496321603122421E-14, -2.000000000000003553, 39.60000000000000853 ) ) ;
#3 = VERTEX_POINT ( 'NONE', #165 ) ;
#4 = CARTESIAN_POINT ( 'NONE',  ( 1.396592535537253342E-13, 1.599999999999994094, 40.00000000000000000 ) ) ;
#5 = DESIGN_CONTEXT ( 'detailed design', #81, 'design' ) ;
#6 = DIRECTION ( 'NONE',  ( 4.275831445896958607E-31, 1.000000000000000000, 1.224646799147353207E-16 ) ) ;
#7 = EDGE_LOOP ( 'NONE', ( #298, #115, #231, #211 ) ) ;
#8 = CYLINDRICAL_SURFACE ( 'NONE', #22, 1.999999999999994005 ) ;
#9 = ORIENTED_EDGE ( 'NONE', *, *, #108, .T. ) ;
#10 = ORIENTED_EDGE ( 'NONE', *, *, #225, .T. ) ;
#11 = VECTOR ( 'NONE', #89, 1000.000000000000000 ) ;
#12 = LOCAL_TIME ( 8, 31, 45.00000000000000000, #223 ) ;
#13 = PERSON_AND_ORGANIZATION ( #295, #266 ) ;
#14 = EDGE_CURVE ( 'NONE', #191, #169, #129, .T. ) ;
#15 = CARTESIAN_POINT ( 'NONE',  ( 8.973632706937297374E-15, -1.999999999999994893, 5.000000000000000000 ) ) ;
#16 = EDGE_LOOP ( 'NONE', ( #209, #274, #217, #235 ) ) ;
#17 = DATE_AND_TIME ( #51, #119 ) ;
#18 = EDGE_LOOP ( 'NONE', ( #189, #273 ) ) ;
#19 = CC_DESIGN_DATE_AND_TIME_ASSIGNMENT ( #152, #150, ( #71 ) ) ;
#20 = CARTESIAN_POINT ( 'NONE',  ( 1.396592535537253342E-13, 1.599999999999994094, 40.00000000000000000 ) ) ;
#21 = AXIS2_PLACEMENT_3D ( 'NONE', #106, #205, #285 ) ;
#22 = AXIS2_PLACEMENT_3D ( 'NONE', #116, #218, #199 ) ;
#23 = CIRCLE ( 'NONE', #130, 1.999999999999994005 ) ;
#24 = EDGE_CURVE ( 'NONE', #169, #191, #23, .T. ) ;
#25 = PLANE ( 'NONE',  #21 ) ;
#26 = DIRECTION ( 'NONE',  ( 4.275831445896958607E-31, 1.000000000000000000, 1.224646799147353207E-16 ) ) ;
#27 = CC_DESIGN_APPROVAL ( #301, ( #71 ) ) ;
#28 = FACE_OUTER_BOUND ( 'NONE', #54, .T. ) ;
#29 = PRODUCT ( '372695', '372695', '', ( #236 ) ) ;
#30 = CARTESIAN_POINT ( 'NONE',  ( 8.973632706937300529E-15, -1.999999999999994005, -6.123211549862218022E-16 ) ) ;
#31 = DIRECTION ( 'NONE',  ( 0.000000000000000000, 1.000000000000000000, 0.000000000000000000 ) ) ;
#32 = APPROVAL_PERSON_ORGANIZATION ( #47, #301, #270 ) ;
#33 = PLANE ( 'NONE',  #142 ) ;
#34 = DIRECTION ( 'NONE',  ( -3.491481338843133355E-15, 1.224646799147353207E-16, -1.000000000000000000 ) ) ;
#35 = DIRECTION ( 'NONE',  ( 4.275831445896959482E-31, 1.000000000000000000, 1.224646799147353207E-16 ) ) ;
#36 = AXIS2_PLACEMENT_3D ( 'NONE', #111, #180, #87 ) ;
#37 = PERSON_AND_ORGANIZATION ( #295, #266 ) ;
#38 = DIRECTION ( 'NONE',  ( -3.491481338843133355E-15, 1.224646799147353207E-16, -1.000000000000000000 ) ) ;
#39 = APPROVAL_STATUS ( 'not_yet_approved' ) ;
#40 = CARTESIAN_POINT ( 'NONE',  ( 1.382626610181881061E-13, -4.849601324623519598E-15, 39.60000000000000853 ) ) ;
#41 = ORIENTED_EDGE ( 'NONE', *, *, #225, .F. ) ;
#42 = DATE_AND_TIME ( #181, #292 ) ;
#43 = ADVANCED_FACE ( 'NONE', ( #107 ), #311, .T. ) ;
#44 = DIRECTION ( 'NONE',  ( -4.275831445896958607E-31, -1.000000000000000000, -1.224646799147353207E-16 ) ) ;
#45 = CARTESIAN_POINT ( 'NONE',  ( 8.551662891793903200E-31, 1.999999999999996669, 2.449293598294702470E-16 ) ) ;
#46 = CC_DESIGN_PERSON_AND_ORGANIZATION_ASSIGNMENT ( #118, #120, ( #227 ) ) ;
#47 = PERSON_AND_ORGANIZATION ( #295, #266 ) ;
#48 = FACE_OUTER_BOUND ( 'NONE', #7, .T. ) ;
#49 = LINE ( 'NONE', #45, #59 ) ;
#50 = CARTESIAN_POINT ( 'NONE',  ( -1.282741596833768882E-30, 4.499251859716778976E-32, -3.673917951567205431E-16 ) ) ;
#51 = CALENDAR_DATE ( 2023, 31, 3 ) ;
#52 = LINE ( 'NONE', #4, #313 ) ;
#53 = CARTESIAN_POINT ( 'NONE',  ( 1.396592535537253342E-13, -4.898587196589413026E-15, 40.00000000000000000 ) ) ;
#54 = EDGE_LOOP ( 'NONE', ( #179, #195, #95, #206 ) ) ;
#55 = ADVANCED_FACE ( 'NONE', ( #262 ), #160, .F. ) ;
#56 = SECURITY_CLASSIFICATION_LEVEL ( 'unclassified' ) ;
#57 = FACE_OUTER_BOUND ( 'NONE', #214, .T. ) ;
#58 = AXIS2_PLACEMENT_3D ( 'NONE', #74, #261, #131 ) ;
#59 = VECTOR ( 'NONE', #91, 1000.000000000000000 ) ;
#60 = CALENDAR_DATE ( 2023, 31, 3 ) ;
#61 = COORDINATED_UNIVERSAL_TIME_OFFSET ( 1, 0, .AHEAD. ) ;
#62 = VECTOR ( 'NONE', #213, 1000.000000000000000 ) ;
#63 = DIRECTION ( 'NONE',  ( -3.491481338843133355E-15, 1.224646799147353207E-16, -1.000000000000000000 ) ) ;
#64 = CARTESIAN_POINT ( 'NONE',  ( 7.810496321603133781E-14, -1.999999999999994893, 5.000000000000000000 ) ) ;
#65 = CYLINDRICAL_SURFACE ( 'NONE', #243, 1.999999999999994005 ) ;
#66 = PRODUCT_RELATED_PRODUCT_CATEGORY ( 'detail', '', ( #29 ) ) ;
#67 = DIRECTION ( 'NONE',  ( 0.000000000000000000, 0.000000000000000000, 1.000000000000000000 ) ) ;
#68 = CARTESIAN_POINT ( 'NONE',  ( 1.391813937098032485E-13, -1.600000000000004086, 40.00000000000000000 ) ) ;
#69 = ORIENTED_EDGE ( 'NONE', *, *, #193, .T. ) ;
#70 = DIRECTION ( 'NONE',  ( -3.491481338843133355E-15, 1.224646799147353207E-16, -1.000000000000000000 ) ) ;
#71 = PRODUCT_DEFINITION ( 'UNKNOWN', '', #227, #5 ) ;
#72 = CIRCLE ( 'NONE', #290, 1.999999999999998668 ) ;
#73 = APPROVAL_PERSON_ORGANIZATION ( #101, #204, #124 ) ;
#74 = CARTESIAN_POINT ( 'NONE',  ( 1.745740669421566678E-14, -6.123233995736766282E-16, 5.000000000000000000 ) ) ;
#75 = DIRECTION ( 'NONE',  ( 0.000000000000000000, 1.000000000000000000, 0.000000000000000000 ) ) ;
#76 = DIRECTION ( 'NONE',  ( -3.491481338843133355E-15, 1.224646799147353207E-16, -1.000000000000000000 ) ) ;
#77 = ORIENTED_EDGE ( 'NONE', *, *, #172, .F. ) ;
#78 = CARTESIAN_POINT ( 'NONE',  ( 1.396592535537253342E-13, 1.199807826129477876E-32, 40.00000000000000000 ) ) ;
#79 = APPLICATION_PROTOCOL_DEFINITION ( 'international standard', 'config_control_design', 1994, #81 ) ;
#80 = AXIS2_PLACEMENT_3D ( 'NONE', #246, #34, #31 ) ;
#81 = APPLICATION_CONTEXT ( 'configuration controlled 3d designs of mechanical parts and assemblies' ) ;
#82 = ADVANCED_FACE ( 'NONE', ( #135 ), #233, .T. ) ;
#83 = DIRECTION ( 'NONE',  ( 0.000000000000000000, 1.000000000000000000, 0.000000000000000000 ) ) ;
#84 = EDGE_CURVE ( 'NONE', #3, #191, #234, .T. ) ;
#85 = AXIS2_PLACEMENT_3D ( 'NONE', #279, #63, #83 ) ;
#86 = ADVANCED_FACE ( 'NONE', ( #28 ), #162, .T. ) ;
#87 = DIRECTION ( 'NONE',  ( 0.000000000000000000, 1.000000000000000000, 0.000000000000000000 ) ) ;
#88 = VERTEX_POINT ( 'NONE', #64 ) ;
#89 = DIRECTION ( 'NONE',  ( -3.491481338843133355E-15, 1.224646799147353207E-16, -1.000000000000000000 ) ) ;
#90 = AXIS2_PLACEMENT_3D ( 'NONE', #207, #70, #26 ) ;
#91 = DIRECTION ( 'NONE',  ( -3.491481338843133355E-15, 1.224646799147353207E-16, -1.000000000000000000 ) ) ;
#92 = VECTOR ( 'NONE', #76, 1000.000000000000000 ) ;
#93 = LOCAL_TIME ( 8, 31, 45.00000000000000000, #253 ) ;
#94 = EDGE_CURVE ( 'NONE', #144, #127, #72, .T. ) ;
#95 = ORIENTED_EDGE ( 'NONE', *, *, #287, .F. ) ;
#96 = CALENDAR_DATE ( 2023, 31, 3 ) ;
#97 = FACE_OUTER_BOUND ( 'NONE', #229, .T. ) ;
#98 = PERSON_AND_ORGANIZATION ( #295, #266 ) ;
#99 = CIRCLE ( 'NONE', #182, 1.999999999999994449 ) ;
#100 = PERSON_AND_ORGANIZATION_ROLE ( 'creator' ) ;
#101 = PERSON_AND_ORGANIZATION ( #295, #266 ) ;
#102 = AXIS2_PLACEMENT_3D ( 'NONE', #188, #291, #75 ) ;
#103 = CC_DESIGN_DATE_AND_TIME_ASSIGNMENT ( #312, #105, ( #280 ) ) ;
#104 =( NAMED_UNIT ( * ) SI_UNIT ( $, .STERADIAN. ) SOLID_ANGLE_UNIT ( ) );
#105 = DATE_TIME_ROLE ( 'classification_date' ) ;
#106 = CARTESIAN_POINT ( 'NONE',  ( 1.745740669421566678E-14, 1.499759782661852955E-32, 5.000000000000000000 ) ) ;
#107 = FACE_OUTER_BOUND ( 'NONE', #284, .T. ) ;
#108 = EDGE_CURVE ( 'NONE', #144, #88, #128, .T. ) ;
#109 = LOCAL_TIME ( 8, 31, 45.00000000000000000, #61 ) ;
#110 = CARTESIAN_POINT ( 'NONE',  ( -6.413707984168844411E-31, 2.249625929858389488E-32, -1.836958975783602715E-16 ) ) ;
#111 = CARTESIAN_POINT ( 'NONE',  ( 1.396592535537253342E-13, -4.898587196589413026E-15, 40.00000000000000000 ) ) ;
#112 = CARTESIAN_POINT ( 'NONE',  ( 1.745740669421566678E-14, -6.123233995736766282E-16, 5.000000000000000000 ) ) ;
#113 = DIRECTION ( 'NONE',  ( -3.491481338843133355E-15, 1.224646799147353207E-16, -1.000000000000000000 ) ) ;
#114 = CIRCLE ( 'NONE', #186, 1.999999999999994449 ) ;
#115 = ORIENTED_EDGE ( 'NONE', *, *, #157, .T. ) ;
#116 = CARTESIAN_POINT ( 'NONE',  ( 0.000000000000000000, 0.000000000000000000, 0.000000000000000000 ) ) ;
#117 = APPROVAL_DATE_TIME ( #17, #301 ) ;
#118 = PERSON_AND_ORGANIZATION ( #295, #266 ) ;
#119 = LOCAL_TIME ( 8, 31, 45.00000000000000000, #167 ) ;
#120 = PERSON_AND_ORGANIZATION_ROLE ( 'design_supplier' ) ;
#121 = DIRECTION ( 'NONE',  ( -3.491481338843133355E-15, 1.224646799147353207E-16, -1.000000000000000000 ) ) ;
#122 = DIRECTION ( 'NONE',  ( -3.491481338843133355E-15, 1.224646799147353207E-16, -1.000000000000000000 ) ) ;
#123 = CC_DESIGN_PERSON_AND_ORGANIZATION_ASSIGNMENT ( #13, #100, ( #71 ) ) ;
#124 = APPROVAL_ROLE ( '' ) ;
#125 = DIRECTION ( 'NONE',  ( -3.491481338843133355E-15, 1.224646799147353207E-16, -1.000000000000000000 ) ) ;
#126 = AXIS2_PLACEMENT_3D ( 'NONE', #53, #38, #275 ) ;
#127 = VERTEX_POINT ( 'NONE', #155 ) ;
#128 = LINE ( 'NONE', #133, #148 ) ;
#129 = CIRCLE ( 'NONE', #198, 1.999999999999994005 ) ;
#130 = AXIS2_PLACEMENT_3D ( 'NONE', #215, #159, #289 ) ;
#131 = DIRECTION ( 'NONE',  ( 0.000000000000000000, 1.000000000000000000, 0.000000000000000000 ) ) ;
#132 = ORIENTED_EDGE ( 'NONE', *, *, #94, .F. ) ;
#133 = CARTESIAN_POINT ( 'NONE',  ( 2.449293598294693595E-16, -1.999999999999996669, -2.449293598294710852E-16 ) ) ;
#134 = SHAPE_DEFINITION_REPRESENTATION ( #232, #146 ) ;
#135 = FACE_OUTER_BOUND ( 'NONE', #264, .T. ) ;
#136 = CIRCLE ( 'NONE', #80, 1.599999999999998979 ) ;
#137 = DIRECTION ( 'NONE',  ( 3.491481338843133355E-15, -1.224646799147353207E-16, 1.000000000000000000 ) ) ;
#138 = ADVANCED_FACE ( 'NONE', ( #230 ), #25, .F. ) ;
#139 = CARTESIAN_POINT ( 'NONE',  ( 0.000000000000000000, 0.000000000000000000, 0.000000000000000000 ) ) ;
#140 = DIRECTION ( 'NONE',  ( -3.491481338843133355E-15, 1.224646799147353207E-16, -1.000000000000000000 ) ) ;
#141 = ORIENTED_EDGE ( 'NONE', *, *, #145, .T. ) ;
#142 = AXIS2_PLACEMENT_3D ( 'NONE', #78, #122, #151 ) ;
#143 = VERTEX_POINT ( 'NONE', #68 ) ;
#144 = VERTEX_POINT ( 'NONE', #2 ) ;
#145 = EDGE_CURVE ( 'NONE', #88, #296, #185, .T. ) ;
#146 = ADVANCED_BREP_SHAPE_REPRESENTATION ( '372695', ( #248, #242, #158 ), #300 ) ;
#147 = CALENDAR_DATE ( 2023, 31, 3 ) ;
#148 = VECTOR ( 'NONE', #283, 1000.000000000000000 ) ;
#149 = ADVANCED_FACE ( 'NONE', ( #57 ), #277, .T. ) ;
#150 = DATE_TIME_ROLE ( 'creation_date' ) ;
#151 = DIRECTION ( 'NONE',  ( 4.275831445896958607E-31, 1.000000000000000000, 1.224646799147353207E-16 ) ) ;
#152 = DATE_AND_TIME ( #96, #109 ) ;
#153 = DIRECTION ( 'NONE',  ( -3.491481338843133355E-15, 1.224646799147353207E-16, -1.000000000000000000 ) ) ;
#154 = ORIENTED_EDGE ( 'NONE', *, *, #255, .T. ) ;
#155 = CARTESIAN_POINT ( 'NONE',  ( 1.382626610181881061E-13, 1.999999999999994005, 39.60000000000000853 ) ) ;
#156 = CARTESIAN_POINT ( 'NONE',  ( 0.000000000000000000, 0.000000000000000000, 0.000000000000000000 ) ) ;
#157 = EDGE_CURVE ( 'NONE', #163, #169, #220, .T. ) ;
#158 = AXIS2_PLACEMENT_3D ( 'NONE', #178, #67, #293 ) ;
#159 = DIRECTION ( 'NONE',  ( -3.491481338843133355E-15, 1.224646799147353207E-16, -1.000000000000000000 ) ) ;
#160 = PLANE ( 'NONE',  #267 ) ;
#161 = APPLICATION_PROTOCOL_DEFINITION ( 'international standard', 'config_control_design', 1994, #219 ) ;
#162 = CONICAL_SURFACE ( 'NONE', #36, 1.599999999999998979, 0.7853981633974597143 ) ;
#163 = VERTEX_POINT ( 'NONE', #15 ) ;
#164 = CARTESIAN_POINT ( 'NONE',  ( 1.382626610181881061E-13, -4.849601324623519598E-15, 39.60000000000000853 ) ) ;
#165 = CARTESIAN_POINT ( 'NONE',  ( 1.745740669421566678E-14, 1.999999999999994005, 5.000000000000000000 ) ) ;
#166 = EDGE_CURVE ( 'NONE', #258, #143, #136, .T. ) ;
#167 = COORDINATED_UNIVERSAL_TIME_OFFSET ( 1, 0, .AHEAD. ) ;
#168 = CIRCLE ( 'NONE', #260, 1.999999999999998668 ) ;
#169 = VERTEX_POINT ( 'NONE', #30 ) ;
#170 = ORIENTED_EDGE ( 'NONE', *, *, #239, .F. ) ;
#171 = PERSON_AND_ORGANIZATION_ROLE ( 'classification_officer' ) ;
#172 = EDGE_CURVE ( 'NONE', #163, #3, #99, .T. ) ;
#173 = LINE ( 'NONE', #241, #62 ) ;
#174 = CC_DESIGN_PERSON_AND_ORGANIZATION_ASSIGNMENT ( #37, #299, ( #227 ) ) ;
#175 = APPROVAL_ROLE ( '' ) ;
#176 = DIRECTION ( 'NONE',  ( 0.000000000000000000, 1.000000000000000000, 0.000000000000000000 ) ) ;
#177 = CC_DESIGN_PERSON_AND_ORGANIZATION_ASSIGNMENT ( #297, #190, ( #29 ) ) ;
#178 = CARTESIAN_POINT ( 'NONE',  ( 0.000000000000000000, 0.000000000000000000, 0.000000000000000000 ) ) ;
#179 = ORIENTED_EDGE ( 'NONE', *, *, #166, .T. ) ;
#180 = DIRECTION ( 'NONE',  ( -3.491481338843133355E-15, 1.224646799147353207E-16, -1.000000000000000000 ) ) ;
#181 = CALENDAR_DATE ( 2023, 31, 3 ) ;
#182 = AXIS2_PLACEMENT_3D ( 'NONE', #112, #113, #271 ) ;
#183 = ORIENTED_EDGE ( 'NONE', *, *, #108, .F. ) ;
#184 = CC_DESIGN_PERSON_AND_ORGANIZATION_ASSIGNMENT ( #224, #171, ( #280 ) ) ;
#185 = CIRCLE ( 'NONE', #58, 1.999999999999994449 ) ;
#186 = AXIS2_PLACEMENT_3D ( 'NONE', #201, #153, #256 ) ;
#187 = AXIS2_PLACEMENT_3D ( 'NONE', #139, #212, #6 ) ;
#188 = CARTESIAN_POINT ( 'NONE',  ( 1.745740669421566678E-14, -6.123233995736766282E-16, 5.000000000000000000 ) ) ;
#189 = ORIENTED_EDGE ( 'NONE', *, *, #14, .T. ) ;
#190 = PERSON_AND_ORGANIZATION_ROLE ( 'design_owner' ) ;
#191 = VERTEX_POINT ( 'NONE', #210 ) ;
#192 = CLOSED_SHELL ( 'NONE', ( #203, #55, #305, #82 ) ) ;
#193 = EDGE_CURVE ( 'NONE', #258, #127, #52, .T. ) ;
#194 = CYLINDRICAL_SURFACE ( 'NONE', #187, 1.999999999999996669 ) ;
#195 = ORIENTED_EDGE ( 'NONE', *, *, #239, .T. ) ;
#196 =( LENGTH_UNIT ( ) NAMED_UNIT ( * ) SI_UNIT ( .MILLI., .METRE. ) );
#197 = CC_DESIGN_APPROVAL ( #204, ( #280 ) ) ;
#198 = AXIS2_PLACEMENT_3D ( 'NONE', #50, #247, #35 ) ;
#199 = DIRECTION ( 'NONE',  ( 4.275831445896959482E-31, 1.000000000000000000, 1.224646799147353207E-16 ) ) ;
#200 = EDGE_CURVE ( 'NONE', #3, #163, #221, .T. ) ;
#201 = CARTESIAN_POINT ( 'NONE',  ( 1.745740669421566678E-14, -6.123233995736766282E-16, 5.000000000000000000 ) ) ;
#202 = CIRCLE ( 'NONE', #85, 1.599999999999998979 ) ;
#203 = ADVANCED_FACE ( 'NONE', ( #48 ), #8, .T. ) ;
#204 = APPROVAL ( #228, 'UNSPECIFIED' ) ;
#205 = DIRECTION ( 'NONE',  ( 3.491481338843133355E-15, -1.224646799147353207E-16, 1.000000000000000000 ) ) ;
#206 = ORIENTED_EDGE ( 'NONE', *, *, #193, .F. ) ;
#207 = CARTESIAN_POINT ( 'NONE',  ( 0.000000000000000000, 0.000000000000000000, 0.000000000000000000 ) ) ;
#208 = DIRECTION ( 'NONE',  ( -2.468850131082236945E-15, 0.7071067811865556774, -0.7071067811865393571 ) ) ;
#209 = ORIENTED_EDGE ( 'NONE', *, *, #157, .F. ) ;
#210 = CARTESIAN_POINT ( 'NONE',  ( -4.275753076543797008E-31, 1.999999999999994005, -1.224624353272506412E-16 ) ) ;
#211 = ORIENTED_EDGE ( 'NONE', *, *, #84, .F. ) ;
#212 = DIRECTION ( 'NONE',  ( -3.491481338843133355E-15, 1.224646799147353207E-16, -1.000000000000000000 ) ) ;
#213 = DIRECTION ( 'NONE',  ( -2.382254525458687493E-15, -0.7071067811865554553, -0.7071067811865395791 ) ) ;
#214 = EDGE_LOOP ( 'NONE', ( #170, #10, #69, #132 ) ) ;
#215 = CARTESIAN_POINT ( 'NONE',  ( -1.282741596833768882E-30, 4.499251859716778976E-32, -3.673917951567205431E-16 ) ) ;
#216 = ORIENTED_EDGE ( 'NONE', *, *, #94, .T. ) ;
#217 = ORIENTED_EDGE ( 'NONE', *, *, #84, .T. ) ;
#218 = DIRECTION ( 'NONE',  ( -3.491481338843133355E-15, 1.224646799147353207E-16, -1.000000000000000000 ) ) ;
#219 = APPLICATION_CONTEXT ( 'configuration controlled 3d designs of mechanical parts and assemblies' ) ;
#220 = LINE ( 'NONE', #294, #92 ) ;
#221 = CIRCLE ( 'NONE', #102, 1.999999999999994449 ) ;
#222 =( NAMED_UNIT ( * ) PLANE_ANGLE_UNIT ( ) SI_UNIT ( $, .RADIAN. ) );
#223 = COORDINATED_UNIVERSAL_TIME_OFFSET ( 1, 0, .AHEAD. ) ;
#224 = PERSON_AND_ORGANIZATION ( #295, #266 ) ;
#225 = EDGE_CURVE ( 'NONE', #143, #258, #202, .T. ) ;
#226 = CARTESIAN_POINT ( 'NONE',  ( 8.551662891793892690E-31, 1.999999999999994005, 2.449293598294699019E-16 ) ) ;
#227 = PRODUCT_DEFINITION_FORMATION_WITH_SPECIFIED_SOURCE ( 'ANY', '', #29, .NOT_KNOWN. ) ;
#228 = APPROVAL_STATUS ( 'not_yet_approved' ) ;
#229 = EDGE_LOOP ( 'NONE', ( #288, #41 ) ) ;
#230 = FACE_OUTER_BOUND ( 'NONE', #249, .T. ) ;
#231 = ORIENTED_EDGE ( 'NONE', *, *, #14, .F. ) ;
#232 = PRODUCT_DEFINITION_SHAPE ( 'NONE', 'NONE',  #71 ) ;
#233 = PLANE ( 'NONE',  #306 ) ;
#234 = LINE ( 'NONE', #226, #11 ) ;
#235 = ORIENTED_EDGE ( 'NONE', *, *, #24, .F. ) ;
#236 = MECHANICAL_CONTEXT ( 'NONE', #219, 'mechanical' ) ;
#237 = DIRECTION ( 'NONE',  ( 0.000000000000000000, 1.000000000000000000, 0.000000000000000000 ) ) ;
#238 = UNCERTAINTY_MEASURE_WITH_UNIT (LENGTH_MEASURE( 1.000000000000000082E-05 ), #196, 'distance_accuracy_value', 'NONE');
#239 = EDGE_CURVE ( 'NONE', #143, #144, #173, .T. ) ;
#240 = ORIENTED_EDGE ( 'NONE', *, *, #255, .F. ) ;
#241 = CARTESIAN_POINT ( 'NONE',  ( 1.398551970415888953E-13, -1.600000000000004086, 40.00000000000000000 ) ) ;
#242 = MANIFOLD_SOLID_BREP ( 'Corps-Déplacer/Copier1[2]', #192 ) ;
#243 = AXIS2_PLACEMENT_3D ( 'NONE', #156, #121, #278 ) ;
#244 = APPROVAL_STATUS ( 'not_yet_approved' ) ;
#245 = ORIENTED_EDGE ( 'NONE', *, *, #287, .T. ) ;
#246 = CARTESIAN_POINT ( 'NONE',  ( 1.396592535537253342E-13, -4.898587196589413026E-15, 40.00000000000000000 ) ) ;
#247 = DIRECTION ( 'NONE',  ( -3.491481338843133355E-15, 1.224646799147353207E-16, -1.000000000000000000 ) ) ;
#248 = MANIFOLD_SOLID_BREP ( 'Corps-Déplacer/Copier1[1]', #251 ) ;
#249 = EDGE_LOOP ( 'NONE', ( #154, #141 ) ) ;
#250 = DATE_AND_TIME ( #60, #93 ) ;
#251 = CLOSED_SHELL ( 'NONE', ( #86, #1, #138, #43, #149, #252 ) ) ;
#252 = ADVANCED_FACE ( 'NONE', ( #97 ), #33, .F. ) ;
#253 = COORDINATED_UNIVERSAL_TIME_OFFSET ( 1, 0, .AHEAD. ) ;
#254 = CC_DESIGN_SECURITY_CLASSIFICATION ( #280, ( #227 ) ) ;
#255 = EDGE_CURVE ( 'NONE', #296, #88, #114, .T. ) ;
#256 = DIRECTION ( 'NONE',  ( 0.000000000000000000, 1.000000000000000000, 0.000000000000000000 ) ) ;
#257 = APPROVAL_DATE_TIME ( #42, #204 ) ;
#258 = VERTEX_POINT ( 'NONE', #20 ) ;
#259 = DIRECTION ( 'NONE',  ( -4.275831445896958607E-31, -1.000000000000000000, -1.224646799147353207E-16 ) ) ;
#260 = AXIS2_PLACEMENT_3D ( 'NONE', #164, #140, #237 ) ;
#261 = DIRECTION ( 'NONE',  ( -3.491481338843133355E-15, 1.224646799147353207E-16, -1.000000000000000000 ) ) ;
#262 = FACE_OUTER_BOUND ( 'NONE', #18, .T. ) ;
#263 = EDGE_CURVE ( 'NONE', #127, #296, #49, .T. ) ;
#264 = EDGE_LOOP ( 'NONE', ( #310, #77 ) ) ;
#265 = CARTESIAN_POINT ( 'NONE',  ( 1.745740669421566678E-14, 1.499759782661852955E-32, 5.000000000000000000 ) ) ;
#266 = ORGANIZATION ( 'UNSPECIFIED', 'UNSPECIFIED', '' ) ;
#267 = AXIS2_PLACEMENT_3D ( 'NONE', #110, #281, #44 ) ;
#268 = ORIENTED_EDGE ( 'NONE', *, *, #263, .T. ) ;
#269 = APPROVAL ( #39, 'UNSPECIFIED' ) ;
#270 = APPROVAL_ROLE ( '' ) ;
#271 = DIRECTION ( 'NONE',  ( 0.000000000000000000, 1.000000000000000000, 0.000000000000000000 ) ) ;
#272 = FACE_OUTER_BOUND ( 'NONE', #303, .T. ) ;
#273 = ORIENTED_EDGE ( 'NONE', *, *, #24, .T. ) ;
#274 = ORIENTED_EDGE ( 'NONE', *, *, #172, .T. ) ;
#275 = DIRECTION ( 'NONE',  ( 0.000000000000000000, 1.000000000000000000, 0.000000000000000000 ) ) ;
#276 = APPROVAL_DATE_TIME ( #250, #269 ) ;
#277 = CONICAL_SURFACE ( 'NONE', #126, 1.599999999999998979, 0.7853981633974597143 ) ;
#278 = DIRECTION ( 'NONE',  ( 4.275831445896959482E-31, 1.000000000000000000, 1.224646799147353207E-16 ) ) ;
#279 = CARTESIAN_POINT ( 'NONE',  ( 1.396592535537253342E-13, -4.898587196589413026E-15, 40.00000000000000000 ) ) ;
#280 = SECURITY_CLASSIFICATION ( '', '', #56 ) ;
#281 = DIRECTION ( 'NONE',  ( 3.491481338843133355E-15, -1.224646799147353207E-16, 1.000000000000000000 ) ) ;
#282 = CARTESIAN_POINT ( 'NONE',  ( 1.745740669421566678E-14, 1.999999999999994005, 5.000000000000000000 ) ) ;
#283 = DIRECTION ( 'NONE',  ( -3.491481338843133355E-15, 1.224646799147353207E-16, -1.000000000000000000 ) ) ;
#284 = EDGE_LOOP ( 'NONE', ( #183, #216, #268, #302 ) ) ;
#285 = DIRECTION ( 'NONE',  ( -4.275831445896958607E-31, -1.000000000000000000, -1.224646799147353207E-16 ) ) ;
#286 = CC_DESIGN_APPROVAL ( #269, ( #227 ) ) ;
#287 = EDGE_CURVE ( 'NONE', #127, #144, #168, .T. ) ;
#288 = ORIENTED_EDGE ( 'NONE', *, *, #166, .F. ) ;
#289 = DIRECTION ( 'NONE',  ( 4.275831445896959482E-31, 1.000000000000000000, 1.224646799147353207E-16 ) ) ;
#290 = AXIS2_PLACEMENT_3D ( 'NONE', #40, #125, #176 ) ;
#291 = DIRECTION ( 'NONE',  ( -3.491481338843133355E-15, 1.224646799147353207E-16, -1.000000000000000000 ) ) ;
#292 = LOCAL_TIME ( 8, 31, 45.00000000000000000, #309 ) ;
#293 = DIRECTION ( 'NONE',  ( 1.000000000000000000, 0.000000000000000000, 0.000000000000000000 ) ) ;
#294 = CARTESIAN_POINT ( 'NONE',  ( 2.449293598294690637E-16, -1.999999999999994005, -2.449293598294707400E-16 ) ) ;
#295 = PERSON ( 'UNSPECIFIED', 'UNSPECIFIED', 'UNSPECIFIED', ('UNSPECIFIED'), ('UNSPECIFIED'), ('UNSPECIFIED') ) ;
#296 = VERTEX_POINT ( 'NONE', #282 ) ;
#297 = PERSON_AND_ORGANIZATION ( #295, #266 ) ;
#298 = ORIENTED_EDGE ( 'NONE', *, *, #200, .T. ) ;
#299 = PERSON_AND_ORGANIZATION_ROLE ( 'creator' ) ;
#300 =( GEOMETRIC_REPRESENTATION_CONTEXT ( 3 ) GLOBAL_UNCERTAINTY_ASSIGNED_CONTEXT ( ( #238 ) ) GLOBAL_UNIT_ASSIGNED_CONTEXT ( ( #196, #222, #104 ) ) REPRESENTATION_CONTEXT ( 'NONE', 'WORKASPACE' ) );
#301 = APPROVAL ( #244, 'UNSPECIFIED' ) ;
#302 = ORIENTED_EDGE ( 'NONE', *, *, #145, .F. ) ;
#303 = EDGE_LOOP ( 'NONE', ( #245, #9, #240, #304 ) ) ;
#304 = ORIENTED_EDGE ( 'NONE', *, *, #263, .F. ) ;
#305 = ADVANCED_FACE ( 'NONE', ( #308 ), #65, .T. ) ;
#306 = AXIS2_PLACEMENT_3D ( 'NONE', #265, #137, #259 ) ;
#307 = APPROVAL_PERSON_ORGANIZATION ( #98, #269, #175 ) ;
#308 = FACE_OUTER_BOUND ( 'NONE', #16, .T. ) ;
#309 = COORDINATED_UNIVERSAL_TIME_OFFSET ( 1, 0, .AHEAD. ) ;
#310 = ORIENTED_EDGE ( 'NONE', *, *, #200, .F. ) ;
#311 = CYLINDRICAL_SURFACE ( 'NONE', #90, 1.999999999999996669 ) ;
#312 = DATE_AND_TIME ( #147, #12 ) ;
#313 = VECTOR ( 'NONE', #208, 1000.000000000000000 ) ;
ENDSEC;
END-ISO-10303-21;
