ISO-10303-21;
HEADER;
FILE_DESCRIPTION (( 'STEP AP203' ),
    '1' );
FILE_NAME ('372694.step',
    '2023-03-31T06:31:44',
    ( '' ),
    ( '' ),
    'SwSTEP 2.0',
    'SolidWorks 2022',
    '' );
FILE_SCHEMA (( 'CONFIG_CONTROL_DESIGN' ));
ENDSEC;

DATA;
#1 = EDGE_CURVE ( 'NONE', #236, #85, #153, .T. ) ;
#2 = CARTESIAN_POINT ( 'NONE',  ( 1.745740669421566678E-13, 2.399999999999995470, 50.00000000000000000 ) ) ;
#3 = APPROVAL_DATE_TIME ( #258, #105 ) ;
#4 = DIRECTION ( 'NONE',  ( 3.491481338843133355E-15, -1.276467311168695266E-16, 1.000000000000000000 ) ) ;
#5 = VECTOR ( 'NONE', #347, 1000.000000000000000 ) ;
#6 = UNCERTAINTY_MEASURE_WITH_UNIT (LENGTH_MEASURE( 1.000000000000000082E-05 ), #183, 'distance_accuracy_value', 'NONE');
#7 = FACE_OUTER_BOUND ( 'NONE', #285, .T. ) ;
#8 = PERSON_AND_ORGANIZATION ( #202, #237 ) ;
#9 = CARTESIAN_POINT ( 'NONE',  ( 1.745740669421566678E-13, -6.123233995736766085E-15, 50.00000000000000000 ) ) ;
#10 = APPLICATION_CONTEXT ( 'configuration controlled 3d designs of mechanical parts and assemblies' ) ;
#11 = CARTESIAN_POINT ( 'NONE',  ( -2.699534206289369605E-30, 7.524489584330196435E-32, -7.731773262702966626E-16 ) ) ;
#12 = EDGE_LOOP ( 'NONE', ( #318, #334, #307, #49 ) ) ;
#13 = DIRECTION ( 'NONE',  ( 3.491481338843133355E-15, -1.276467311168695266E-16, 1.000000000000000000 ) ) ;
#14 = DIRECTION ( 'NONE',  ( 0.000000000000000000, -1.000000000000000000, 0.000000000000000000 ) ) ;
#15 = ADVANCED_FACE ( 'NONE', ( #212 ), #188, .T. ) ;
#16 = LINE ( 'NONE', #152, #356 ) ;
#17 = ORIENTED_EDGE ( 'NONE', *, *, #177, .T. ) ;
#18 = DIRECTION ( 'NONE',  ( 0.000000000000000000, 0.000000000000000000, 1.000000000000000000 ) ) ;
#19 = LOCAL_TIME ( 8, 31, 44.00000000000000000, #52 ) ;
#20 = PERSON_AND_ORGANIZATION ( #202, #237 ) ;
#21 = CARTESIAN_POINT ( 'NONE',  ( 1.745740669421566678E-13, 1.799711739194221466E-32, 50.00000000000000000 ) ) ;
#22 = VERTEX_POINT ( 'NONE', #315 ) ;
#23 = FACE_OUTER_BOUND ( 'NONE', #116, .T. ) ;
#24 = VECTOR ( 'NONE', #310, 1000.000000000000114 ) ;
#25 = CC_DESIGN_APPROVAL ( #105, ( #125 ) ) ;
#26 = PERSON_AND_ORGANIZATION ( #202, #237 ) ;
#27 = PERSON_AND_ORGANIZATION_ROLE ( 'creator' ) ;
#28 = CLOSED_SHELL ( 'NONE', ( #15, #111, #72, #29, #306, #274, #239, #249 ) ) ;
#29 = ADVANCED_FACE ( 'NONE', ( #7 ), #179, .T. ) ;
#30 = CARTESIAN_POINT ( 'NONE',  ( 1.138371791160660333E-13, -3.000000000000007994, 49.39999999999999858 ) ) ;
#31 = DIRECTION ( 'NONE',  ( 3.491481338843133355E-15, -1.276467311168695266E-16, 1.000000000000000000 ) ) ;
#32 = EDGE_LOOP ( 'NONE', ( #99, #73, #17, #278 ) ) ;
#33 = PERSON_AND_ORGANIZATION_ROLE ( 'design_supplier' ) ;
#34 = LOCAL_TIME ( 8, 31, 44.00000000000000000, #251 ) ;
#35 = CARTESIAN_POINT ( 'NONE',  ( 1.745740669421566678E-13, -6.123233995736766085E-15, 50.00000000000000000 ) ) ;
#36 = PRODUCT_DEFINITION_SHAPE ( 'NONE', 'NONE',  #97 ) ;
#37 = DIRECTION ( 'NONE',  ( -3.491481338843133355E-15, 1.224646799147353207E-16, -1.000000000000000000 ) ) ;
#38 = APPROVAL_ROLE ( '' ) ;
#39 = CARTESIAN_POINT ( 'NONE',  ( 1.748679821739520473E-13, -2.400000000000007461, 50.00000000000000000 ) ) ;
#40 = DIRECTION ( 'NONE',  ( 3.491481338843133355E-15, -1.276467311168695266E-16, 1.000000000000000000 ) ) ;
#41 = PLANE ( 'NONE',  #46 ) ;
#42 = CARTESIAN_POINT ( 'NONE',  ( 3.673940397442046063E-16, -2.999999999999999112, -3.673940397442071208E-16 ) ) ;
#43 = DIRECTION ( 'NONE',  ( -3.491481338843133355E-15, 1.224646799147353207E-16, -1.000000000000000000 ) ) ;
#44 = DIRECTION ( 'NONE',  ( -4.456761796588771413E-31, -1.000000000000000000, -1.276467311168695019E-16 ) ) ;
#45 = CIRCLE ( 'NONE', #246, 2.400000000000001688 ) ;
#46 = AXIS2_PLACEMENT_3D ( 'NONE', #262, #192, #244 ) ;
#47 = VERTEX_POINT ( 'NONE', #323 ) ;
#48 = DIRECTION ( 'NONE',  ( -3.491481338843133355E-15, 1.276467311168695266E-16, -1.000000000000000000 ) ) ;
#49 = ORIENTED_EDGE ( 'NONE', *, *, #177, .F. ) ;
#50 = APPROVAL_ROLE ( '' ) ;
#51 = CARTESIAN_POINT ( 'NONE',  ( 3.491481338843133355E-14, -1.500000000000000222, 10.00000000000000000 ) ) ;
#52 = COORDINATED_UNIVERSAL_TIME_OFFSET ( 1, 0, .AHEAD. ) ;
#53 = VECTOR ( 'NONE', #71, 1000.000000000000000 ) ;
#54 = VERTEX_POINT ( 'NONE', #264 ) ;
#55 = EDGE_CURVE ( 'NONE', #79, #54, #300, .T. ) ;
#56 = DIRECTION ( 'NONE',  ( 3.491481338843133355E-15, -1.276467311168695266E-16, 1.000000000000000000 ) ) ;
#57 = AXIS2_PLACEMENT_3D ( 'NONE', #171, #48, #75 ) ;
#58 = APPROVAL_PERSON_ORGANIZATION ( #70, #105, #205 ) ;
#59 = VERTEX_POINT ( 'NONE', #51 ) ;
#60 = CARTESIAN_POINT ( 'NONE',  ( 1.000667421396370414E-13, -3.658387740909889804E-15, 28.66025403784433223 ) ) ;
#61 = APPROVAL_DATE_TIME ( #150, #86 ) ;
#62 = CIRCLE ( 'NONE', #330, 1.499999999999998890 ) ;
#63 = CARTESIAN_POINT ( 'NONE',  ( 1.724791781388508004E-13, -6.049755187787925154E-15, 49.39999999999999858 ) ) ;
#64 = AXIS2_PLACEMENT_3D ( 'NONE', #190, #18, #353 ) ;
#65 = VERTEX_POINT ( 'NONE', #340 ) ;
#66 = EDGE_CURVE ( 'NONE', #22, #47, #242, .T. ) ;
#67 = CARTESIAN_POINT ( 'NONE',  ( 4.496314823092033687E-14, 1.499999999999997558, 10.00000000000000000 ) ) ;
#68 = FACE_OUTER_BOUND ( 'NONE', #157, .T. ) ;
#69 = APPROVAL_STATUS ( 'not_yet_approved' ) ;
#70 = PERSON_AND_ORGANIZATION ( #202, #237 ) ;
#71 = DIRECTION ( 'NONE',  ( -3.491481338843133355E-15, 1.224646799147353207E-16, -1.000000000000000000 ) ) ;
#72 = ADVANCED_FACE ( 'NONE', ( #313 ), #223, .T. ) ;
#73 = ORIENTED_EDGE ( 'NONE', *, *, #214, .T. ) ;
#74 = DIRECTION ( 'NONE',  ( 3.491481338843133355E-15, -1.276467311168695266E-16, 1.000000000000000000 ) ) ;
#75 = DIRECTION ( 'NONE',  ( -1.953992523340275196E-14, -1.000000000000000000, 0.000000000000000000 ) ) ;
#76 = CIRCLE ( 'NONE', #275, 2.999999999999999112 ) ;
#77 = AXIS2_PLACEMENT_3D ( 'NONE', #302, #137, #269 ) ;
#78 = ORIENTED_EDGE ( 'NONE', *, *, #286, .F. ) ;
#79 = VERTEX_POINT ( 'NONE', #30 ) ;
#80 = VERTEX_POINT ( 'NONE', #166 ) ;
#81 = APPLICATION_PROTOCOL_DEFINITION ( 'international standard', 'config_control_design', 1994, #10 ) ;
#82 = CONICAL_SURFACE ( 'NONE', #337, 2.400000000000001688, 0.7853981633974453924 ) ;
#83 = DIRECTION ( 'NONE',  ( 0.000000000000000000, -1.000000000000000000, 0.000000000000000000 ) ) ;
#84 = CARTESIAN_POINT ( 'NONE',  ( 1.836970198721028948E-16, 1.499999999999999112, 7.770426314659498485E-18 ) ) ;
#85 = VERTEX_POINT ( 'NONE', #284 ) ;
#86 = APPROVAL ( #69, 'UNSPECIFIED' ) ;
#87 = MANIFOLD_SOLID_BREP ( 'Corps-Déplacer/Copier1[2]', #178 ) ;
#88 = ORIENTED_EDGE ( 'NONE', *, *, #243, .T. ) ;
#89 = AXIS2_PLACEMENT_3D ( 'NONE', #134, #13, #14 ) ;
#90 = DIRECTION ( 'NONE',  ( -4.275831445896958607E-31, -1.000000000000000000, -1.224646799147353207E-16 ) ) ;
#91 = DIRECTION ( 'NONE',  ( 4.275831445896958607E-31, 1.000000000000000000, 1.224646799147353207E-16 ) ) ;
#92 = CC_DESIGN_DATE_AND_TIME_ASSIGNMENT ( #115, #225, ( #97 ) ) ;
#93 = LINE ( 'NONE', #2, #24 ) ;
#94 = FACE_OUTER_BOUND ( 'NONE', #362, .T. ) ;
#95 = CARTESIAN_POINT ( 'NONE',  ( 3.491481338843133355E-14, 2.249639673992782033E-32, 10.00000000000000000 ) ) ;
#96 = DESIGN_CONTEXT ( 'detailed design', #10, 'design' ) ;
#97 = PRODUCT_DEFINITION ( 'UNKNOWN', '', #256, #96 ) ;
#98 = DIRECTION ( 'NONE',  ( 3.372511997194914833E-15, -0.2588190451025215166, 0.9659258262890679791 ) ) ;
#99 = ORIENTED_EDGE ( 'NONE', *, *, #355, .F. ) ;
#100 = AXIS2_PLACEMENT_3D ( 'NONE', #241, #261, #320 ) ;
#101 = CONICAL_SURFACE ( 'NONE', #77, 2.400000000000001688, 0.7853981633974453924 ) ;
#102 = EDGE_CURVE ( 'NONE', #65, #22, #333, .T. ) ;
#103 = CARTESIAN_POINT ( 'NONE',  ( -6.413839710158237013E-31, 0.000000000000000000, -1.836996703606440502E-16 ) ) ;
#104 = DIRECTION ( 'NONE',  ( 3.404208188709233130E-15, 0.2588190451025213501, 0.9659258262890680902 ) ) ;
#105 = APPROVAL ( #124, 'UNSPECIFIED' ) ;
#106 = DIRECTION ( 'NONE',  ( 4.275831445896958607E-31, 1.000000000000000000, 1.224646799147353207E-16 ) ) ;
#107 = LINE ( 'NONE', #287, #331 ) ;
#108 = AXIS2_PLACEMENT_3D ( 'NONE', #63, #43, #114 ) ;
#109 = ADVANCED_FACE ( 'NONE', ( #276 ), #227, .T. ) ;
#110 = ADVANCED_BREP_SHAPE_REPRESENTATION ( '372694', ( #328, #87, #64 ), #277 ) ;
#111 = ADVANCED_FACE ( 'NONE', ( #201 ), #82, .T. ) ;
#112 = FACE_OUTER_BOUND ( 'NONE', #32, .T. ) ;
#113 = CC_DESIGN_PERSON_AND_ORGANIZATION_ASSIGNMENT ( #167, #27, ( #97 ) ) ;
#114 = DIRECTION ( 'NONE',  ( 0.000000000000000000, 1.000000000000000000, 0.000000000000000000 ) ) ;
#115 = DATE_AND_TIME ( #360, #34 ) ;
#116 = EDGE_LOOP ( 'NONE', ( #182, #281, #290, #350 ) ) ;
#117 = DIRECTION ( 'NONE',  ( 3.491481338843133355E-15, -1.276467311168695266E-16, 1.000000000000000000 ) ) ;
#118 = CIRCLE ( 'NONE', #327, 3.000000000000001332 ) ;
#119 =( NAMED_UNIT ( * ) SI_UNIT ( $, .STERADIAN. ) SOLID_ANGLE_UNIT ( ) );
#120 = ADVANCED_FACE ( 'NONE', ( #311 ), #140, .F. ) ;
#121 = DATE_TIME_ROLE ( 'classification_date' ) ;
#122 = DIRECTION ( 'NONE',  ( -4.456761796588768785E-31, -1.000000000000000000, -1.276467311168695266E-16 ) ) ;
#123 = AXIS2_PLACEMENT_3D ( 'NONE', #174, #199, #172 ) ;
#124 = APPROVAL_STATUS ( 'not_yet_approved' ) ;
#125 = SECURITY_CLASSIFICATION ( '', '', #145 ) ;
#126 = ORIENTED_EDGE ( 'NONE', *, *, #312, .F. ) ;
#127 = FACE_OUTER_BOUND ( 'NONE', #154, .T. ) ;
#128 = ORIENTED_EDGE ( 'NONE', *, *, #224, .F. ) ;
#129 = AXIS2_PLACEMENT_3D ( 'NONE', #11, #74, #122 ) ;
#130 = EDGE_LOOP ( 'NONE', ( #296, #293 ) ) ;
#131 = CC_DESIGN_PERSON_AND_ORGANIZATION_ASSIGNMENT ( #216, #303, ( #125 ) ) ;
#132 = MECHANICAL_CONTEXT ( 'NONE', #335, 'mechanical' ) ;
#133 = ORIENTED_EDGE ( 'NONE', *, *, #354, .T. ) ;
#134 = CARTESIAN_POINT ( 'NONE',  ( 3.491481338843133355E-14, -1.276467311168695364E-15, 10.00000000000000000 ) ) ;
#135 = AXIS2_PLACEMENT_3D ( 'NONE', #207, #211, #292 ) ;
#136 = ORIENTED_EDGE ( 'NONE', *, *, #339, .T. ) ;
#137 = DIRECTION ( 'NONE',  ( -3.491481338843133355E-15, 1.224646799147353207E-16, -1.000000000000000000 ) ) ;
#138 = EDGE_LOOP ( 'NONE', ( #272, #187, #298, #215 ) ) ;
#139 = ORIENTED_EDGE ( 'NONE', *, *, #228, .T. ) ;
#140 = PLANE ( 'NONE',  #229 ) ;
#141 = PERSON_AND_ORGANIZATION ( #202, #237 ) ;
#142 = DIRECTION ( 'NONE',  ( 0.000000000000000000, -1.000000000000000000, 0.000000000000000000 ) ) ;
#143 = EDGE_CURVE ( 'NONE', #65, #173, #271, .T. ) ;
#144 = CIRCLE ( 'NONE', #89, 1.499999999999998890 ) ;
#145 = SECURITY_CLASSIFICATION_LEVEL ( 'unclassified' ) ;
#146 = DIRECTION ( 'NONE',  ( 0.000000000000000000, -1.000000000000000000, 0.000000000000000000 ) ) ;
#147 = DIRECTION ( 'NONE',  ( -4.456761796588771413E-31, -1.000000000000000000, -1.276467311168695019E-16 ) ) ;
#148 = DIRECTION ( 'NONE',  ( 0.000000000000000000, 1.000000000000000000, 0.000000000000000000 ) ) ;
#149 = CARTESIAN_POINT ( 'NONE',  ( 1.724791781388508004E-13, -6.049755187787925154E-15, 49.39999999999999858 ) ) ;
#150 = DATE_AND_TIME ( #238, #168 ) ;
#151 = AXIS2_PLACEMENT_3D ( 'NONE', #21, #186, #106 ) ;
#152 = CARTESIAN_POINT ( 'NONE',  ( -1.309898240504139063E-30, -1.499999999999999112, -3.751697670359482168E-16 ) ) ;
#153 = LINE ( 'NONE', #267, #314 ) ;
#154 = EDGE_LOOP ( 'NONE', ( #344, #193 ) ) ;
#155 = DIRECTION ( 'NONE',  ( -3.491481338843133355E-15, 1.224646799147353207E-16, -1.000000000000000000 ) ) ;
#156 = AXIS2_PLACEMENT_3D ( 'NONE', #336, #197, #147 ) ;
#157 = EDGE_LOOP ( 'NONE', ( #133, #160 ) ) ;
#158 = EDGE_CURVE ( 'NONE', #236, #59, #62, .T. ) ;
#159 = LOCAL_TIME ( 8, 31, 44.00000000000000000, #348 ) ;
#160 = ORIENTED_EDGE ( 'NONE', *, *, #66, .T. ) ;
#161 = DIRECTION ( 'NONE',  ( 3.491481338843133355E-15, -1.276467311168695266E-16, 1.000000000000000000 ) ) ;
#162 = CARTESIAN_POINT ( 'NONE',  ( 1.138371791160661343E-13, -3.000000000000001776, 15.59807621135329647 ) ) ;
#163 = CARTESIAN_POINT ( 'NONE',  ( 3.491481338843133355E-14, -1.276467311168695364E-15, 10.00000000000000000 ) ) ;
#164 = CC_DESIGN_PERSON_AND_ORGANIZATION_ASSIGNMENT ( #8, #282, ( #256 ) ) ;
#165 = ORIENTED_EDGE ( 'NONE', *, *, #224, .T. ) ;
#166 = CARTESIAN_POINT ( 'NONE',  ( 1.745740669421566678E-13, 2.399999999999995470, 50.00000000000000000 ) ) ;
#167 = PERSON_AND_ORGANIZATION ( #202, #237 ) ;
#168 = LOCAL_TIME ( 8, 31, 44.00000000000000000, #235 ) ;
#169 = CARTESIAN_POINT ( 'NONE',  ( 3.491481338843133355E-14, -1.276467311168695364E-15, 10.00000000000000000 ) ) ;
#170 = ORIENTED_EDGE ( 'NONE', *, *, #143, .F. ) ;
#171 = CARTESIAN_POINT ( 'NONE',  ( 5.446039201379303834E-14, -1.991043440091053361E-15, 15.59807621135329647 ) ) ;
#172 = DIRECTION ( 'NONE',  ( -4.456761796588768785E-31, -1.000000000000000000, -1.276467311168695266E-16 ) ) ;
#173 = VERTEX_POINT ( 'NONE', #283 ) ;
#174 = CARTESIAN_POINT ( 'NONE',  ( -2.699534206289369605E-30, 7.524489584330196435E-32, -7.731773262702966626E-16 ) ) ;
#175 = AXIS2_PLACEMENT_3D ( 'NONE', #163, #161, #273 ) ;
#176 = CARTESIAN_POINT ( 'NONE',  ( 0.000000000000000000, 0.000000000000000000, 0.000000000000000000 ) ) ;
#177 = EDGE_CURVE ( 'NONE', #80, #54, #93, .T. ) ;
#178 = CLOSED_SHELL ( 'NONE', ( #304, #189, #109, #120 ) ) ;
#179 = CYLINDRICAL_SURFACE ( 'NONE', #135, 2.999999999999999112 ) ;
#180 = PRODUCT ( '372694', '372694', '', ( #132 ) ) ;
#181 = SHAPE_DEFINITION_REPRESENTATION ( #36, #110 ) ;
#182 = ORIENTED_EDGE ( 'NONE', *, *, #312, .T. ) ;
#183 =( LENGTH_UNIT ( ) NAMED_UNIT ( * ) SI_UNIT ( .MILLI., .METRE. ) );
#184 = EDGE_CURVE ( 'NONE', #85, #270, #341, .T. ) ;
#185 = ORIENTED_EDGE ( 'NONE', *, *, #55, .T. ) ;
#186 = DIRECTION ( 'NONE',  ( -3.491481338843133355E-15, 1.224646799147353207E-16, -1.000000000000000000 ) ) ;
#187 = ORIENTED_EDGE ( 'NONE', *, *, #143, .T. ) ;
#188 = CONICAL_SURFACE ( 'NONE', #100, 6.500000000000000000, 0.2617993877991501850 ) ;
#189 = ADVANCED_FACE ( 'NONE', ( #68 ), #345, .T. ) ;
#190 = CARTESIAN_POINT ( 'NONE',  ( 0.000000000000000000, 0.000000000000000000, 0.000000000000000000 ) ) ;
#191 = ORIENTED_EDGE ( 'NONE', *, *, #1, .F. ) ;
#192 = DIRECTION ( 'NONE',  ( 3.491481338843133355E-15, -1.224646799147353207E-16, 1.000000000000000000 ) ) ;
#193 = ORIENTED_EDGE ( 'NONE', *, *, #158, .F. ) ;
#194 = VECTOR ( 'NONE', #56, 1000.000000000000000 ) ;
#195 = FACE_OUTER_BOUND ( 'NONE', #130, .T. ) ;
#196 = DIRECTION ( 'NONE',  ( 0.000000000000000000, 1.000000000000000000, 0.000000000000000000 ) ) ;
#197 = DIRECTION ( 'NONE',  ( 3.491481338843133355E-15, -1.276467311168695266E-16, 1.000000000000000000 ) ) ;
#198 = EDGE_CURVE ( 'NONE', #173, #47, #16, .T. ) ;
#199 = DIRECTION ( 'NONE',  ( 3.491481338843133355E-15, -1.276467311168695266E-16, 1.000000000000000000 ) ) ;
#200 = CC_DESIGN_DATE_AND_TIME_ASSIGNMENT ( #279, #121, ( #125 ) ) ;
#201 = FACE_OUTER_BOUND ( 'NONE', #12, .T. ) ;
#202 = PERSON ( 'UNSPECIFIED', 'UNSPECIFIED', 'UNSPECIFIED', ('UNSPECIFIED'), ('UNSPECIFIED'), ('UNSPECIFIED') ) ;
#203 = VECTOR ( 'NONE', #342, 1000.000000000000000 ) ;
#204 = AXIS2_PLACEMENT_3D ( 'NONE', #294, #155, #196 ) ;
#205 = APPROVAL_ROLE ( '' ) ;
#206 = CARTESIAN_POINT ( 'NONE',  ( 1.738572771762734887E-13, -2.400000000000007461, 50.00000000000000000 ) ) ;
#207 = CARTESIAN_POINT ( 'NONE',  ( 0.000000000000000000, 0.000000000000000000, 0.000000000000000000 ) ) ;
#208 = EDGE_CURVE ( 'NONE', #79, #270, #291, .T. ) ;
#209 = ORIENTED_EDGE ( 'NONE', *, *, #158, .T. ) ;
#210 = CC_DESIGN_SECURITY_CLASSIFICATION ( #125, ( #256 ) ) ;
#211 = DIRECTION ( 'NONE',  ( -3.491481338843133355E-15, 1.224646799147353207E-16, -1.000000000000000000 ) ) ;
#212 = FACE_OUTER_BOUND ( 'NONE', #213, .T. ) ;
#213 = EDGE_LOOP ( 'NONE', ( #136, #326, #247, #226 ) ) ;
#214 = EDGE_CURVE ( 'NONE', #359, #80, #45, .T. ) ;
#215 = ORIENTED_EDGE ( 'NONE', *, *, #66, .F. ) ;
#216 = PERSON_AND_ORGANIZATION ( #202, #237 ) ;
#217 = LOCAL_TIME ( 8, 31, 44.00000000000000000, #250 ) ;
#218 = LINE ( 'NONE', #240, #53 ) ;
#219 = ORIENTED_EDGE ( 'NONE', *, *, #208, .T. ) ;
#220 = APPROVAL_DATE_TIME ( #248, #232 ) ;
#221 = ORIENTED_EDGE ( 'NONE', *, *, #286, .T. ) ;
#222 = CALENDAR_DATE ( 2023, 31, 3 ) ;
#223 = CYLINDRICAL_SURFACE ( 'NONE', #288, 2.999999999999999112 ) ;
#224 = EDGE_CURVE ( 'NONE', #270, #85, #76, .T. ) ;
#225 = DATE_TIME_ROLE ( 'creation_date' ) ;
#226 = ORIENTED_EDGE ( 'NONE', *, *, #243, .F. ) ;
#227 = CYLINDRICAL_SURFACE ( 'NONE', #156, 1.499999999999999112 ) ;
#228 = EDGE_CURVE ( 'NONE', #54, #79, #118, .T. ) ;
#229 = AXIS2_PLACEMENT_3D ( 'NONE', #253, #361, #90 ) ;
#230 = ORIENTED_EDGE ( 'NONE', *, *, #184, .F. ) ;
#231 = CC_DESIGN_APPROVAL ( #86, ( #256 ) ) ;
#232 = APPROVAL ( #245, 'UNSPECIFIED' ) ;
#233 = AXIS2_PLACEMENT_3D ( 'NONE', #95, #266, #324 ) ;
#234 = DIRECTION ( 'NONE',  ( 0.000000000000000000, 1.000000000000000000, 0.000000000000000000 ) ) ;
#235 = COORDINATED_UNIVERSAL_TIME_OFFSET ( 1, 0, .AHEAD. ) ;
#236 = VERTEX_POINT ( 'NONE', #67 ) ;
#237 = ORGANIZATION ( 'UNSPECIFIED', 'UNSPECIFIED', '' ) ;
#238 = CALENDAR_DATE ( 2023, 31, 3 ) ;
#239 = ADVANCED_FACE ( 'NONE', ( #94 ), #309, .T. ) ;
#240 = CARTESIAN_POINT ( 'NONE',  ( 1.282749433769087232E-30, 2.999999999999999112, 3.673940397442058882E-16 ) ) ;
#241 = CARTESIAN_POINT ( 'NONE',  ( 1.000667421396370414E-13, -3.658387740909889804E-15, 28.66025403784433223 ) ) ;
#242 = CIRCLE ( 'NONE', #351, 1.499999999999998890 ) ;
#243 = EDGE_CURVE ( 'NONE', #59, #270, #107, .T. ) ;
#244 = DIRECTION ( 'NONE',  ( -4.275831445896958607E-31, -1.000000000000000000, -1.224646799147353207E-16 ) ) ;
#245 = APPROVAL_STATUS ( 'not_yet_approved' ) ;
#246 = AXIS2_PLACEMENT_3D ( 'NONE', #9, #37, #148 ) ;
#247 = ORIENTED_EDGE ( 'NONE', *, *, #184, .T. ) ;
#248 = DATE_AND_TIME ( #254, #19 ) ;
#249 = ADVANCED_FACE ( 'NONE', ( #127 ), #41, .F. ) ;
#250 = COORDINATED_UNIVERSAL_TIME_OFFSET ( 1, 0, .AHEAD. ) ;
#251 = COORDINATED_UNIVERSAL_TIME_OFFSET ( 1, 0, .AHEAD. ) ;
#252 = ORIENTED_EDGE ( 'NONE', *, *, #208, .F. ) ;
#253 = CARTESIAN_POINT ( 'NONE',  ( -4.275870630573529334E-31, 1.499773526796246868E-32, -1.224658022084773770E-16 ) ) ;
#254 = CALENDAR_DATE ( 2023, 31, 3 ) ;
#255 = CARTESIAN_POINT ( 'NONE',  ( 3.491481338843133355E-14, -1.276467311168695364E-15, 10.00000000000000000 ) ) ;
#256 = PRODUCT_DEFINITION_FORMATION_WITH_SPECIFIED_SOURCE ( 'ANY', '', #180, .NOT_KNOWN. ) ;
#257 = DIRECTION ( 'NONE',  ( 0.000000000000000000, -1.000000000000000000, 0.000000000000000000 ) ) ;
#258 = DATE_AND_TIME ( #263, #159 ) ;
#259 = DIRECTION ( 'NONE',  ( -3.491481338843133355E-15, 1.224646799147353207E-16, -1.000000000000000000 ) ) ;
#260 = AXIS2_PLACEMENT_3D ( 'NONE', #103, #325, #44 ) ;
#261 = DIRECTION ( 'NONE',  ( 3.491481338843133355E-15, -1.276467311168695266E-16, 1.000000000000000000 ) ) ;
#262 = CARTESIAN_POINT ( 'NONE',  ( 3.491481338843133355E-14, 2.249639673992782033E-32, 10.00000000000000000 ) ) ;
#263 = CALENDAR_DATE ( 2023, 31, 3 ) ;
#264 = CARTESIAN_POINT ( 'NONE',  ( 1.724791781388508004E-13, 2.999999999999995115, 49.39999999999999858 ) ) ;
#265 = DIRECTION ( 'NONE',  ( -3.491481338843133355E-15, 1.276467311168695266E-16, -1.000000000000000000 ) ) ;
#266 = DIRECTION ( 'NONE',  ( 3.491481338843133355E-15, -1.224646799147353207E-16, 1.000000000000000000 ) ) ;
#267 = CARTESIAN_POINT ( 'NONE',  ( 1.008627625590828325E-13, 6.499999999999996447, 28.66025403784433223 ) ) ;
#268 = LINE ( 'NONE', #39, #5 ) ;
#269 = DIRECTION ( 'NONE',  ( 0.000000000000000000, 1.000000000000000000, 0.000000000000000000 ) ) ;
#270 = VERTEX_POINT ( 'NONE', #162 ) ;
#271 = CIRCLE ( 'NONE', #123, 1.499999999999999556 ) ;
#272 = ORIENTED_EDGE ( 'NONE', *, *, #102, .F. ) ;
#273 = DIRECTION ( 'NONE',  ( 0.000000000000000000, -1.000000000000000000, 0.000000000000000000 ) ) ;
#274 = ADVANCED_FACE ( 'NONE', ( #195 ), #305, .F. ) ;
#275 = AXIS2_PLACEMENT_3D ( 'NONE', #319, #265, #257 ) ;
#276 = FACE_OUTER_BOUND ( 'NONE', #138, .T. ) ;
#277 =( GEOMETRIC_REPRESENTATION_CONTEXT ( 3 ) GLOBAL_UNCERTAINTY_ASSIGNED_CONTEXT ( ( #6 ) ) GLOBAL_UNIT_ASSIGNED_CONTEXT ( ( #183, #316, #119 ) ) REPRESENTATION_CONTEXT ( 'NONE', 'WORKASPACE' ) );
#278 = ORIENTED_EDGE ( 'NONE', *, *, #55, .F. ) ;
#279 = DATE_AND_TIME ( #222, #217 ) ;
#280 = DIRECTION ( 'NONE',  ( -3.491481338843133355E-15, 1.224646799147353207E-16, -1.000000000000000000 ) ) ;
#281 = ORIENTED_EDGE ( 'NONE', *, *, #102, .T. ) ;
#282 = PERSON_AND_ORGANIZATION_ROLE ( 'creator' ) ;
#283 = CARTESIAN_POINT ( 'NONE',  ( -3.368048475777684354E-30, -1.499999999999999556, -9.646474229456009771E-16 ) ) ;
#284 = CARTESIAN_POINT ( 'NONE',  ( 1.134697850763219541E-13, 2.999999999999996891, 15.59807621135329647 ) ) ;
#285 = EDGE_LOOP ( 'NONE', ( #252, #185, #221, #128 ) ) ;
#286 = EDGE_CURVE ( 'NONE', #54, #85, #218, .T. ) ;
#287 = CARTESIAN_POINT ( 'NONE',  ( 1.000667421396370414E-13, -6.500000000000003553, 28.66025403784433223 ) ) ;
#288 = AXIS2_PLACEMENT_3D ( 'NONE', #176, #280, #91 ) ;
#289 = APPROVAL_PERSON_ORGANIZATION ( #141, #86, #38 ) ;
#290 = ORIENTED_EDGE ( 'NONE', *, *, #354, .F. ) ;
#291 = LINE ( 'NONE', #42, #203 ) ;
#292 = DIRECTION ( 'NONE',  ( 4.275831445896958607E-31, 1.000000000000000000, 1.224646799147353207E-16 ) ) ;
#293 = ORIENTED_EDGE ( 'NONE', *, *, #214, .F. ) ;
#294 = CARTESIAN_POINT ( 'NONE',  ( 1.745740669421566678E-13, -6.123233995736766085E-15, 50.00000000000000000 ) ) ;
#295 = CC_DESIGN_PERSON_AND_ORGANIZATION_ASSIGNMENT ( #20, #332, ( #180 ) ) ;
#296 = ORIENTED_EDGE ( 'NONE', *, *, #297, .F. ) ;
#297 = EDGE_CURVE ( 'NONE', #80, #359, #357, .T. ) ;
#298 = ORIENTED_EDGE ( 'NONE', *, *, #198, .T. ) ;
#299 = PERSON_AND_ORGANIZATION ( #202, #237 ) ;
#300 = CIRCLE ( 'NONE', #108, 3.000000000000001332 ) ;
#301 = CIRCLE ( 'NONE', #129, 1.499999999999999556 ) ;
#302 = CARTESIAN_POINT ( 'NONE',  ( 1.745740669421566678E-13, -6.123233995736766085E-15, 50.00000000000000000 ) ) ;
#303 = PERSON_AND_ORGANIZATION_ROLE ( 'classification_officer' ) ;
#304 = ADVANCED_FACE ( 'NONE', ( #23 ), #358, .T. ) ;
#305 = PLANE ( 'NONE',  #151 ) ;
#306 = ADVANCED_FACE ( 'NONE', ( #112 ), #101, .T. ) ;
#307 = ORIENTED_EDGE ( 'NONE', *, *, #228, .F. ) ;
#308 = DIRECTION ( 'NONE',  ( -3.491481338843133355E-15, 1.224646799147353207E-16, -1.000000000000000000 ) ) ;
#309 = CONICAL_SURFACE ( 'NONE', #363, 6.500000000000000000, 0.2617993877991501850 ) ;
#310 = DIRECTION ( 'NONE',  ( -2.468850131082271655E-15, 0.7071067811865455743, -0.7071067811865493491 ) ) ;
#311 = FACE_OUTER_BOUND ( 'NONE', #349, .T. ) ;
#312 = EDGE_CURVE ( 'NONE', #173, #65, #301, .T. ) ;
#313 = FACE_OUTER_BOUND ( 'NONE', #346, .T. ) ;
#314 = VECTOR ( 'NONE', #104, 1000.000000000000000 ) ;
#315 = CARTESIAN_POINT ( 'NONE',  ( 1.764110371408777265E-14, 1.499999999999997558, 10.00000000000000000 ) ) ;
#316 =( NAMED_UNIT ( * ) PLANE_ANGLE_UNIT ( ) SI_UNIT ( $, .RADIAN. ) );
#317 = APPROVAL_PERSON_ORGANIZATION ( #299, #232, #50 ) ;
#318 = ORIENTED_EDGE ( 'NONE', *, *, #297, .T. ) ;
#319 = CARTESIAN_POINT ( 'NONE',  ( 5.446039201379303834E-14, -1.991043440091053361E-15, 15.59807621135329647 ) ) ;
#320 = DIRECTION ( 'NONE',  ( 0.000000000000000000, -1.000000000000000000, 0.000000000000000000 ) ) ;
#321 = APPLICATION_PROTOCOL_DEFINITION ( 'international standard', 'config_control_design', 1994, #335 ) ;
#322 = PRODUCT_RELATED_PRODUCT_CATEGORY ( 'detail', '', ( #180 ) ) ;
#323 = CARTESIAN_POINT ( 'NONE',  ( 3.491481338843133355E-14, -1.500000000000000222, 10.00000000000000000 ) ) ;
#324 = DIRECTION ( 'NONE',  ( -4.275831445896958607E-31, -1.000000000000000000, -1.224646799147353207E-16 ) ) ;
#325 = DIRECTION ( 'NONE',  ( 3.491481338843133355E-15, -1.276467311168695266E-16, 1.000000000000000000 ) ) ;
#326 = ORIENTED_EDGE ( 'NONE', *, *, #1, .T. ) ;
#327 = AXIS2_PLACEMENT_3D ( 'NONE', #149, #259, #234 ) ;
#328 = MANIFOLD_SOLID_BREP ( 'Corps-Déplacer/Copier1[1]', #28 ) ;
#329 = CC_DESIGN_PERSON_AND_ORGANIZATION_ASSIGNMENT ( #26, #33, ( #256 ) ) ;
#330 = AXIS2_PLACEMENT_3D ( 'NONE', #255, #31, #142 ) ;
#331 = VECTOR ( 'NONE', #98, 1000.000000000000114 ) ;
#332 = PERSON_AND_ORGANIZATION_ROLE ( 'design_owner' ) ;
#333 = LINE ( 'NONE', #84, #194 ) ;
#334 = ORIENTED_EDGE ( 'NONE', *, *, #355, .T. ) ;
#335 = APPLICATION_CONTEXT ( 'configuration controlled 3d designs of mechanical parts and assemblies' ) ;
#336 = CARTESIAN_POINT ( 'NONE',  ( -6.413839710158237013E-31, 0.000000000000000000, -1.836996703606440502E-16 ) ) ;
#337 = AXIS2_PLACEMENT_3D ( 'NONE', #35, #308, #338 ) ;
#338 = DIRECTION ( 'NONE',  ( 0.000000000000000000, 1.000000000000000000, 0.000000000000000000 ) ) ;
#339 = EDGE_CURVE ( 'NONE', #59, #236, #352, .T. ) ;
#340 = CARTESIAN_POINT ( 'NONE',  ( 1.764110371408778212E-14, 1.499999999999999556, -5.817072295950540765E-16 ) ) ;
#341 = CIRCLE ( 'NONE', #57, 2.999999999999999112 ) ;
#342 = DIRECTION ( 'NONE',  ( -3.491481338843133355E-15, 1.224646799147353207E-16, -1.000000000000000000 ) ) ;
#343 = CC_DESIGN_APPROVAL ( #232, ( #97 ) ) ;
#344 = ORIENTED_EDGE ( 'NONE', *, *, #339, .F. ) ;
#345 = PLANE ( 'NONE',  #233 ) ;
#346 = EDGE_LOOP ( 'NONE', ( #139, #219, #230, #78 ) ) ;
#347 = DIRECTION ( 'NONE',  ( -2.382254525458723780E-15, -0.7071067811865453523, -0.7071067811865496822 ) ) ;
#348 = COORDINATED_UNIVERSAL_TIME_OFFSET ( 1, 0, .AHEAD. ) ;
#349 = EDGE_LOOP ( 'NONE', ( #126, #170 ) ) ;
#350 = ORIENTED_EDGE ( 'NONE', *, *, #198, .F. ) ;
#351 = AXIS2_PLACEMENT_3D ( 'NONE', #169, #117, #146 ) ;
#352 = CIRCLE ( 'NONE', #175, 1.499999999999998890 ) ;
#353 = DIRECTION ( 'NONE',  ( 1.000000000000000000, 0.000000000000000000, 0.000000000000000000 ) ) ;
#354 = EDGE_CURVE ( 'NONE', #47, #22, #144, .T. ) ;
#355 = EDGE_CURVE ( 'NONE', #359, #79, #268, .T. ) ;
#356 = VECTOR ( 'NONE', #4, 1000.000000000000000 ) ;
#357 = CIRCLE ( 'NONE', #204, 2.400000000000001688 ) ;
#358 = CYLINDRICAL_SURFACE ( 'NONE', #260, 1.499999999999999112 ) ;
#359 = VERTEX_POINT ( 'NONE', #206 ) ;
#360 = CALENDAR_DATE ( 2023, 31, 3 ) ;
#361 = DIRECTION ( 'NONE',  ( 3.491481338843133355E-15, -1.224646799147353207E-16, 1.000000000000000000 ) ) ;
#362 = EDGE_LOOP ( 'NONE', ( #191, #209, #88, #165 ) ) ;
#363 = AXIS2_PLACEMENT_3D ( 'NONE', #60, #40, #83 ) ;
ENDSEC;
END-ISO-10303-21;
