ISO-10303-21;
HEADER;
FILE_DESCRIPTION (( 'STEP AP203' ),
    '1' );
FILE_NAME ('372693.step',
    '2023-03-31T06:31:43',
    ( '' ),
    ( '' ),
    'SwSTEP 2.0',
    'SolidWorks 2022',
    '' );
FILE_SCHEMA (( 'CONFIG_CONTROL_DESIGN' ));
ENDSEC;

DATA;
#1 = EDGE_CURVE ( 'NONE', #271, #183, #46, .T. ) ;
#2 = CARTESIAN_POINT ( 'NONE',  ( 2.793185071074506684E-14, -1.500000000000000444, 8.000000000000000000 ) ) ;
#3 = AXIS2_PLACEMENT_3D ( 'NONE', #19, #131, #186 ) ;
#4 = ORIENTED_EDGE ( 'NONE', *, *, #30, .F. ) ;
#5 =( GEOMETRIC_REPRESENTATION_CONTEXT ( 3 ) GLOBAL_UNCERTAINTY_ASSIGNED_CONTEXT ( ( #33 ) ) GLOBAL_UNIT_ASSIGNED_CONTEXT ( ( #155, #277, #25 ) ) REPRESENTATION_CONTEXT ( 'NONE', 'WORKASPACE' ) );
#6 = ORIENTED_EDGE ( 'NONE', *, *, #237, .T. ) ;
#7 = DIRECTION ( 'NONE',  ( -4.275831445896958607E-31, -1.000000000000000000, -1.224646799147353207E-16 ) ) ;
#8 = LINE ( 'NONE', #111, #329 ) ;
#9 = AXIS2_PLACEMENT_3D ( 'NONE', #84, #143, #259 ) ;
#10 = LOCAL_TIME ( 8, 31, 43.00000000000000000, #355 ) ;
#11 = DIRECTION ( 'NONE',  ( 3.491481338843133355E-15, -1.276467311168695266E-16, 1.000000000000000000 ) ) ;
#12 = EDGE_CURVE ( 'NONE', #210, #198, #207, .T. ) ;
#13 = APPROVAL_STATUS ( 'not_yet_approved' ) ;
#14 = DIRECTION ( 'NONE',  ( 0.000000000000000000, -1.000000000000000000, 0.000000000000000000 ) ) ;
#15 = DIRECTION ( 'NONE',  ( -4.456761796588769661E-31, -1.000000000000000000, -1.276467311168695266E-16 ) ) ;
#16 = DATE_AND_TIME ( #48, #310 ) ;
#17 = AXIS2_PLACEMENT_3D ( 'NONE', #328, #121, #267 ) ;
#18 = EDGE_LOOP ( 'NONE', ( #293, #181, #125, #326 ) ) ;
#19 = CARTESIAN_POINT ( 'NONE',  ( 9.308377946195078733E-14, -3.403094278676150455E-15, 26.66025403784433223 ) ) ;
#20 = EDGE_LOOP ( 'NONE', ( #189, #356, #305, #302 ) ) ;
#21 = PERSON_AND_ORGANIZATION ( #341, #82 ) ;
#22 = CARTESIAN_POINT ( 'NONE',  ( 3.140376033815614064E-14, 1.499999999999998224, 8.000000000000000000 ) ) ;
#23 = VERTEX_POINT ( 'NONE', #66 ) ;
#24 = ORIENTED_EDGE ( 'NONE', *, *, #191, .F. ) ;
#25 =( NAMED_UNIT ( * ) SI_UNIT ( $, .STERADIAN. ) SOLID_ANGLE_UNIT ( ) );
#26 = DIRECTION ( 'NONE',  ( 0.000000000000000000, 1.000000000000000000, 0.000000000000000000 ) ) ;
#27 = VECTOR ( 'NONE', #266, 1000.000000000000000 ) ;
#28 = DIRECTION ( 'NONE',  ( 3.491481338843133355E-15, -1.276467311168695266E-16, 1.000000000000000000 ) ) ;
#29 = EDGE_CURVE ( 'NONE', #35, #144, #158, .T. ) ;
#30 = EDGE_CURVE ( 'NONE', #198, #183, #315, .T. ) ;
#31 = LINE ( 'NONE', #137, #342 ) ;
#32 = VERTEX_POINT ( 'NONE', #284 ) ;
#33 = UNCERTAINTY_MEASURE_WITH_UNIT (LENGTH_MEASURE( 1.000000000000000082E-05 ), #155, 'distance_accuracy_value', 'NONE');
#34 = PRODUCT_DEFINITION_SHAPE ( 'NONE', 'NONE',  #228 ) ;
#35 = VERTEX_POINT ( 'NONE', #2 ) ;
#36 = CARTESIAN_POINT ( 'NONE',  ( 0.000000000000000000, 0.000000000000000000, 0.000000000000000000 ) ) ;
#37 = EDGE_LOOP ( 'NONE', ( #238, #316 ) ) ;
#38 = CIRCLE ( 'NONE', #208, 2.000000000000000000 ) ;
#39 = DIRECTION ( 'NONE',  ( -3.491481338843133355E-15, 1.224646799147353207E-16, -1.000000000000000000 ) ) ;
#40 = CC_DESIGN_PERSON_AND_ORGANIZATION_ASSIGNMENT ( #21, #332, ( #264 ) ) ;
#41 = CARTESIAN_POINT ( 'NONE',  ( 9.308377946195078733E-14, -6.500000000000003553, 26.66025403784433223 ) ) ;
#42 = CARTESIAN_POINT ( 'NONE',  ( 2.793185071074506684E-14, -1.021173848934956212E-15, 8.000000000000000000 ) ) ;
#43 = APPLICATION_CONTEXT ( 'configuration controlled 3d designs of mechanical parts and assemblies' ) ;
#44 = VERTEX_POINT ( 'NONE', #196 ) ;
#45 = AXIS2_PLACEMENT_3D ( 'NONE', #340, #313, #79 ) ;
#46 = LINE ( 'NONE', #234, #157 ) ;
#47 = MECHANICAL_CONTEXT ( 'NONE', #324, 'mechanical' ) ;
#48 = CALENDAR_DATE ( 2023, 31, 3 ) ;
#49 = CARTESIAN_POINT ( 'NONE',  ( 1.396592535537253342E-13, -4.898587196589413026E-15, 40.00000000000000000 ) ) ;
#50 = MANIFOLD_SOLID_BREP ( 'Corps-Déplacer/Copier1[1]', #296 ) ;
#51 = CC_DESIGN_DATE_AND_TIME_ASSIGNMENT ( #16, #178, ( #264 ) ) ;
#52 = CARTESIAN_POINT ( 'NONE',  ( 2.793185071074506684E-14, -1.021173848934956212E-15, 8.000000000000000000 ) ) ;
#53 = ADVANCED_FACE ( 'NONE', ( #345 ), #289, .T. ) ;
#54 = AXIS2_PLACEMENT_3D ( 'NONE', #190, #250, #308 ) ;
#55 = APPROVAL ( #360, 'UNSPECIFIED' ) ;
#56 = CARTESIAN_POINT ( 'NONE',  ( 1.396592535537253342E-13, -4.898587196589413026E-15, 40.00000000000000000 ) ) ;
#57 = DIRECTION ( 'NONE',  ( 0.000000000000000000, -1.000000000000000000, 0.000000000000000000 ) ) ;
#58 = VECTOR ( 'NONE', #65, 1000.000000000000000 ) ;
#59 = ORIENTED_EDGE ( 'NONE', *, *, #12, .F. ) ;
#60 = ORIENTED_EDGE ( 'NONE', *, *, #357, .F. ) ;
#61 = DIRECTION ( 'NONE',  ( 3.491481338843133355E-15, -1.276467311168695266E-16, 1.000000000000000000 ) ) ;
#62 = EDGE_CURVE ( 'NONE', #144, #198, #8, .T. ) ;
#63 = DIRECTION ( 'NONE',  ( 0.000000000000000000, -1.000000000000000000, 0.000000000000000000 ) ) ;
#64 = AXIS2_PLACEMENT_3D ( 'NONE', #255, #193, #138 ) ;
#65 = DIRECTION ( 'NONE',  ( -2.468850131082258244E-15, 0.7071067811865495711, -0.7071067811865454633 ) ) ;
#66 = CARTESIAN_POINT ( 'NONE',  ( 1.414962237524463614E-14, 1.499999999999998224, 8.000000000000000000 ) ) ;
#67 = CYLINDRICAL_SURFACE ( 'NONE', #17, 1.499999999999999556 ) ;
#68 = PERSON_AND_ORGANIZATION ( #341, #82 ) ;
#69 = ORIENTED_EDGE ( 'NONE', *, *, #353, .F. ) ;
#70 = AXIS2_PLACEMENT_3D ( 'NONE', #103, #220, #337 ) ;
#71 = APPROVAL_PERSON_ORGANIZATION ( #68, #165, #236 ) ;
#72 = ORIENTED_EDGE ( 'NONE', *, *, #110, .F. ) ;
#73 = APPLICATION_PROTOCOL_DEFINITION ( 'international standard', 'config_control_design', 1994, #43 ) ;
#74 = PERSON_AND_ORGANIZATION ( #341, #82 ) ;
#75 = DIRECTION ( 'NONE',  ( 0.000000000000000000, 1.000000000000000000, 0.000000000000000000 ) ) ;
#76 = AXIS2_PLACEMENT_3D ( 'NONE', #49, #275, #26 ) ;
#77 = DATE_AND_TIME ( #335, #92 ) ;
#78 = CARTESIAN_POINT ( 'NONE',  ( 8.635485230202689901E-14, 1.999999999999997113, 9.866025403784430381 ) ) ;
#79 = DIRECTION ( 'NONE',  ( 0.000000000000000000, -1.000000000000000000, 0.000000000000000000 ) ) ;
#80 = APPROVAL ( #194, 'UNSPECIFIED' ) ;
#81 = AXIS2_PLACEMENT_3D ( 'NONE', #317, #318, #57 ) ;
#82 = ORGANIZATION ( 'UNSPECIFIED', 'UNSPECIFIED', '' ) ;
#83 = ORIENTED_EDGE ( 'NONE', *, *, #246, .T. ) ;
#84 = CARTESIAN_POINT ( 'NONE',  ( -3.206893176760999064E-31, 1.124826709063586057E-32, -9.184907108292236459E-17 ) ) ;
#85 = ORIENTED_EDGE ( 'NONE', *, *, #237, .F. ) ;
#86 = ORIENTED_EDGE ( 'NONE', *, *, #29, .F. ) ;
#87 = CARTESIAN_POINT ( 'NONE',  ( 2.793185071074506684E-14, -1.500000000000000444, 8.000000000000000000 ) ) ;
#88 = DIRECTION ( 'NONE',  ( -4.456761796588768785E-31, -1.000000000000000000, -1.276467311168695266E-16 ) ) ;
#89 = CIRCLE ( 'NONE', #54, 1.999999999999998224 ) ;
#90 = ADVANCED_FACE ( 'NONE', ( #348 ), #281, .F. ) ;
#91 = VECTOR ( 'NONE', #223, 1000.000000000000000 ) ;
#92 = LOCAL_TIME ( 8, 31, 43.00000000000000000, #216 ) ;
#93 = EDGE_CURVE ( 'NONE', #183, #198, #89, .T. ) ;
#94 = ORIENTED_EDGE ( 'NONE', *, *, #274, .T. ) ;
#95 = CYLINDRICAL_SURFACE ( 'NONE', #251, 1.999999999999998224 ) ;
#96 = DATE_AND_TIME ( #241, #112 ) ;
#97 = CONICAL_SURFACE ( 'NONE', #45, 6.500000000000000000, 0.2617993877991501850 ) ;
#98 = FACE_OUTER_BOUND ( 'NONE', #18, .T. ) ;
#99 = ADVANCED_FACE ( 'NONE', ( #362 ), #278, .F. ) ;
#100 = PERSON_AND_ORGANIZATION ( #341, #82 ) ;
#101 = CARTESIAN_POINT ( 'NONE',  ( 1.836970198721029441E-16, 1.499999999999999556, 7.770426314659547788E-18 ) ) ;
#102 = FACE_OUTER_BOUND ( 'NONE', #164, .T. ) ;
#103 = CARTESIAN_POINT ( 'NONE',  ( 1.396592535537253342E-13, 1.199807826129478833E-32, 40.00000000000000000 ) ) ;
#104 = AXIS2_PLACEMENT_3D ( 'NONE', #173, #39, #150 ) ;
#105 = CC_DESIGN_APPROVAL ( #165, ( #264 ) ) ;
#106 = SECURITY_CLASSIFICATION_LEVEL ( 'unclassified' ) ;
#107 = AXIS2_PLACEMENT_3D ( 'NONE', #262, #166, #170 ) ;
#108 = CONICAL_SURFACE ( 'NONE', #128, 1.600000000000000311, 0.7853981633974510546 ) ;
#109 = CC_DESIGN_PERSON_AND_ORGANIZATION_ASSIGNMENT ( #74, #247, ( #149 ) ) ;
#110 = EDGE_CURVE ( 'NONE', #233, #23, #270, .T. ) ;
#111 = CARTESIAN_POINT ( 'NONE',  ( 9.387979988139656579E-14, 6.499999999999996447, 26.66025403784433223 ) ) ;
#112 = LOCAL_TIME ( 8, 31, 43.00000000000000000, #151 ) ;
#113 = ADVANCED_FACE ( 'NONE', ( #279 ), #97, .T. ) ;
#114 = FACE_OUTER_BOUND ( 'NONE', #273, .T. ) ;
#115 = APPROVAL_DATE_TIME ( #232, #55 ) ;
#116 = ORIENTED_EDGE ( 'NONE', *, *, #231, .T. ) ;
#117 = ORIENTED_EDGE ( 'NONE', *, *, #135, .T. ) ;
#118 = DIRECTION ( 'NONE',  ( 3.372511997194914833E-15, -0.2588190451025215166, 0.9659258262890679791 ) ) ;
#119 = COORDINATED_UNIVERSAL_TIME_OFFSET ( 1, 0, .AHEAD. ) ;
#120 = AXIS2_PLACEMENT_3D ( 'NONE', #145, #11, #63 ) ;
#121 = DIRECTION ( 'NONE',  ( 3.491481338843133355E-15, -1.276467311168695266E-16, 1.000000000000000000 ) ) ;
#122 = DIRECTION ( 'NONE',  ( 0.000000000000000000, 0.000000000000000000, 1.000000000000000000 ) ) ;
#123 = DATE_AND_TIME ( #299, #10 ) ;
#124 = DIRECTION ( 'NONE',  ( 0.000000000000000000, 1.000000000000000000, 0.000000000000000000 ) ) ;
#125 = ORIENTED_EDGE ( 'NONE', *, *, #30, .T. ) ;
#126 = DIRECTION ( 'NONE',  ( 1.000000000000000000, 0.000000000000000000, 0.000000000000000000 ) ) ;
#127 = LINE ( 'NONE', #306, #91 ) ;
#128 = AXIS2_PLACEMENT_3D ( 'NONE', #249, #311, #124 ) ;
#129 = CARTESIAN_POINT ( 'NONE',  ( 0.000000000000000000, 0.000000000000000000, 0.000000000000000000 ) ) ;
#130 = APPROVAL_ROLE ( '' ) ;
#131 = DIRECTION ( 'NONE',  ( 3.491481338843133355E-15, -1.276467311168695266E-16, 1.000000000000000000 ) ) ;
#132 = APPROVAL_DATE_TIME ( #77, #80 ) ;
#133 = DIRECTION ( 'NONE',  ( 3.491481338843133355E-15, -1.276467311168695266E-16, 1.000000000000000000 ) ) ;
#134 = PERSON_AND_ORGANIZATION_ROLE ( 'design_supplier' ) ;
#135 = EDGE_CURVE ( 'NONE', #203, #197, #140, .T. ) ;
#136 = AXIS2_PLACEMENT_3D ( 'NONE', #52, #160, #224 ) ;
#137 = CARTESIAN_POINT ( 'NONE',  ( 1.398551970415888953E-13, -1.600000000000005196, 40.00000000000000000 ) ) ;
#138 = DIRECTION ( 'NONE',  ( 4.275831445896957731E-31, 1.000000000000000000, 1.224646799147353207E-16 ) ) ;
#139 = ADVANCED_FACE ( 'NONE', ( #98 ), #347, .T. ) ;
#140 = CIRCLE ( 'NONE', #244, 1.499999999999999556 ) ;
#141 = CC_DESIGN_APPROVAL ( #55, ( #228 ) ) ;
#142 = DIRECTION ( 'NONE',  ( 0.000000000000000000, 1.000000000000000000, 0.000000000000000000 ) ) ;
#143 = DIRECTION ( 'NONE',  ( 3.491481338843133355E-15, -1.224646799147353207E-16, 1.000000000000000000 ) ) ;
#144 = VERTEX_POINT ( 'NONE', #22 ) ;
#145 = CARTESIAN_POINT ( 'NONE',  ( 2.793185071074506684E-14, -1.021173848934956212E-15, 8.000000000000000000 ) ) ;
#146 = CONICAL_SURFACE ( 'NONE', #76, 1.600000000000000311, 0.7853981633974510546 ) ;
#147 = CARTESIAN_POINT ( 'NONE',  ( 1.396592535537253342E-13, 1.599999999999995204, 40.00000000000000000 ) ) ;
#148 = ORIENTED_EDGE ( 'NONE', *, *, #171, .F. ) ;
#149 = PRODUCT_DEFINITION_FORMATION_WITH_SPECIFIED_SOURCE ( 'ANY', '', #176, .NOT_KNOWN. ) ;
#150 = DIRECTION ( 'NONE',  ( 0.000000000000000000, 1.000000000000000000, 0.000000000000000000 ) ) ;
#151 = COORDINATED_UNIVERSAL_TIME_OFFSET ( 1, 0, .AHEAD. ) ;
#152 = ORIENTED_EDGE ( 'NONE', *, *, #177, .F. ) ;
#153 = EDGE_LOOP ( 'NONE', ( #290, #291 ) ) ;
#154 = MANIFOLD_SOLID_BREP ( 'Corps-Déplacer/Copier1[2]', #225 ) ;
#155 =( LENGTH_UNIT ( ) NAMED_UNIT ( * ) SI_UNIT ( .MILLI., .METRE. ) );
#156 = DIRECTION ( 'NONE',  ( -3.491481338843133355E-15, 1.224646799147353207E-16, -1.000000000000000000 ) ) ;
#157 = VECTOR ( 'NONE', #350, 1000.000000000000000 ) ;
#158 = CIRCLE ( 'NONE', #163, 1.499999999999999334 ) ;
#159 = LINE ( 'NONE', #101, #314 ) ;
#160 = DIRECTION ( 'NONE',  ( 3.491481338843133355E-15, -1.276467311168695266E-16, 1.000000000000000000 ) ) ;
#161 = CIRCLE ( 'NONE', #295, 1.600000000000000311 ) ;
#162 = ADVANCED_FACE ( 'NONE', ( #102 ), #108, .T. ) ;
#163 = AXIS2_PLACEMENT_3D ( 'NONE', #42, #268, #14 ) ;
#164 = EDGE_LOOP ( 'NONE', ( #323, #6, #148, #69 ) ) ;
#165 = APPROVAL ( #13, 'UNSPECIFIED' ) ;
#166 = DIRECTION ( 'NONE',  ( -3.491481338843133355E-15, 1.276467311168695266E-16, -1.000000000000000000 ) ) ;
#167 = CARTESIAN_POINT ( 'NONE',  ( 1.382626610181880809E-13, -4.849601324623518809E-15, 39.60000000000000142 ) ) ;
#168 = DIRECTION ( 'NONE',  ( -3.491481338843133355E-15, 1.224646799147353207E-16, -1.000000000000000000 ) ) ;
#169 = VECTOR ( 'NONE', #118, 1000.000000000000114 ) ;
#170 = DIRECTION ( 'NONE',  ( -2.664535259100376013E-14, -1.000000000000000000, 0.000000000000000000 ) ) ;
#171 = EDGE_CURVE ( 'NONE', #210, #271, #38, .T. ) ;
#172 = ORIENTED_EDGE ( 'NONE', *, *, #93, .F. ) ;
#173 = CARTESIAN_POINT ( 'NONE',  ( 1.396592535537253342E-13, -4.898587196589413026E-15, 40.00000000000000000 ) ) ;
#174 = CIRCLE ( 'NONE', #184, 1.499999999999999556 ) ;
#175 = CARTESIAN_POINT ( 'NONE',  ( 8.551662891793908455E-31, 1.999999999999998224, 2.449293598294704442E-16 ) ) ;
#176 = PRODUCT ( '372693', '372693', '', ( #47 ) ) ;
#177 = EDGE_CURVE ( 'NONE', #203, #23, #159, .T. ) ;
#178 = DATE_TIME_ROLE ( 'classification_date' ) ;
#179 = LINE ( 'NONE', #41, #169 ) ;
#180 = ORIENTED_EDGE ( 'NONE', *, *, #221, .F. ) ;
#181 = ORIENTED_EDGE ( 'NONE', *, *, #62, .T. ) ;
#182 = DIRECTION ( 'NONE',  ( 3.491481338843133355E-15, -1.224646799147353207E-16, 1.000000000000000000 ) ) ;
#183 = VERTEX_POINT ( 'NONE', #215 ) ;
#184 = AXIS2_PLACEMENT_3D ( 'NONE', #288, #346, #88 ) ;
#185 = ORIENTED_EDGE ( 'NONE', *, *, #171, .T. ) ;
#186 = DIRECTION ( 'NONE',  ( 0.000000000000000000, -1.000000000000000000, 0.000000000000000000 ) ) ;
#187 = PRODUCT_RELATED_PRODUCT_CATEGORY ( 'detail', '', ( #176 ) ) ;
#188 = EDGE_LOOP ( 'NONE', ( #86, #180 ) ) ;
#189 = ORIENTED_EDGE ( 'NONE', *, *, #62, .F. ) ;
#190 = CARTESIAN_POINT ( 'NONE',  ( 3.444704358586562248E-14, -1.259365891909075084E-15, 9.866025403784430381 ) ) ;
#191 = EDGE_CURVE ( 'NONE', #197, #233, #127, .T. ) ;
#192 = FACE_OUTER_BOUND ( 'NONE', #319, .T. ) ;
#193 = DIRECTION ( 'NONE',  ( -3.491481338843133355E-15, 1.224646799147353207E-16, -1.000000000000000000 ) ) ;
#194 = APPROVAL_STATUS ( 'not_yet_approved' ) ;
#195 = CC_DESIGN_APPROVAL ( #80, ( #149 ) ) ;
#196 = CARTESIAN_POINT ( 'NONE',  ( 1.396592535537253342E-13, 1.599999999999995204, 40.00000000000000000 ) ) ;
#197 = VERTEX_POINT ( 'NONE', #303 ) ;
#198 = VERTEX_POINT ( 'NONE', #78 ) ;
#199 = ADVANCED_FACE ( 'NONE', ( #192 ), #146, .T. ) ;
#200 = CYLINDRICAL_SURFACE ( 'NONE', #286, 1.499999999999999556 ) ;
#201 = CIRCLE ( 'NONE', #300, 2.000000000000000000 ) ;
#202 = CARTESIAN_POINT ( 'NONE',  ( -2.699534206289369605E-30, 7.524489584330196435E-32, -7.731773262702966626E-16 ) ) ;
#203 = VERTEX_POINT ( 'NONE', #334 ) ;
#204 = DESIGN_CONTEXT ( 'detailed design', #43, 'design' ) ;
#205 = CARTESIAN_POINT ( 'NONE',  ( 2.793185071074506684E-14, 1.499759782661853229E-32, 8.000000000000000000 ) ) ;
#206 = ADVANCED_FACE ( 'NONE', ( #240 ), #95, .T. ) ;
#207 = LINE ( 'NONE', #175, #27 ) ;
#208 = AXIS2_PLACEMENT_3D ( 'NONE', #218, #156, #75 ) ;
#209 = APPROVAL_PERSON_ORGANIZATION ( #307, #55, #211 ) ;
#210 = VERTEX_POINT ( 'NONE', #213 ) ;
#211 = APPROVAL_ROLE ( '' ) ;
#212 = DIRECTION ( 'NONE',  ( -4.275831445896958607E-31, -1.000000000000000000, -1.224646799147353207E-16 ) ) ;
#213 = CARTESIAN_POINT ( 'NONE',  ( 1.382626610181880809E-13, 1.999999999999995337, 39.60000000000000142 ) ) ;
#214 = DATE_TIME_ROLE ( 'creation_date' ) ;
#215 = CARTESIAN_POINT ( 'NONE',  ( 8.659978166185631882E-14, -1.999999999999999556, 9.866025403784430381 ) ) ;
#216 = COORDINATED_UNIVERSAL_TIME_OFFSET ( 1, 0, .AHEAD. ) ;
#217 = ADVANCED_FACE ( 'NONE', ( #272 ), #280, .T. ) ;
#218 = CARTESIAN_POINT ( 'NONE',  ( 1.382626610181880809E-13, -4.849601324623518809E-15, 39.60000000000000142 ) ) ;
#219 = PERSON_AND_ORGANIZATION ( #341, #82 ) ;
#220 = DIRECTION ( 'NONE',  ( -3.491481338843133355E-15, 1.224646799147353207E-16, -1.000000000000000000 ) ) ;
#221 = EDGE_CURVE ( 'NONE', #144, #35, #309, .T. ) ;
#222 = AXIS2_PLACEMENT_3D ( 'NONE', #205, #182, #212 ) ;
#223 = DIRECTION ( 'NONE',  ( 3.491481338843133355E-15, -1.276467311168695266E-16, 1.000000000000000000 ) ) ;
#224 = DIRECTION ( 'NONE',  ( 0.000000000000000000, -1.000000000000000000, 0.000000000000000000 ) ) ;
#225 = CLOSED_SHELL ( 'NONE', ( #304, #53, #283, #90 ) ) ;
#226 = ORIENTED_EDGE ( 'NONE', *, *, #177, .T. ) ;
#227 = ADVANCED_BREP_SHAPE_REPRESENTATION ( '372693', ( #50, #154, #320 ), #5 ) ;
#228 = PRODUCT_DEFINITION ( 'UNKNOWN', '', #149, #204 ) ;
#229 = FACE_OUTER_BOUND ( 'NONE', #260, .T. ) ;
#230 = DIRECTION ( 'NONE',  ( 3.404208188709233130E-15, 0.2588190451025213501, 0.9659258262890680902 ) ) ;
#231 = EDGE_CURVE ( 'NONE', #271, #210, #201, .T. ) ;
#232 = DATE_AND_TIME ( #265, #338 ) ;
#233 = VERTEX_POINT ( 'NONE', #87 ) ;
#234 = CARTESIAN_POINT ( 'NONE',  ( 2.449293598294696061E-16, -1.999999999999998224, -2.449293598294712331E-16 ) ) ;
#235 = PERSON_AND_ORGANIZATION_ROLE ( 'creator' ) ;
#236 = APPROVAL_ROLE ( '' ) ;
#237 = EDGE_CURVE ( 'NONE', #32, #271, #31, .T. ) ;
#238 = ORIENTED_EDGE ( 'NONE', *, *, #274, .F. ) ;
#239 = APPROVAL_DATE_TIME ( #123, #165 ) ;
#240 = FACE_OUTER_BOUND ( 'NONE', #354, .T. ) ;
#241 = CALENDAR_DATE ( 2023, 31, 3 ) ;
#242 = ORIENTED_EDGE ( 'NONE', *, *, #1, .T. ) ;
#243 = DIRECTION ( 'NONE',  ( -3.491481338843133355E-15, 1.224646799147353207E-16, -1.000000000000000000 ) ) ;
#244 = AXIS2_PLACEMENT_3D ( 'NONE', #202, #28, #336 ) ;
#245 = SHAPE_DEFINITION_REPRESENTATION ( #34, #227 ) ;
#246 = EDGE_CURVE ( 'NONE', #32, #44, #161, .T. ) ;
#247 = PERSON_AND_ORGANIZATION_ROLE ( 'creator' ) ;
#248 = CC_DESIGN_PERSON_AND_ORGANIZATION_ASSIGNMENT ( #100, #333, ( #176 ) ) ;
#249 = CARTESIAN_POINT ( 'NONE',  ( 1.396592535537253342E-13, -4.898587196589413026E-15, 40.00000000000000000 ) ) ;
#250 = DIRECTION ( 'NONE',  ( -3.491481338843133355E-15, 1.276467311168695266E-16, -1.000000000000000000 ) ) ;
#251 = AXIS2_PLACEMENT_3D ( 'NONE', #129, #243, #359 ) ;
#252 = PERSON_AND_ORGANIZATION ( #341, #82 ) ;
#253 = DIRECTION ( 'NONE',  ( 3.491481338843133355E-15, -1.224646799147353207E-16, 1.000000000000000000 ) ) ;
#254 = ORIENTED_EDGE ( 'NONE', *, *, #297, .F. ) ;
#255 = CARTESIAN_POINT ( 'NONE',  ( 0.000000000000000000, 0.000000000000000000, 0.000000000000000000 ) ) ;
#256 = CARTESIAN_POINT ( 'NONE',  ( 2.793185071074506684E-14, 1.499759782661853229E-32, 8.000000000000000000 ) ) ;
#257 = ORIENTED_EDGE ( 'NONE', *, *, #231, .F. ) ;
#258 = EDGE_LOOP ( 'NONE', ( #185, #242, #4, #59 ) ) ;
#259 = DIRECTION ( 'NONE',  ( -4.275831445896958607E-31, -1.000000000000000000, -1.224646799147353207E-16 ) ) ;
#260 = EDGE_LOOP ( 'NONE', ( #152, #117, #285, #254 ) ) ;
#261 = ORIENTED_EDGE ( 'NONE', *, *, #246, .F. ) ;
#262 = CARTESIAN_POINT ( 'NONE',  ( 3.444704358586562248E-14, -1.259365891909075084E-15, 9.866025403784430381 ) ) ;
#263 = ORIENTED_EDGE ( 'NONE', *, *, #353, .T. ) ;
#264 = SECURITY_CLASSIFICATION ( '', '', #106 ) ;
#265 = CALENDAR_DATE ( 2023, 31, 3 ) ;
#266 = DIRECTION ( 'NONE',  ( -3.491481338843133355E-15, 1.224646799147353207E-16, -1.000000000000000000 ) ) ;
#267 = DIRECTION ( 'NONE',  ( -4.456761796588769661E-31, -1.000000000000000000, -1.276467311168695266E-16 ) ) ;
#268 = DIRECTION ( 'NONE',  ( 3.491481338843133355E-15, -1.276467311168695266E-16, 1.000000000000000000 ) ) ;
#269 = CIRCLE ( 'NONE', #104, 1.600000000000000311 ) ;
#270 = CIRCLE ( 'NONE', #136, 1.499999999999999334 ) ;
#271 = VERTEX_POINT ( 'NONE', #344 ) ;
#272 = FACE_OUTER_BOUND ( 'NONE', #258, .T. ) ;
#273 = EDGE_LOOP ( 'NONE', ( #94, #226, #72, #24 ) ) ;
#274 = EDGE_CURVE ( 'NONE', #197, #203, #174, .T. ) ;
#275 = DIRECTION ( 'NONE',  ( -3.491481338843133355E-15, 1.224646799147353207E-16, -1.000000000000000000 ) ) ;
#276 = AXIS2_PLACEMENT_3D ( 'NONE', #256, #253, #7 ) ;
#277 =( NAMED_UNIT ( * ) PLANE_ANGLE_UNIT ( ) SI_UNIT ( $, .RADIAN. ) );
#278 = PLANE ( 'NONE',  #70 ) ;
#279 = FACE_OUTER_BOUND ( 'NONE', #20, .T. ) ;
#280 = CYLINDRICAL_SURFACE ( 'NONE', #64, 1.999999999999998224 ) ;
#281 = PLANE ( 'NONE',  #9 ) ;
#282 = DIRECTION ( 'NONE',  ( -2.382254525458709186E-15, -0.7071067811865493491, -0.7071067811865456854 ) ) ;
#283 = ADVANCED_FACE ( 'NONE', ( #229 ), #200, .T. ) ;
#284 = CARTESIAN_POINT ( 'NONE',  ( 1.391813937098032232E-13, -1.600000000000005196, 40.00000000000000000 ) ) ;
#285 = ORIENTED_EDGE ( 'NONE', *, *, #191, .T. ) ;
#286 = AXIS2_PLACEMENT_3D ( 'NONE', #321, #61, #15 ) ;
#287 = DIRECTION ( 'NONE',  ( -3.491481338843133355E-15, 1.224646799147353207E-16, -1.000000000000000000 ) ) ;
#288 = CARTESIAN_POINT ( 'NONE',  ( -2.699534206289369605E-30, 7.524489584330196435E-32, -7.731773262702966626E-16 ) ) ;
#289 = PLANE ( 'NONE',  #276 ) ;
#290 = ORIENTED_EDGE ( 'NONE', *, *, #110, .T. ) ;
#291 = ORIENTED_EDGE ( 'NONE', *, *, #297, .T. ) ;
#292 = CC_DESIGN_PERSON_AND_ORGANIZATION_ASSIGNMENT ( #219, #134, ( #149 ) ) ;
#293 = ORIENTED_EDGE ( 'NONE', *, *, #29, .T. ) ;
#294 = PLANE ( 'NONE',  #222 ) ;
#295 = AXIS2_PLACEMENT_3D ( 'NONE', #56, #168, #343 ) ;
#296 = CLOSED_SHELL ( 'NONE', ( #139, #162, #217, #206, #199, #99, #113, #339 ) ) ;
#297 = EDGE_CURVE ( 'NONE', #23, #233, #352, .T. ) ;
#298 = LINE ( 'NONE', #147, #58 ) ;
#299 = CALENDAR_DATE ( 2023, 31, 3 ) ;
#300 = AXIS2_PLACEMENT_3D ( 'NONE', #167, #287, #142 ) ;
#301 = APPROVAL_PERSON_ORGANIZATION ( #252, #80, #130 ) ;
#302 = ORIENTED_EDGE ( 'NONE', *, *, #93, .T. ) ;
#303 = CARTESIAN_POINT ( 'NONE',  ( -3.368048475777684354E-30, -1.499999999999999556, -9.646474229456009771E-16 ) ) ;
#304 = ADVANCED_FACE ( 'NONE', ( #114 ), #67, .T. ) ;
#305 = ORIENTED_EDGE ( 'NONE', *, *, #312, .T. ) ;
#306 = CARTESIAN_POINT ( 'NONE',  ( -1.309898240504139063E-30, -1.499999999999999556, -3.751697670359483154E-16 ) ) ;
#307 = PERSON_AND_ORGANIZATION ( #341, #82 ) ;
#308 = DIRECTION ( 'NONE',  ( 0.000000000000000000, -1.000000000000000000, 0.000000000000000000 ) ) ;
#309 = CIRCLE ( 'NONE', #81, 1.499999999999999334 ) ;
#310 = LOCAL_TIME ( 8, 31, 43.00000000000000000, #351 ) ;
#311 = DIRECTION ( 'NONE',  ( -3.491481338843133355E-15, 1.224646799147353207E-16, -1.000000000000000000 ) ) ;
#312 = EDGE_CURVE ( 'NONE', #35, #183, #179, .T. ) ;
#313 = DIRECTION ( 'NONE',  ( 3.491481338843133355E-15, -1.276467311168695266E-16, 1.000000000000000000 ) ) ;
#314 = VECTOR ( 'NONE', #133, 1000.000000000000000 ) ;
#315 = CIRCLE ( 'NONE', #107, 1.999999999999998224 ) ;
#316 = ORIENTED_EDGE ( 'NONE', *, *, #135, .F. ) ;
#317 = CARTESIAN_POINT ( 'NONE',  ( 2.793185071074506684E-14, -1.021173848934956212E-15, 8.000000000000000000 ) ) ;
#318 = DIRECTION ( 'NONE',  ( 3.491481338843133355E-15, -1.276467311168695266E-16, 1.000000000000000000 ) ) ;
#319 = EDGE_LOOP ( 'NONE', ( #85, #83, #263, #257 ) ) ;
#320 = AXIS2_PLACEMENT_3D ( 'NONE', #36, #122, #126 ) ;
#321 = CARTESIAN_POINT ( 'NONE',  ( -6.413839710158237013E-31, 0.000000000000000000, -1.836996703606440502E-16 ) ) ;
#322 = EDGE_LOOP ( 'NONE', ( #60, #261 ) ) ;
#323 = ORIENTED_EDGE ( 'NONE', *, *, #357, .T. ) ;
#324 = APPLICATION_CONTEXT ( 'configuration controlled 3d designs of mechanical parts and assemblies' ) ;
#325 = CC_DESIGN_DATE_AND_TIME_ASSIGNMENT ( #96, #214, ( #228 ) ) ;
#326 = ORIENTED_EDGE ( 'NONE', *, *, #312, .F. ) ;
#327 = ORIENTED_EDGE ( 'NONE', *, *, #1, .F. ) ;
#328 = CARTESIAN_POINT ( 'NONE',  ( -6.413839710158237013E-31, 0.000000000000000000, -1.836996703606440502E-16 ) ) ;
#329 = VECTOR ( 'NONE', #230, 1000.000000000000000 ) ;
#330 = PERSON_AND_ORGANIZATION ( #341, #82 ) ;
#331 = ORIENTED_EDGE ( 'NONE', *, *, #12, .T. ) ;
#332 = PERSON_AND_ORGANIZATION_ROLE ( 'classification_officer' ) ;
#333 = PERSON_AND_ORGANIZATION_ROLE ( 'design_owner' ) ;
#334 = CARTESIAN_POINT ( 'NONE',  ( 1.414962237524463930E-14, 1.499999999999999556, -5.817072295950419478E-16 ) ) ;
#335 = CALENDAR_DATE ( 2023, 31, 3 ) ;
#336 = DIRECTION ( 'NONE',  ( -4.456761796588768785E-31, -1.000000000000000000, -1.276467311168695266E-16 ) ) ;
#337 = DIRECTION ( 'NONE',  ( 4.275831445896958607E-31, 1.000000000000000000, 1.224646799147353207E-16 ) ) ;
#338 = LOCAL_TIME ( 8, 31, 43.00000000000000000, #119 ) ;
#339 = ADVANCED_FACE ( 'NONE', ( #349 ), #294, .F. ) ;
#340 = CARTESIAN_POINT ( 'NONE',  ( 9.308377946195078733E-14, -3.403094278676150455E-15, 26.66025403784433223 ) ) ;
#341 = PERSON ( 'UNSPECIFIED', 'UNSPECIFIED', 'UNSPECIFIED', ('UNSPECIFIED'), ('UNSPECIFIED'), ('UNSPECIFIED') ) ;
#342 = VECTOR ( 'NONE', #282, 1000.000000000000000 ) ;
#343 = DIRECTION ( 'NONE',  ( 0.000000000000000000, 1.000000000000000000, 0.000000000000000000 ) ) ;
#344 = CARTESIAN_POINT ( 'NONE',  ( 8.659978166185623046E-14, -2.000000000000004885, 39.60000000000000142 ) ) ;
#345 = FACE_OUTER_BOUND ( 'NONE', #153, .T. ) ;
#346 = DIRECTION ( 'NONE',  ( 3.491481338843133355E-15, -1.276467311168695266E-16, 1.000000000000000000 ) ) ;
#347 = CONICAL_SURFACE ( 'NONE', #3, 6.500000000000000000, 0.2617993877991501850 ) ;
#348 = FACE_OUTER_BOUND ( 'NONE', #37, .T. ) ;
#349 = FACE_OUTER_BOUND ( 'NONE', #188, .T. ) ;
#350 = DIRECTION ( 'NONE',  ( -3.491481338843133355E-15, 1.224646799147353207E-16, -1.000000000000000000 ) ) ;
#351 = COORDINATED_UNIVERSAL_TIME_OFFSET ( 1, 0, .AHEAD. ) ;
#352 = CIRCLE ( 'NONE', #120, 1.499999999999999334 ) ;
#353 = EDGE_CURVE ( 'NONE', #44, #210, #298, .T. ) ;
#354 = EDGE_LOOP ( 'NONE', ( #327, #116, #331, #172 ) ) ;
#355 = COORDINATED_UNIVERSAL_TIME_OFFSET ( 1, 0, .AHEAD. ) ;
#356 = ORIENTED_EDGE ( 'NONE', *, *, #221, .T. ) ;
#357 = EDGE_CURVE ( 'NONE', #44, #32, #269, .T. ) ;
#358 = CC_DESIGN_PERSON_AND_ORGANIZATION_ASSIGNMENT ( #330, #235, ( #228 ) ) ;
#359 = DIRECTION ( 'NONE',  ( 4.275831445896957731E-31, 1.000000000000000000, 1.224646799147353207E-16 ) ) ;
#360 = APPROVAL_STATUS ( 'not_yet_approved' ) ;
#361 = APPLICATION_PROTOCOL_DEFINITION ( 'international standard', 'config_control_design', 1994, #324 ) ;
#362 = FACE_OUTER_BOUND ( 'NONE', #322, .T. ) ;
#363 = CC_DESIGN_SECURITY_CLASSIFICATION ( #264, ( #149 ) ) ;
ENDSEC;
END-ISO-10303-21;
