ISO-10303-21;
HEADER;
FILE_DESCRIPTION (( 'STEP AP203' ),
    '1' );
FILE_NAME ('372692.step',
    '2023-03-31T06:31:43',
    ( '' ),
    ( '' ),
    'SwSTEP 2.0',
    'SolidWorks 2022',
    '' );
FILE_SCHEMA (( 'CONFIG_CONTROL_DESIGN' ));
ENDSEC;

DATA;
#1 = EDGE_CURVE ( 'NONE', #208, #66, #257, .T. ) ;
#2 = CC_DESIGN_PERSON_AND_ORGANIZATION_ASSIGNMENT ( #230, #82, ( #288 ) ) ;
#3 = LOCAL_TIME ( 8, 31, 43.00000000000000000, #11 ) ;
#4 = APPLICATION_CONTEXT ( 'configuration controlled 3d designs of mechanical parts and assemblies' ) ;
#5 = DESIGN_CONTEXT ( 'detailed design', #4, 'design' ) ;
#6 = APPROVAL_DATE_TIME ( #223, #231 ) ;
#7 = ORIENTED_EDGE ( 'NONE', *, *, #175, .T. ) ;
#8 = PERSON ( 'UNSPECIFIED', 'UNSPECIFIED', 'UNSPECIFIED', ('UNSPECIFIED'), ('UNSPECIFIED'), ('UNSPECIFIED') ) ;
#9 = DIRECTION ( 'NONE',  ( -3.491481338843133355E-15, 1.224646799147353207E-16, -1.000000000000000000 ) ) ;
#10 = PERSON_AND_ORGANIZATION_ROLE ( 'creator' ) ;
#11 = COORDINATED_UNIVERSAL_TIME_OFFSET ( 1, 0, .AHEAD. ) ;
#12 = EDGE_CURVE ( 'NONE', #157, #266, #263, .T. ) ;
#13 = CARTESIAN_POINT ( 'NONE',  ( 0.000000000000000000, 0.000000000000000000, 0.000000000000000000 ) ) ;
#14 = FACE_OUTER_BOUND ( 'NONE', #136, .T. ) ;
#15 = DIRECTION ( 'NONE',  ( -2.382254525458723780E-15, -0.7071067811865453523, -0.7071067811865496822 ) ) ;
#16 = DIRECTION ( 'NONE',  ( 3.491481338843133355E-15, -1.224646799147353207E-16, 1.000000000000000000 ) ) ;
#17 = FACE_OUTER_BOUND ( 'NONE', #276, .T. ) ;
#18 = CARTESIAN_POINT ( 'NONE',  ( 1.326762908760390423E-13, 1.199999999999996403, 38.00000000000000000 ) ) ;
#19 = ORIENTED_EDGE ( 'NONE', *, *, #200, .T. ) ;
#20 = CALENDAR_DATE ( 2023, 31, 3 ) ;
#21 = CARTESIAN_POINT ( 'NONE',  ( 1.836970198721018841E-16, -1.499999999999996225, -1.836970198721031167E-16 ) ) ;
#22 = CIRCLE ( 'NONE', #55, 1.200000000000001066 ) ;
#23 = AXIS2_PLACEMENT_3D ( 'NONE', #65, #9, #43 ) ;
#24 = LINE ( 'NONE', #217, #54 ) ;
#25 = EDGE_CURVE ( 'NONE', #157, #56, #250, .T. ) ;
#26 =( LENGTH_UNIT ( ) NAMED_UNIT ( * ) SI_UNIT ( .MILLI., .METRE. ) );
#27 = AXIS2_PLACEMENT_3D ( 'NONE', #52, #30, #118 ) ;
#28 = PERSON_AND_ORGANIZATION_ROLE ( 'design_owner' ) ;
#29 = ORIENTED_EDGE ( 'NONE', *, *, #200, .F. ) ;
#30 = DIRECTION ( 'NONE',  ( 0.000000000000000000, 0.000000000000000000, 1.000000000000000000 ) ) ;
#31 = DATE_AND_TIME ( #229, #212 ) ;
#32 = ORIENTED_EDGE ( 'NONE', *, *, #49, .T. ) ;
#33 = VERTEX_POINT ( 'NONE', #171 ) ;
#34 = EDGE_LOOP ( 'NONE', ( #7, #19, #129, #232 ) ) ;
#35 = CARTESIAN_POINT ( 'NONE',  ( 0.000000000000000000, 0.000000000000000000, 0.000000000000000000 ) ) ;
#36 = CALENDAR_DATE ( 2023, 31, 3 ) ;
#37 = PRODUCT_DEFINITION_FORMATION_WITH_SPECIFIED_SOURCE ( 'ANY', '', #228, .NOT_KNOWN. ) ;
#38 = CC_DESIGN_DATE_AND_TIME_ASSIGNMENT ( #31, #96, ( #288 ) ) ;
#39 = DIRECTION ( 'NONE',  ( -3.491481338843133355E-15, 1.224646799147353207E-16, -1.000000000000000000 ) ) ;
#40 = CARTESIAN_POINT ( 'NONE',  ( 6.413747168845421269E-31, 1.499999999999996225, 1.836970198721025004E-16 ) ) ;
#41 = AXIS2_PLACEMENT_3D ( 'NONE', #155, #262, #107 ) ;
#42 = ORIENTED_EDGE ( 'NONE', *, *, #97, .T. ) ;
#43 = DIRECTION ( 'NONE',  ( 0.000000000000000000, 1.000000000000000000, 0.000000000000000000 ) ) ;
#44 = DIRECTION ( 'NONE',  ( -3.491481338843133355E-15, 1.224646799147353207E-16, -1.000000000000000000 ) ) ;
#45 = DIRECTION ( 'NONE',  ( -3.491481338843133355E-15, 1.224646799147353207E-16, -1.000000000000000000 ) ) ;
#46 = AXIS2_PLACEMENT_3D ( 'NONE', #149, #39, #67 ) ;
#47 = VECTOR ( 'NONE', #270, 1000.000000000000000 ) ;
#48 = CYLINDRICAL_SURFACE ( 'NONE', #189, 1.499999999999998668 ) ;
#49 = EDGE_CURVE ( 'NONE', #126, #66, #143, .T. ) ;
#50 = CC_DESIGN_APPROVAL ( #119, ( #37 ) ) ;
#51 = EDGE_LOOP ( 'NONE', ( #117, #256, #202, #85 ) ) ;
#52 = CARTESIAN_POINT ( 'NONE',  ( 0.000000000000000000, 0.000000000000000000, 0.000000000000000000 ) ) ;
#53 = DIRECTION ( 'NONE',  ( -3.491481338843133355E-15, 1.224646799147353207E-16, -1.000000000000000000 ) ) ;
#54 = VECTOR ( 'NONE', #15, 1000.000000000000000 ) ;
#55 = AXIS2_PLACEMENT_3D ( 'NONE', #100, #154, #177 ) ;
#56 = VERTEX_POINT ( 'NONE', #124 ) ;
#57 = DIRECTION ( 'NONE',  ( 0.000000000000000000, 1.000000000000000000, 0.000000000000000000 ) ) ;
#58 = CARTESIAN_POINT ( 'NONE',  ( 1.316288464743861212E-13, -4.616918432785521081E-15, 37.69999999999999574 ) ) ;
#59 = VERTEX_POINT ( 'NONE', #121 ) ;
#60 = APPROVAL_DATE_TIME ( #287, #226 ) ;
#61 = EDGE_CURVE ( 'NONE', #126, #285, #140, .T. ) ;
#62 = COORDINATED_UNIVERSAL_TIME_OFFSET ( 1, 0, .AHEAD. ) ;
#63 = CIRCLE ( 'NONE', #161, 1.499999999999995559 ) ;
#64 = FACE_OUTER_BOUND ( 'NONE', #227, .T. ) ;
#65 = CARTESIAN_POINT ( 'NONE',  ( 2.793185071074506684E-14, -9.797174393178825657E-16, 8.000000000000000000 ) ) ;
#66 = VERTEX_POINT ( 'NONE', #145 ) ;
#67 = DIRECTION ( 'NONE',  ( 4.275831445896958607E-31, 1.000000000000000000, 1.224646799147353207E-16 ) ) ;
#68 = MANIFOLD_SOLID_BREP ( 'Corps-Déplacer/Copier1[1]', #168 ) ;
#69 = DIRECTION ( 'NONE',  ( 0.000000000000000000, 1.000000000000000000, 0.000000000000000000 ) ) ;
#70 = CONICAL_SURFACE ( 'NONE', #125, 1.200000000000001066, 0.7853981633974453924 ) ;
#71 = CARTESIAN_POINT ( 'NONE',  ( 2.793185071074506684E-14, 1.124819836996389237E-32, 8.000000000000000000 ) ) ;
#72 = DIRECTION ( 'NONE',  ( -3.491481338843133355E-15, 1.224646799147353207E-16, -1.000000000000000000 ) ) ;
#73 = MANIFOLD_SOLID_BREP ( 'Corps-Déplacer/Copier1[2]', #134 ) ;
#74 = ORIENTED_EDGE ( 'NONE', *, *, #12, .T. ) ;
#75 = DIRECTION ( 'NONE',  ( -3.491481338843133355E-15, 1.224646799147353207E-16, -1.000000000000000000 ) ) ;
#76 = ORIENTED_EDGE ( 'NONE', *, *, #258, .T. ) ;
#77 = CYLINDRICAL_SURFACE ( 'NONE', #120, 1.499999999999998668 ) ;
#78 = AXIS2_PLACEMENT_3D ( 'NONE', #191, #299, #272 ) ;
#79 = CARTESIAN_POINT ( 'NONE',  ( 1.326762908760390423E-13, -4.653657836759941941E-15, 38.00000000000000000 ) ) ;
#80 = ADVANCED_FACE ( 'NONE', ( #14 ), #253, .T. ) ;
#81 = PERSON_AND_ORGANIZATION_ROLE ( 'creator' ) ;
#82 = PERSON_AND_ORGANIZATION_ROLE ( 'classification_officer' ) ;
#83 = ADVANCED_FACE ( 'NONE', ( #84 ), #289, .T. ) ;
#84 = FACE_OUTER_BOUND ( 'NONE', #210, .T. ) ;
#85 = ORIENTED_EDGE ( 'NONE', *, *, #49, .F. ) ;
#86 = LINE ( 'NONE', #112, #274 ) ;
#87 = APPROVAL_PERSON_ORGANIZATION ( #180, #226, #216 ) ;
#88 = DIRECTION ( 'NONE',  ( -3.491481338843133355E-15, 1.224646799147353207E-16, -1.000000000000000000 ) ) ;
#89 = ADVANCED_FACE ( 'NONE', ( #235 ), #105, .F. ) ;
#90 = PERSON_AND_ORGANIZATION ( #8, #290 ) ;
#91 = DIRECTION ( 'NONE',  ( 4.275831445896958607E-31, 1.000000000000000000, 1.224646799147353207E-16 ) ) ;
#92 = FACE_OUTER_BOUND ( 'NONE', #51, .T. ) ;
#93 = FACE_OUTER_BOUND ( 'NONE', #292, .T. ) ;
#94 = APPROVAL_PERSON_ORGANIZATION ( #195, #231, #302 ) ;
#95 =( GEOMETRIC_REPRESENTATION_CONTEXT ( 3 ) GLOBAL_UNCERTAINTY_ASSIGNED_CONTEXT ( ( #245 ) ) GLOBAL_UNIT_ASSIGNED_CONTEXT ( ( #26, #214, #183 ) ) REPRESENTATION_CONTEXT ( 'NONE', 'WORKASPACE' ) );
#96 = DATE_TIME_ROLE ( 'classification_date' ) ;
#97 = EDGE_CURVE ( 'NONE', #33, #59, #273, .T. ) ;
#98 = COORDINATED_UNIVERSAL_TIME_OFFSET ( 1, 0, .AHEAD. ) ;
#99 = AXIS2_PLACEMENT_3D ( 'NONE', #13, #147, #160 ) ;
#100 = CARTESIAN_POINT ( 'NONE',  ( 1.326762908760390423E-13, -4.653657836759941941E-15, 38.00000000000000000 ) ) ;
#101 = ORIENTED_EDGE ( 'NONE', *, *, #25, .T. ) ;
#102 = APPROVAL_PERSON_ORGANIZATION ( #201, #119, #236 ) ;
#103 = DIRECTION ( 'NONE',  ( -3.491481338843133355E-15, 1.224646799147353207E-16, -1.000000000000000000 ) ) ;
#104 = FACE_OUTER_BOUND ( 'NONE', #213, .T. ) ;
#105 = PLANE ( 'NONE',  #46 ) ;
#106 = CALENDAR_DATE ( 2023, 31, 3 ) ;
#107 = DIRECTION ( 'NONE',  ( 0.000000000000000000, 1.000000000000000000, 0.000000000000000000 ) ) ;
#108 = CIRCLE ( 'NONE', #123, 1.499999999999995559 ) ;
#109 = COORDINATED_UNIVERSAL_TIME_OFFSET ( 1, 0, .AHEAD. ) ;
#110 = CARTESIAN_POINT ( 'NONE',  ( -6.413875983078902484E-31, 1.499999999999995559, -1.837007092583824238E-16 ) ) ;
#111 = DIRECTION ( 'NONE',  ( -3.491481338843133355E-15, 1.224646799147353207E-16, -1.000000000000000000 ) ) ;
#112 = CARTESIAN_POINT ( 'NONE',  ( 1.836970198721021799E-16, -1.499999999999998668, -1.836970198721034618E-16 ) ) ;
#113 = EDGE_CURVE ( 'NONE', #285, #126, #22, .T. ) ;
#114 = APPLICATION_PROTOCOL_DEFINITION ( 'international standard', 'config_control_design', 1994, #4 ) ;
#115 = EDGE_LOOP ( 'NONE', ( #225, #301 ) ) ;
#116 = CARTESIAN_POINT ( 'NONE',  ( 0.000000000000000000, 0.000000000000000000, 0.000000000000000000 ) ) ;
#117 = ORIENTED_EDGE ( 'NONE', *, *, #61, .T. ) ;
#118 = DIRECTION ( 'NONE',  ( 1.000000000000000000, 0.000000000000000000, 0.000000000000000000 ) ) ;
#119 = APPROVAL ( #131, 'UNSPECIFIED' ) ;
#120 = AXIS2_PLACEMENT_3D ( 'NONE', #116, #165, #277 ) ;
#121 = CARTESIAN_POINT ( 'NONE',  ( 2.793185071074506684E-14, 1.499999999999995781, 8.000000000000000000 ) ) ;
#122 = SECURITY_CLASSIFICATION_LEVEL ( 'unclassified' ) ;
#123 = AXIS2_PLACEMENT_3D ( 'NONE', #209, #111, #179 ) ;
#124 = CARTESIAN_POINT ( 'NONE',  ( 1.414962237524462352E-14, -1.499999999999997780, 8.000000000000000000 ) ) ;
#125 = AXIS2_PLACEMENT_3D ( 'NONE', #211, #182, #137 ) ;
#126 = VERTEX_POINT ( 'NONE', #203 ) ;
#127 = PERSON_AND_ORGANIZATION ( #8, #290 ) ;
#128 = DIRECTION ( 'NONE',  ( -4.275831445896958607E-31, -1.000000000000000000, -1.224646799147353207E-16 ) ) ;
#129 = ORIENTED_EDGE ( 'NONE', *, *, #309, .F. ) ;
#130 = ORIENTED_EDGE ( 'NONE', *, *, #12, .F. ) ;
#131 = APPROVAL_STATUS ( 'not_yet_approved' ) ;
#132 = VERTEX_POINT ( 'NONE', #305 ) ;
#133 = LINE ( 'NONE', #21, #47 ) ;
#134 = CLOSED_SHELL ( 'NONE', ( #139, #144, #80, #83 ) ) ;
#135 = VECTOR ( 'NONE', #254, 1000.000000000000114 ) ;
#136 = EDGE_LOOP ( 'NONE', ( #238, #150, #74, #283 ) ) ;
#137 = DIRECTION ( 'NONE',  ( 0.000000000000000000, 1.000000000000000000, 0.000000000000000000 ) ) ;
#138 = CARTESIAN_POINT ( 'NONE',  ( -6.413811575962160563E-31, 2.249662264968272623E-32, -1.836988645652424251E-16 ) ) ;
#139 = ADVANCED_FACE ( 'NONE', ( #64 ), #307, .T. ) ;
#140 = CIRCLE ( 'NONE', #275, 1.200000000000001066 ) ;
#141 = ORIENTED_EDGE ( 'NONE', *, *, #271, .T. ) ;
#142 = CARTESIAN_POINT ( 'NONE',  ( 1.323178959930974653E-13, -1.200000000000005507, 38.00000000000000000 ) ) ;
#143 = LINE ( 'NONE', #18, #135 ) ;
#144 = ADVANCED_FACE ( 'NONE', ( #93 ), #268, .F. ) ;
#145 = CARTESIAN_POINT ( 'NONE',  ( 1.316288464743861212E-13, 1.499999999999996447, 37.69999999999999574 ) ) ;
#146 = PERSON_AND_ORGANIZATION ( #8, #290 ) ;
#147 = DIRECTION ( 'NONE',  ( -3.491481338843133355E-15, 1.224646799147353207E-16, -1.000000000000000000 ) ) ;
#148 = CC_DESIGN_PERSON_AND_ORGANIZATION_ASSIGNMENT ( #242, #28, ( #228 ) ) ;
#149 = CARTESIAN_POINT ( 'NONE',  ( 1.326762908760390423E-13, 8.998558695971084067E-33, 38.00000000000000000 ) ) ;
#150 = ORIENTED_EDGE ( 'NONE', *, *, #172, .T. ) ;
#151 = AXIS2_PLACEMENT_3D ( 'NONE', #152, #16, #128 ) ;
#152 = CARTESIAN_POINT ( 'NONE',  ( 2.793185071074506684E-14, 1.124819836996389237E-32, 8.000000000000000000 ) ) ;
#153 = CC_DESIGN_APPROVAL ( #226, ( #291 ) ) ;
#154 = DIRECTION ( 'NONE',  ( -3.491481338843133355E-15, 1.224646799147353207E-16, -1.000000000000000000 ) ) ;
#155 = CARTESIAN_POINT ( 'NONE',  ( 1.326762908760390423E-13, -4.653657836759941941E-15, 38.00000000000000000 ) ) ;
#156 = CARTESIAN_POINT ( 'NONE',  ( 2.793185071074506684E-14, -9.797174393178825657E-16, 8.000000000000000000 ) ) ;
#157 = VERTEX_POINT ( 'NONE', #188 ) ;
#158 = ORIENTED_EDGE ( 'NONE', *, *, #258, .F. ) ;
#159 = APPROVAL_DATE_TIME ( #310, #119 ) ;
#160 = DIRECTION ( 'NONE',  ( 4.275831445896958607E-31, 1.000000000000000000, 1.224646799147353207E-16 ) ) ;
#161 = AXIS2_PLACEMENT_3D ( 'NONE', #267, #45, #91 ) ;
#162 = ADVANCED_FACE ( 'NONE', ( #296 ), #48, .T. ) ;
#163 = CC_DESIGN_PERSON_AND_ORGANIZATION_ASSIGNMENT ( #127, #10, ( #291 ) ) ;
#164 = DIRECTION ( 'NONE',  ( 3.491481338843133355E-15, -1.224646799147353207E-16, 1.000000000000000000 ) ) ;
#165 = DIRECTION ( 'NONE',  ( -3.491481338843133355E-15, 1.224646799147353207E-16, -1.000000000000000000 ) ) ;
#166 = APPLICATION_CONTEXT ( 'configuration controlled 3d designs of mechanical parts and assemblies' ) ;
#167 = CONICAL_SURFACE ( 'NONE', #41, 1.200000000000001066, 0.7853981633974453924 ) ;
#168 = CLOSED_SHELL ( 'NONE', ( #246, #162, #206, #298, #239, #89 ) ) ;
#169 = CALENDAR_DATE ( 2023, 31, 3 ) ;
#170 = EDGE_LOOP ( 'NONE', ( #29, #207, #141, #247 ) ) ;
#171 = CARTESIAN_POINT ( 'NONE',  ( 7.996404561243767149E-14, -1.499999999999997780, 8.000000000000000000 ) ) ;
#172 = EDGE_CURVE ( 'NONE', #56, #157, #192, .T. ) ;
#173 = CARTESIAN_POINT ( 'NONE',  ( 1.316288464743861212E-13, -4.616918432785521081E-15, 37.69999999999999574 ) ) ;
#174 = ORIENTED_EDGE ( 'NONE', *, *, #1, .F. ) ;
#175 = EDGE_CURVE ( 'NONE', #66, #208, #269, .T. ) ;
#176 = DIRECTION ( 'NONE',  ( 0.000000000000000000, 1.000000000000000000, 0.000000000000000000 ) ) ;
#177 = DIRECTION ( 'NONE',  ( 0.000000000000000000, 1.000000000000000000, 0.000000000000000000 ) ) ;
#178 = ORIENTED_EDGE ( 'NONE', *, *, #113, .T. ) ;
#179 = DIRECTION ( 'NONE',  ( 4.275831445896958607E-31, 1.000000000000000000, 1.224646799147353207E-16 ) ) ;
#180 = PERSON_AND_ORGANIZATION ( #8, #290 ) ;
#181 = DATE_TIME_ROLE ( 'creation_date' ) ;
#182 = DIRECTION ( 'NONE',  ( -3.491481338843133355E-15, 1.224646799147353207E-16, -1.000000000000000000 ) ) ;
#183 =( NAMED_UNIT ( * ) SI_UNIT ( $, .STERADIAN. ) SOLID_ANGLE_UNIT ( ) );
#184 = COORDINATED_UNIVERSAL_TIME_OFFSET ( 1, 0, .AHEAD. ) ;
#185 = EDGE_CURVE ( 'NONE', #285, #208, #24, .T. ) ;
#186 = APPLICATION_PROTOCOL_DEFINITION ( 'international standard', 'config_control_design', 1994, #166 ) ;
#187 = CARTESIAN_POINT ( 'NONE',  ( 6.413747168845432655E-31, 1.499999999999998668, 1.836970198721028208E-16 ) ) ;
#188 = CARTESIAN_POINT ( 'NONE',  ( 2.793185071074506684E-14, 1.499999999999995781, 8.000000000000000000 ) ) ;
#189 = AXIS2_PLACEMENT_3D ( 'NONE', #243, #72, #218 ) ;
#190 = PLANE ( 'NONE',  #244 ) ;
#191 = CARTESIAN_POINT ( 'NONE',  ( 2.793185071074506684E-14, -9.797174393178825657E-16, 8.000000000000000000 ) ) ;
#192 = CIRCLE ( 'NONE', #78, 1.499999999999996669 ) ;
#193 = AXIS2_PLACEMENT_3D ( 'NONE', #58, #260, #196 ) ;
#194 = MECHANICAL_CONTEXT ( 'NONE', #166, 'mechanical' ) ;
#195 = PERSON_AND_ORGANIZATION ( #8, #290 ) ;
#196 = DIRECTION ( 'NONE',  ( 0.000000000000000000, 1.000000000000000000, 0.000000000000000000 ) ) ;
#197 = CC_DESIGN_DATE_AND_TIME_ASSIGNMENT ( #261, #181, ( #291 ) ) ;
#198 = SHAPE_DEFINITION_REPRESENTATION ( #304, #294 ) ;
#199 = LOCAL_TIME ( 8, 31, 43.00000000000000000, #109 ) ;
#200 = EDGE_CURVE ( 'NONE', #208, #33, #86, .T. ) ;
#201 = PERSON_AND_ORGANIZATION ( #8, #290 ) ;
#202 = ORIENTED_EDGE ( 'NONE', *, *, #175, .F. ) ;
#203 = CARTESIAN_POINT ( 'NONE',  ( 1.326762908760390423E-13, 1.199999999999996403, 38.00000000000000000 ) ) ;
#204 = AXIS2_PLACEMENT_3D ( 'NONE', #156, #44, #176 ) ;
#205 = VECTOR ( 'NONE', #75, 1000.000000000000000 ) ;
#206 = ADVANCED_FACE ( 'NONE', ( #104 ), #190, .F. ) ;
#207 = ORIENTED_EDGE ( 'NONE', *, *, #1, .T. ) ;
#208 = VERTEX_POINT ( 'NONE', #311 ) ;
#209 = CARTESIAN_POINT ( 'NONE',  ( -1.282762315192432113E-30, 4.499324529936545246E-32, -3.673977291304848502E-16 ) ) ;
#210 = EDGE_LOOP ( 'NONE', ( #251, #284 ) ) ;
#211 = CARTESIAN_POINT ( 'NONE',  ( 1.326762908760390423E-13, -4.653657836759941941E-15, 38.00000000000000000 ) ) ;
#212 = LOCAL_TIME ( 8, 31, 43.00000000000000000, #62 ) ;
#213 = EDGE_LOOP ( 'NONE', ( #286, #42 ) ) ;
#214 =( NAMED_UNIT ( * ) PLANE_ANGLE_UNIT ( ) SI_UNIT ( $, .RADIAN. ) );
#215 = EDGE_CURVE ( 'NONE', #132, #266, #108, .T. ) ;
#216 = APPROVAL_ROLE ( '' ) ;
#217 = CARTESIAN_POINT ( 'NONE',  ( 1.328232484919367446E-13, -1.200000000000005507, 38.00000000000000000 ) ) ;
#218 = DIRECTION ( 'NONE',  ( 4.275831445896958607E-31, 1.000000000000000000, 1.224646799147353207E-16 ) ) ;
#219 = VECTOR ( 'NONE', #295, 1000.000000000000000 ) ;
#220 = CC_DESIGN_PERSON_AND_ORGANIZATION_ASSIGNMENT ( #146, #255, ( #37 ) ) ;
#221 = ORIENTED_EDGE ( 'NONE', *, *, #215, .T. ) ;
#222 = FACE_OUTER_BOUND ( 'NONE', #170, .T. ) ;
#223 = DATE_AND_TIME ( #169, #3 ) ;
#224 = ORIENTED_EDGE ( 'NONE', *, *, #265, .T. ) ;
#225 = ORIENTED_EDGE ( 'NONE', *, *, #61, .F. ) ;
#226 = APPROVAL ( #264, 'UNSPECIFIED' ) ;
#227 = EDGE_LOOP ( 'NONE', ( #101, #224, #158, #130 ) ) ;
#228 = PRODUCT ( '372692', '372692', '', ( #194 ) ) ;
#229 = CALENDAR_DATE ( 2023, 31, 3 ) ;
#230 = PERSON_AND_ORGANIZATION ( #8, #290 ) ;
#231 = APPROVAL ( #280, 'UNSPECIFIED' ) ;
#232 = ORIENTED_EDGE ( 'NONE', *, *, #271, .F. ) ;
#233 = LOCAL_TIME ( 8, 31, 43.00000000000000000, #98 ) ;
#234 = AXIS2_PLACEMENT_3D ( 'NONE', #279, #53, #249 ) ;
#235 = FACE_OUTER_BOUND ( 'NONE', #115, .T. ) ;
#236 = APPROVAL_ROLE ( '' ) ;
#237 = DIRECTION ( 'NONE',  ( -3.491481338843133355E-15, 1.224646799147353207E-16, -1.000000000000000000 ) ) ;
#238 = ORIENTED_EDGE ( 'NONE', *, *, #265, .F. ) ;
#239 = ADVANCED_FACE ( 'NONE', ( #17 ), #167, .T. ) ;
#240 = DIRECTION ( 'NONE',  ( -4.275831445896958607E-31, -1.000000000000000000, -1.224646799147353207E-16 ) ) ;
#241 = DIRECTION ( 'NONE',  ( 3.491481338843133355E-15, -1.224646799147353207E-16, 1.000000000000000000 ) ) ;
#242 = PERSON_AND_ORGANIZATION ( #8, #290 ) ;
#243 = CARTESIAN_POINT ( 'NONE',  ( 0.000000000000000000, 0.000000000000000000, 0.000000000000000000 ) ) ;
#244 = AXIS2_PLACEMENT_3D ( 'NONE', #71, #164, #240 ) ;
#245 = UNCERTAINTY_MEASURE_WITH_UNIT (LENGTH_MEASURE( 1.000000000000000082E-05 ), #26, 'distance_accuracy_value', 'NONE');
#246 = ADVANCED_FACE ( 'NONE', ( #92 ), #70, .T. ) ;
#247 = ORIENTED_EDGE ( 'NONE', *, *, #97, .F. ) ;
#248 = LOCAL_TIME ( 8, 31, 43.00000000000000000, #184 ) ;
#249 = DIRECTION ( 'NONE',  ( 0.000000000000000000, 1.000000000000000000, 0.000000000000000000 ) ) ;
#250 = CIRCLE ( 'NONE', #23, 1.499999999999996669 ) ;
#251 = ORIENTED_EDGE ( 'NONE', *, *, #25, .F. ) ;
#252 = ORIENTED_EDGE ( 'NONE', *, *, #185, .F. ) ;
#253 = CYLINDRICAL_SURFACE ( 'NONE', #259, 1.499999999999996225 ) ;
#254 = DIRECTION ( 'NONE',  ( -2.468850131082271655E-15, 0.7071067811865455743, -0.7071067811865493491 ) ) ;
#255 = PERSON_AND_ORGANIZATION_ROLE ( 'design_supplier' ) ;
#256 = ORIENTED_EDGE ( 'NONE', *, *, #185, .T. ) ;
#257 = CIRCLE ( 'NONE', #193, 1.500000000000000888 ) ;
#258 = EDGE_CURVE ( 'NONE', #266, #132, #63, .T. ) ;
#259 = AXIS2_PLACEMENT_3D ( 'NONE', #35, #103, #308 ) ;
#260 = DIRECTION ( 'NONE',  ( -3.491481338843133355E-15, 1.224646799147353207E-16, -1.000000000000000000 ) ) ;
#261 = DATE_AND_TIME ( #20, #233 ) ;
#262 = DIRECTION ( 'NONE',  ( -3.491481338843133355E-15, 1.224646799147353207E-16, -1.000000000000000000 ) ) ;
#263 = LINE ( 'NONE', #40, #205 ) ;
#264 = APPROVAL_STATUS ( 'not_yet_approved' ) ;
#265 = EDGE_CURVE ( 'NONE', #56, #132, #133, .T. ) ;
#266 = VERTEX_POINT ( 'NONE', #110 ) ;
#267 = CARTESIAN_POINT ( 'NONE',  ( -1.282762315192432113E-30, 4.499324529936545246E-32, -3.673977291304848502E-16 ) ) ;
#268 = PLANE ( 'NONE',  #306 ) ;
#269 = CIRCLE ( 'NONE', #303, 1.500000000000000888 ) ;
#270 = DIRECTION ( 'NONE',  ( -3.491481338843133355E-15, 1.224646799147353207E-16, -1.000000000000000000 ) ) ;
#271 = EDGE_CURVE ( 'NONE', #66, #59, #293, .T. ) ;
#272 = DIRECTION ( 'NONE',  ( 0.000000000000000000, 1.000000000000000000, 0.000000000000000000 ) ) ;
#273 = CIRCLE ( 'NONE', #204, 1.499999999999996669 ) ;
#274 = VECTOR ( 'NONE', #88, 1000.000000000000000 ) ;
#275 = AXIS2_PLACEMENT_3D ( 'NONE', #79, #281, #57 ) ;
#276 = EDGE_LOOP ( 'NONE', ( #252, #178, #32, #174 ) ) ;
#277 = DIRECTION ( 'NONE',  ( 4.275831445896958607E-31, 1.000000000000000000, 1.224646799147353207E-16 ) ) ;
#278 = PRODUCT_RELATED_PRODUCT_CATEGORY ( 'detail', '', ( #228 ) ) ;
#279 = CARTESIAN_POINT ( 'NONE',  ( 2.793185071074506684E-14, -9.797174393178825657E-16, 8.000000000000000000 ) ) ;
#280 = APPROVAL_STATUS ( 'not_yet_approved' ) ;
#281 = DIRECTION ( 'NONE',  ( -3.491481338843133355E-15, 1.224646799147353207E-16, -1.000000000000000000 ) ) ;
#282 = CC_DESIGN_APPROVAL ( #231, ( #288 ) ) ;
#283 = ORIENTED_EDGE ( 'NONE', *, *, #215, .F. ) ;
#284 = ORIENTED_EDGE ( 'NONE', *, *, #172, .F. ) ;
#285 = VERTEX_POINT ( 'NONE', #142 ) ;
#286 = ORIENTED_EDGE ( 'NONE', *, *, #309, .T. ) ;
#287 = DATE_AND_TIME ( #36, #248 ) ;
#288 = SECURITY_CLASSIFICATION ( '', '', #122 ) ;
#289 = PLANE ( 'NONE',  #151 ) ;
#290 = ORGANIZATION ( 'UNSPECIFIED', 'UNSPECIFIED', '' ) ;
#291 = PRODUCT_DEFINITION ( 'UNKNOWN', '', #37, #5 ) ;
#292 = EDGE_LOOP ( 'NONE', ( #76, #221 ) ) ;
#293 = LINE ( 'NONE', #187, #219 ) ;
#294 = ADVANCED_BREP_SHAPE_REPRESENTATION ( '372692', ( #68, #73, #27 ), #95 ) ;
#295 = DIRECTION ( 'NONE',  ( -3.491481338843133355E-15, 1.224646799147353207E-16, -1.000000000000000000 ) ) ;
#296 = FACE_OUTER_BOUND ( 'NONE', #34, .T. ) ;
#297 = CC_DESIGN_SECURITY_CLASSIFICATION ( #288, ( #37 ) ) ;
#298 = ADVANCED_FACE ( 'NONE', ( #222 ), #77, .T. ) ;
#299 = DIRECTION ( 'NONE',  ( -3.491481338843133355E-15, 1.224646799147353207E-16, -1.000000000000000000 ) ) ;
#300 = CIRCLE ( 'NONE', #234, 1.499999999999996669 ) ;
#301 = ORIENTED_EDGE ( 'NONE', *, *, #113, .F. ) ;
#302 = APPROVAL_ROLE ( '' ) ;
#303 = AXIS2_PLACEMENT_3D ( 'NONE', #173, #237, #69 ) ;
#304 = PRODUCT_DEFINITION_SHAPE ( 'NONE', 'NONE',  #291 ) ;
#305 = CARTESIAN_POINT ( 'NONE',  ( 1.414962237524463299E-14, -1.499999999999995559, -5.510947490026367283E-16 ) ) ;
#306 = AXIS2_PLACEMENT_3D ( 'NONE', #138, #241, #312 ) ;
#307 = CYLINDRICAL_SURFACE ( 'NONE', #99, 1.499999999999996225 ) ;
#308 = DIRECTION ( 'NONE',  ( 4.275831445896958607E-31, 1.000000000000000000, 1.224646799147353207E-16 ) ) ;
#309 = EDGE_CURVE ( 'NONE', #59, #33, #300, .T. ) ;
#310 = DATE_AND_TIME ( #106, #199 ) ;
#311 = CARTESIAN_POINT ( 'NONE',  ( 7.996404561243755790E-14, -1.500000000000005551, 37.69999999999999574 ) ) ;
#312 = DIRECTION ( 'NONE',  ( -4.275831445896958607E-31, -1.000000000000000000, -1.224646799147353207E-16 ) ) ;
#313 = CC_DESIGN_PERSON_AND_ORGANIZATION_ASSIGNMENT ( #90, #81, ( #37 ) ) ;
ENDSEC;
END-ISO-10303-21;
