ISO-10303-21;
HEADER;
FILE_DESCRIPTION (( 'STEP AP203' ),
    '1' );
FILE_NAME ('372691.step',
    '2023-03-31T06:31:42',
    ( '' ),
    ( '' ),
    'SwSTEP 2.0',
    'SolidWorks 2022',
    '' );
FILE_SCHEMA (( 'CONFIG_CONTROL_DESIGN' ));
ENDSEC;

DATA;
#1 = EDGE_CURVE ( 'NONE', #74, #40, #275, .T. ) ;
#2 = PERSON_AND_ORGANIZATION ( #204, #49 ) ;
#3 = LOCAL_TIME ( 8, 31, 42.00000000000000000, #173 ) ;
#4 = DESIGN_CONTEXT ( 'detailed design', #237, 'design' ) ;
#5 = APPROVAL_DATE_TIME ( #203, #306 ) ;
#6 = ORIENTED_EDGE ( 'NONE', *, *, #212, .T. ) ;
#7 =( GEOMETRIC_REPRESENTATION_CONTEXT ( 3 ) GLOBAL_UNCERTAINTY_ASSIGNED_CONTEXT ( ( #250 ) ) GLOBAL_UNIT_ASSIGNED_CONTEXT ( ( #292, #226, #72 ) ) REPRESENTATION_CONTEXT ( 'NONE', 'WORKASPACE' ) );
#8 = CARTESIAN_POINT ( 'NONE',  ( 2.793185071074506684E-14, 1.499999999999995559, 8.000000000000000000 ) ) ;
#9 = ADVANCED_FACE ( 'NONE', ( #81 ), #253, .T. ) ;
#10 = CALENDAR_DATE ( 2023, 31, 3 ) ;
#11 = CIRCLE ( 'NONE', #196, 1.499999999999996669 ) ;
#12 = DIRECTION ( 'NONE',  ( -3.491481338843133355E-15, 1.224646799147353207E-16, -1.000000000000000000 ) ) ;
#13 = CIRCLE ( 'NONE', #197, 1.499999999999999112 ) ;
#14 = EDGE_LOOP ( 'NONE', ( #223, #61, #45, #101 ) ) ;
#15 = EDGE_LOOP ( 'NONE', ( #266, #244, #166, #273 ) ) ;
#16 = DIRECTION ( 'NONE',  ( -3.491481338843133355E-15, 1.224646799147353207E-16, -1.000000000000000000 ) ) ;
#17 = EDGE_LOOP ( 'NONE', ( #165, #236, #21, #282 ) ) ;
#18 = CARTESIAN_POINT ( 'NONE',  ( 0.000000000000000000, 0.000000000000000000, 0.000000000000000000 ) ) ;
#19 = CARTESIAN_POINT ( 'NONE',  ( 1.036969957636410417E-13, 1.499999999999995559, 29.69999999999999574 ) ) ;
#20 = AXIS2_PLACEMENT_3D ( 'NONE', #169, #134, #214 ) ;
#21 = ORIENTED_EDGE ( 'NONE', *, *, #262, .T. ) ;
#22 = ADVANCED_FACE ( 'NONE', ( #174 ), #263, .F. ) ;
#23 = CALENDAR_DATE ( 2023, 31, 3 ) ;
#24 = APPROVAL_DATE_TIME ( #146, #251 ) ;
#25 = CARTESIAN_POINT ( 'NONE',  ( 2.793185071074506684E-14, -9.797174393178825657E-16, 8.000000000000000000 ) ) ;
#26 = CARTESIAN_POINT ( 'NONE',  ( -6.413803915257459741E-31, 2.249659577954773294E-32, -1.836986451539394062E-16 ) ) ;
#27 = DIRECTION ( 'NONE',  ( 1.000000000000000000, 0.000000000000000000, 0.000000000000000000 ) ) ;
#28 = VECTOR ( 'NONE', #99, 1000.000000000000000 ) ;
#29 = CYLINDRICAL_SURFACE ( 'NONE', #92, 1.499999999999996225 ) ;
#30 = PRODUCT_DEFINITION_SHAPE ( 'NONE', 'NONE',  #93 ) ;
#31 = EDGE_CURVE ( 'NONE', #32, #74, #67, .T. ) ;
#32 = VERTEX_POINT ( 'NONE', #19 ) ;
#33 = FACE_OUTER_BOUND ( 'NONE', #17, .T. ) ;
#34 = APPROVAL_STATUS ( 'not_yet_approved' ) ;
#35 = PRODUCT_RELATED_PRODUCT_CATEGORY ( 'detail', '', ( #283 ) ) ;
#36 = CARTESIAN_POINT ( 'NONE',  ( 0.000000000000000000, 0.000000000000000000, 0.000000000000000000 ) ) ;
#37 = ORIENTED_EDGE ( 'NONE', *, *, #257, .T. ) ;
#38 = AXIS2_PLACEMENT_3D ( 'NONE', #36, #12, #126 ) ;
#39 = DIRECTION ( 'NONE',  ( -3.491481338843133355E-15, 1.224646799147353207E-16, -1.000000000000000000 ) ) ;
#40 = VERTEX_POINT ( 'NONE', #222 ) ;
#41 = COORDINATED_UNIVERSAL_TIME_OFFSET ( 1, 0, .AHEAD. ) ;
#42 = VECTOR ( 'NONE', #182, 1000.000000000000000 ) ;
#43 = MANIFOLD_SOLID_BREP ( 'Corps-Déplacer/Copier1[1]', #141 ) ;
#44 = CC_DESIGN_APPROVAL ( #251, ( #80 ) ) ;
#45 = ORIENTED_EDGE ( 'NONE', *, *, #131, .F. ) ;
#46 = DIRECTION ( 'NONE',  ( -3.491481338843133355E-15, 1.224646799147353207E-16, -1.000000000000000000 ) ) ;
#47 = CC_DESIGN_DATE_AND_TIME_ASSIGNMENT ( #121, #242, ( #93 ) ) ;
#48 = APPLICATION_PROTOCOL_DEFINITION ( 'international standard', 'config_control_design', 1994, #237 ) ;
#49 = ORGANIZATION ( 'UNSPECIFIED', 'UNSPECIFIED', '' ) ;
#50 = FACE_OUTER_BOUND ( 'NONE', #167, .T. ) ;
#51 = LOCAL_TIME ( 8, 31, 42.00000000000000000, #70 ) ;
#52 = DATE_AND_TIME ( #56, #98 ) ;
#53 = ORIENTED_EDGE ( 'NONE', *, *, #181, .T. ) ;
#54 = ADVANCED_FACE ( 'NONE', ( #199 ), #109, .T. ) ;
#55 = DIRECTION ( 'NONE',  ( 3.491481338843133355E-15, -1.224646799147353207E-16, 1.000000000000000000 ) ) ;
#56 = CALENDAR_DATE ( 2023, 31, 3 ) ;
#57 = LOCAL_TIME ( 8, 31, 42.00000000000000000, #41 ) ;
#58 = DIRECTION ( 'NONE',  ( 0.000000000000000000, 1.000000000000000000, 0.000000000000000000 ) ) ;
#59 = EDGE_CURVE ( 'NONE', #298, #304, #153, .T. ) ;
#60 = DIRECTION ( 'NONE',  ( -3.491481338843133355E-15, 1.224646799147353207E-16, -1.000000000000000000 ) ) ;
#61 = ORIENTED_EDGE ( 'NONE', *, *, #157, .T. ) ;
#62 = PERSON_AND_ORGANIZATION ( #204, #49 ) ;
#63 = DIRECTION ( 'NONE',  ( -3.491481338843133355E-15, 1.224646799147353207E-16, -1.000000000000000000 ) ) ;
#64 = ADVANCED_BREP_SHAPE_REPRESENTATION ( '372691', ( #43, #252, #280 ), #7 ) ;
#65 = CARTESIAN_POINT ( 'NONE',  ( 6.413747168845429152E-31, 1.499999999999997780, 1.836970198721027222E-16 ) ) ;
#66 = CALENDAR_DATE ( 2023, 31, 3 ) ;
#67 = LINE ( 'NONE', #65, #284 ) ;
#68 = VERTEX_POINT ( 'NONE', #71 ) ;
#69 = SECURITY_CLASSIFICATION_LEVEL ( 'unclassified' ) ;
#70 = COORDINATED_UNIVERSAL_TIME_OFFSET ( 1, 0, .AHEAD. ) ;
#71 = CARTESIAN_POINT ( 'NONE',  ( 1.043860452823524111E-13, -1.200000000000002842, 30.00000000000000000 ) ) ;
#72 =( NAMED_UNIT ( * ) SI_UNIT ( $, .STERADIAN. ) SOLID_ANGLE_UNIT ( ) );
#73 = AXIS2_PLACEMENT_3D ( 'NONE', #211, #95, #209 ) ;
#74 = VERTEX_POINT ( 'NONE', #277 ) ;
#75 = ADVANCED_FACE ( 'NONE', ( #50 ), #248, .F. ) ;
#76 = EDGE_CURVE ( 'NONE', #255, #68, #184, .T. ) ;
#77 = EDGE_LOOP ( 'NONE', ( #128, #205 ) ) ;
#78 = DIRECTION ( 'NONE',  ( 3.491481338843133355E-15, -1.224646799147353207E-16, 1.000000000000000000 ) ) ;
#79 = LINE ( 'NONE', #189, #118 ) ;
#80 = PRODUCT_DEFINITION_FORMATION_WITH_SPECIFIED_SOURCE ( 'ANY', '', #283, .NOT_KNOWN. ) ;
#81 = FACE_OUTER_BOUND ( 'NONE', #14, .T. ) ;
#82 = ADVANCED_FACE ( 'NONE', ( #123 ), #254, .T. ) ;
#83 = DIRECTION ( 'NONE',  ( 0.000000000000000000, 1.000000000000000000, 0.000000000000000000 ) ) ;
#84 = DIRECTION ( 'NONE',  ( -3.491481338843133355E-15, 1.224646799147353207E-16, -1.000000000000000000 ) ) ;
#85 = MECHANICAL_CONTEXT ( 'NONE', #302, 'mechanical' ) ;
#86 = EDGE_LOOP ( 'NONE', ( #135, #37, #279, #143 ) ) ;
#87 = ORIENTED_EDGE ( 'NONE', *, *, #183, .F. ) ;
#88 = AXIS2_PLACEMENT_3D ( 'NONE', #285, #133, #58 ) ;
#89 = CARTESIAN_POINT ( 'NONE',  ( 6.599812025706510020E-14, -1.500000000000002887, 29.69999999999999574 ) ) ;
#90 = PERSON_AND_ORGANIZATION_ROLE ( 'design_supplier' ) ;
#91 = AXIS2_PLACEMENT_3D ( 'NONE', #105, #194, #239 ) ;
#92 = AXIS2_PLACEMENT_3D ( 'NONE', #103, #39, #309 ) ;
#93 = PRODUCT_DEFINITION ( 'UNKNOWN', '', #80, #4 ) ;
#94 = CARTESIAN_POINT ( 'NONE',  ( 1.048913977811916904E-13, -1.200000000000002842, 30.00000000000000000 ) ) ;
#95 = DIRECTION ( 'NONE',  ( -3.491481338843133355E-15, 1.224646799147353207E-16, -1.000000000000000000 ) ) ;
#96 = CARTESIAN_POINT ( 'NONE',  ( 1.047444401652940007E-13, -3.673940397442059178E-15, 30.00000000000000000 ) ) ;
#97 = PLANE ( 'NONE',  #73 ) ;
#98 = LOCAL_TIME ( 8, 31, 42.00000000000000000, #144 ) ;
#99 = DIRECTION ( 'NONE',  ( -2.382254525458723780E-15, -0.7071067811865453523, -0.7071067811865496822 ) ) ;
#100 = CARTESIAN_POINT ( 'NONE',  ( 1.836970198721018841E-16, -1.499999999999996225, -1.836970198721031167E-16 ) ) ;
#101 = ORIENTED_EDGE ( 'NONE', *, *, #262, .F. ) ;
#102 = ORIENTED_EDGE ( 'NONE', *, *, #257, .F. ) ;
#103 = CARTESIAN_POINT ( 'NONE',  ( 0.000000000000000000, 0.000000000000000000, 0.000000000000000000 ) ) ;
#104 = CARTESIAN_POINT ( 'NONE',  ( 6.413747168845421269E-31, 1.499999999999996225, 1.836970198721025004E-16 ) ) ;
#105 = CARTESIAN_POINT ( 'NONE',  ( 1.047444401652940007E-13, -3.673940397442059178E-15, 30.00000000000000000 ) ) ;
#106 = CIRCLE ( 'NONE', #286, 1.199999999999999289 ) ;
#107 = DIRECTION ( 'NONE',  ( 0.000000000000000000, 1.000000000000000000, 0.000000000000000000 ) ) ;
#108 = CC_DESIGN_DATE_AND_TIME_ASSIGNMENT ( #52, #229, ( #303 ) ) ;
#109 = CYLINDRICAL_SURFACE ( 'NONE', #164, 1.499999999999997780 ) ;
#110 = CARTESIAN_POINT ( 'NONE',  ( 1.414962237524463299E-14, -1.499999999999995559, -5.510943101800306413E-16 ) ) ;
#111 = FACE_OUTER_BOUND ( 'NONE', #15, .T. ) ;
#112 = VERTEX_POINT ( 'NONE', #187 ) ;
#113 = DIRECTION ( 'NONE',  ( -3.491481338843133355E-15, 1.224646799147353207E-16, -1.000000000000000000 ) ) ;
#114 = ORIENTED_EDGE ( 'NONE', *, *, #297, .F. ) ;
#115 = DIRECTION ( 'NONE',  ( 4.275831445896958607E-31, 1.000000000000000000, 1.224646799147353207E-16 ) ) ;
#116 = PERSON_AND_ORGANIZATION_ROLE ( 'creator' ) ;
#117 = APPROVAL ( #245, 'UNSPECIFIED' ) ;
#118 = VECTOR ( 'NONE', #287, 1000.000000000000114 ) ;
#119 = CARTESIAN_POINT ( 'NONE',  ( 1.047444401652940007E-13, -3.673940397442059178E-15, 30.00000000000000000 ) ) ;
#120 = PERSON_AND_ORGANIZATION ( #204, #49 ) ;
#121 = DATE_AND_TIME ( #66, #57 ) ;
#122 = SHAPE_DEFINITION_REPRESENTATION ( #30, #64 ) ;
#123 = FACE_OUTER_BOUND ( 'NONE', #234, .T. ) ;
#124 = CIRCLE ( 'NONE', #217, 1.499999999999995559 ) ;
#125 = DIRECTION ( 'NONE',  ( 3.491481338843133355E-15, -1.224646799147353207E-16, 1.000000000000000000 ) ) ;
#126 = DIRECTION ( 'NONE',  ( 4.275831445896958607E-31, 1.000000000000000000, 1.224646799147353207E-16 ) ) ;
#127 = AXIS2_PLACEMENT_3D ( 'NONE', #213, #261, #269 ) ;
#128 = ORIENTED_EDGE ( 'NONE', *, *, #76, .F. ) ;
#129 = LINE ( 'NONE', #232, #42 ) ;
#130 = ORIENTED_EDGE ( 'NONE', *, *, #212, .F. ) ;
#131 = EDGE_CURVE ( 'NONE', #32, #311, #225, .T. ) ;
#132 = AXIS2_PLACEMENT_3D ( 'NONE', #18, #218, #310 ) ;
#133 = DIRECTION ( 'NONE',  ( -3.491481338843133355E-15, 1.224646799147353207E-16, -1.000000000000000000 ) ) ;
#134 = DIRECTION ( 'NONE',  ( -3.491481338843133355E-15, 1.224646799147353207E-16, -1.000000000000000000 ) ) ;
#135 = ORIENTED_EDGE ( 'NONE', *, *, #238, .F. ) ;
#136 = CYLINDRICAL_SURFACE ( 'NONE', #132, 1.499999999999997780 ) ;
#137 = VERTEX_POINT ( 'NONE', #8 ) ;
#138 = AXIS2_PLACEMENT_3D ( 'NONE', #308, #84, #228 ) ;
#139 = LOCAL_TIME ( 8, 31, 42.00000000000000000, #224 ) ;
#140 = APPLICATION_PROTOCOL_DEFINITION ( 'international standard', 'config_control_design', 1994, #302 ) ;
#141 = CLOSED_SHELL ( 'NONE', ( #9, #208, #22, #54, #154, #272 ) ) ;
#142 = DIRECTION ( 'NONE',  ( -3.491481338843133355E-15, 1.224646799147353207E-16, -1.000000000000000000 ) ) ;
#143 = ORIENTED_EDGE ( 'NONE', *, *, #59, .F. ) ;
#144 = COORDINATED_UNIVERSAL_TIME_OFFSET ( 1, 0, .AHEAD. ) ;
#145 = ORIENTED_EDGE ( 'NONE', *, *, #150, .F. ) ;
#146 = DATE_AND_TIME ( #271, #3 ) ;
#147 = LINE ( 'NONE', #104, #185 ) ;
#148 = PERSON_AND_ORGANIZATION ( #204, #49 ) ;
#149 = PERSON_AND_ORGANIZATION ( #204, #49 ) ;
#150 = EDGE_CURVE ( 'NONE', #311, #40, #129, .T. ) ;
#151 = CLOSED_SHELL ( 'NONE', ( #82, #75, #219, #161 ) ) ;
#152 = DIRECTION ( 'NONE',  ( 0.000000000000000000, 1.000000000000000000, 0.000000000000000000 ) ) ;
#153 = CIRCLE ( 'NONE', #138, 1.499999999999995559 ) ;
#154 = ADVANCED_FACE ( 'NONE', ( #33 ), #206, .T. ) ;
#155 = CC_DESIGN_PERSON_AND_ORGANIZATION_ASSIGNMENT ( #62, #221, ( #93 ) ) ;
#156 = ORIENTED_EDGE ( 'NONE', *, *, #179, .F. ) ;
#157 = EDGE_CURVE ( 'NONE', #68, #311, #162, .T. ) ;
#158 = DIRECTION ( 'NONE',  ( -4.275831445896958607E-31, -1.000000000000000000, -1.224646799147353207E-16 ) ) ;
#159 = AXIS2_PLACEMENT_3D ( 'NONE', #25, #142, #246 ) ;
#160 = EDGE_LOOP ( 'NONE', ( #288, #6 ) ) ;
#161 = ADVANCED_FACE ( 'NONE', ( #258 ), #233, .T. ) ;
#162 = LINE ( 'NONE', #94, #28 ) ;
#163 = DIRECTION ( 'NONE',  ( 0.000000000000000000, 1.000000000000000000, 0.000000000000000000 ) ) ;
#164 = AXIS2_PLACEMENT_3D ( 'NONE', #235, #16, #216 ) ;
#165 = ORIENTED_EDGE ( 'NONE', *, *, #157, .F. ) ;
#166 = ORIENTED_EDGE ( 'NONE', *, *, #1, .F. ) ;
#167 = EDGE_LOOP ( 'NONE', ( #188, #195 ) ) ;
#168 = DIRECTION ( 'NONE',  ( 0.000000000000000000, 0.000000000000000000, 1.000000000000000000 ) ) ;
#169 = CARTESIAN_POINT ( 'NONE',  ( 2.793185071074506684E-14, -9.797174393178825657E-16, 8.000000000000000000 ) ) ;
#170 = AXIS2_PLACEMENT_3D ( 'NONE', #119, #276, #152 ) ;
#171 = CC_DESIGN_SECURITY_CLASSIFICATION ( #303, ( #80 ) ) ;
#172 = CC_DESIGN_PERSON_AND_ORGANIZATION_ASSIGNMENT ( #175, #274, ( #283 ) ) ;
#173 = COORDINATED_UNIVERSAL_TIME_OFFSET ( 1, 0, .AHEAD. ) ;
#174 = FACE_OUTER_BOUND ( 'NONE', #160, .T. ) ;
#175 = PERSON_AND_ORGANIZATION ( #204, #49 ) ;
#176 = DIRECTION ( 'NONE',  ( -4.275831445896958607E-31, -1.000000000000000000, -1.224646799147353207E-16 ) ) ;
#177 = CARTESIAN_POINT ( 'NONE',  ( -1.282760783051491948E-30, 4.499319155909546587E-32, -3.673972903078788124E-16 ) ) ;
#178 = APPROVAL_PERSON_ORGANIZATION ( #192, #251, #293 ) ;
#179 = EDGE_CURVE ( 'NONE', #137, #112, #11, .T. ) ;
#180 = EDGE_LOOP ( 'NONE', ( #156, #102 ) ) ;
#181 = EDGE_CURVE ( 'NONE', #311, #32, #13, .T. ) ;
#182 = DIRECTION ( 'NONE',  ( -3.491481338843133355E-15, 1.224646799147353207E-16, -1.000000000000000000 ) ) ;
#183 = EDGE_CURVE ( 'NONE', #137, #304, #147, .T. ) ;
#184 = CIRCLE ( 'NONE', #170, 1.199999999999999289 ) ;
#185 = VECTOR ( 'NONE', #198, 1000.000000000000000 ) ;
#186 = CARTESIAN_POINT ( 'NONE',  ( 1.047444401652940007E-13, -3.673940397442059178E-15, 30.00000000000000000 ) ) ;
#187 = CARTESIAN_POINT ( 'NONE',  ( 1.414962237524462668E-14, -1.499999999999997558, 8.000000000000000000 ) ) ;
#188 = ORIENTED_EDGE ( 'NONE', *, *, #297, .T. ) ;
#189 = CARTESIAN_POINT ( 'NONE',  ( 1.047444401652940007E-13, 1.199999999999995515, 30.00000000000000000 ) ) ;
#190 = DIRECTION ( 'NONE',  ( -3.491481338843133355E-15, 1.224646799147353207E-16, -1.000000000000000000 ) ) ;
#191 = DIRECTION ( 'NONE',  ( -3.491481338843133355E-15, 1.224646799147353207E-16, -1.000000000000000000 ) ) ;
#192 = PERSON_AND_ORGANIZATION ( #204, #49 ) ;
#193 = CC_DESIGN_PERSON_AND_ORGANIZATION_ASSIGNMENT ( #148, #90, ( #80 ) ) ;
#194 = DIRECTION ( 'NONE',  ( -3.491481338843133355E-15, 1.224646799147353207E-16, -1.000000000000000000 ) ) ;
#195 = ORIENTED_EDGE ( 'NONE', *, *, #59, .T. ) ;
#196 = AXIS2_PLACEMENT_3D ( 'NONE', #256, #191, #265 ) ;
#197 = AXIS2_PLACEMENT_3D ( 'NONE', #243, #46, #107 ) ;
#198 = DIRECTION ( 'NONE',  ( -3.491481338843133355E-15, 1.224646799147353207E-16, -1.000000000000000000 ) ) ;
#199 = FACE_OUTER_BOUND ( 'NONE', #295, .T. ) ;
#200 = ORIENTED_EDGE ( 'NONE', *, *, #31, .T. ) ;
#201 = CC_DESIGN_PERSON_AND_ORGANIZATION_ASSIGNMENT ( #2, #270, ( #303 ) ) ;
#202 = CC_DESIGN_APPROVAL ( #306, ( #303 ) ) ;
#203 = DATE_AND_TIME ( #10, #51 ) ;
#204 = PERSON ( 'UNSPECIFIED', 'UNSPECIFIED', 'UNSPECIFIED', ('UNSPECIFIED'), ('UNSPECIFIED'), ('UNSPECIFIED') ) ;
#205 = ORIENTED_EDGE ( 'NONE', *, *, #227, .F. ) ;
#206 = CONICAL_SURFACE ( 'NONE', #278, 1.199999999999999289, 0.7853981633974453924 ) ;
#207 = VECTOR ( 'NONE', #63, 1000.000000000000000 ) ;
#208 = ADVANCED_FACE ( 'NONE', ( #111 ), #136, .T. ) ;
#209 = DIRECTION ( 'NONE',  ( 4.275831445896958607E-31, 1.000000000000000000, 1.224646799147353207E-16 ) ) ;
#210 = AXIS2_PLACEMENT_3D ( 'NONE', #301, #55, #158 ) ;
#211 = CARTESIAN_POINT ( 'NONE',  ( 1.047444401652940007E-13, 8.998558695971084067E-33, 30.00000000000000000 ) ) ;
#212 = EDGE_CURVE ( 'NONE', #40, #74, #241, .T. ) ;
#213 = CARTESIAN_POINT ( 'NONE',  ( 2.793185071074506684E-14, -9.797174393178825657E-16, 8.000000000000000000 ) ) ;
#214 = DIRECTION ( 'NONE',  ( 0.000000000000000000, 1.000000000000000000, 0.000000000000000000 ) ) ;
#215 = DIRECTION ( 'NONE',  ( -3.491481338843133355E-15, 1.224646799147353207E-16, -1.000000000000000000 ) ) ;
#216 = DIRECTION ( 'NONE',  ( 4.275831445896959482E-31, 1.000000000000000000, 1.224646799147353207E-16 ) ) ;
#217 = AXIS2_PLACEMENT_3D ( 'NONE', #177, #113, #115 ) ;
#218 = DIRECTION ( 'NONE',  ( -3.491481338843133355E-15, 1.224646799147353207E-16, -1.000000000000000000 ) ) ;
#219 = ADVANCED_FACE ( 'NONE', ( #313 ), #29, .T. ) ;
#220 = CARTESIAN_POINT ( 'NONE',  ( -6.413860661669501715E-31, 1.499999999999995559, -1.837002704357763860E-16 ) ) ;
#221 = PERSON_AND_ORGANIZATION_ROLE ( 'creator' ) ;
#222 = CARTESIAN_POINT ( 'NONE',  ( 6.599812025706515069E-14, -1.499999999999997558, 8.000000000000000000 ) ) ;
#223 = ORIENTED_EDGE ( 'NONE', *, *, #76, .T. ) ;
#224 = COORDINATED_UNIVERSAL_TIME_OFFSET ( 1, 0, .AHEAD. ) ;
#225 = CIRCLE ( 'NONE', #88, 1.499999999999999112 ) ;
#226 =( NAMED_UNIT ( * ) PLANE_ANGLE_UNIT ( ) SI_UNIT ( $, .RADIAN. ) );
#227 = EDGE_CURVE ( 'NONE', #68, #255, #106, .T. ) ;
#228 = DIRECTION ( 'NONE',  ( 4.275831445896958607E-31, 1.000000000000000000, 1.224646799147353207E-16 ) ) ;
#229 = DATE_TIME_ROLE ( 'classification_date' ) ;
#230 = CC_DESIGN_APPROVAL ( #117, ( #93 ) ) ;
#231 = FACE_OUTER_BOUND ( 'NONE', #77, .T. ) ;
#232 = CARTESIAN_POINT ( 'NONE',  ( 1.836970198721020813E-16, -1.499999999999997780, -1.836970198721033385E-16 ) ) ;
#233 = PLANE ( 'NONE',  #210 ) ;
#234 = EDGE_LOOP ( 'NONE', ( #260, #247, #114, #87 ) ) ;
#235 = CARTESIAN_POINT ( 'NONE',  ( 0.000000000000000000, 0.000000000000000000, 0.000000000000000000 ) ) ;
#236 = ORIENTED_EDGE ( 'NONE', *, *, #227, .T. ) ;
#237 = APPLICATION_CONTEXT ( 'configuration controlled 3d designs of mechanical parts and assemblies' ) ;
#238 = EDGE_CURVE ( 'NONE', #112, #298, #290, .T. ) ;
#239 = DIRECTION ( 'NONE',  ( 0.000000000000000000, 1.000000000000000000, 0.000000000000000000 ) ) ;
#240 = AXIS2_PLACEMENT_3D ( 'NONE', #291, #78, #294 ) ;
#241 = CIRCLE ( 'NONE', #159, 1.499999999999996669 ) ;
#242 = DATE_TIME_ROLE ( 'creation_date' ) ;
#243 = CARTESIAN_POINT ( 'NONE',  ( 1.036969957636410417E-13, -3.637200993467639107E-15, 29.69999999999999574 ) ) ;
#244 = ORIENTED_EDGE ( 'NONE', *, *, #150, .T. ) ;
#245 = APPROVAL_STATUS ( 'not_yet_approved' ) ;
#246 = DIRECTION ( 'NONE',  ( 0.000000000000000000, 1.000000000000000000, 0.000000000000000000 ) ) ;
#247 = ORIENTED_EDGE ( 'NONE', *, *, #238, .T. ) ;
#248 = PLANE ( 'NONE',  #259 ) ;
#249 = APPROVAL_DATE_TIME ( #296, #117 ) ;
#250 = UNCERTAINTY_MEASURE_WITH_UNIT (LENGTH_MEASURE( 1.000000000000000082E-05 ), #292, 'distance_accuracy_value', 'NONE');
#251 = APPROVAL ( #312, 'UNSPECIFIED' ) ;
#252 = MANIFOLD_SOLID_BREP ( 'Corps-Déplacer/Copier1[2]', #151 ) ;
#253 = CONICAL_SURFACE ( 'NONE', #91, 1.199999999999999289, 0.7853981633974453924 ) ;
#254 = CYLINDRICAL_SURFACE ( 'NONE', #38, 1.499999999999996225 ) ;
#255 = VERTEX_POINT ( 'NONE', #264 ) ;
#256 = CARTESIAN_POINT ( 'NONE',  ( 2.793185071074506684E-14, -9.797174393178825657E-16, 8.000000000000000000 ) ) ;
#257 = EDGE_CURVE ( 'NONE', #112, #137, #300, .T. ) ;
#258 = FACE_OUTER_BOUND ( 'NONE', #180, .T. ) ;
#259 = AXIS2_PLACEMENT_3D ( 'NONE', #26, #125, #176 ) ;
#260 = ORIENTED_EDGE ( 'NONE', *, *, #179, .T. ) ;
#261 = DIRECTION ( 'NONE',  ( -3.491481338843133355E-15, 1.224646799147353207E-16, -1.000000000000000000 ) ) ;
#262 = EDGE_CURVE ( 'NONE', #255, #32, #79, .T. ) ;
#263 = PLANE ( 'NONE',  #240 ) ;
#264 = CARTESIAN_POINT ( 'NONE',  ( 1.047444401652940007E-13, 1.199999999999995515, 30.00000000000000000 ) ) ;
#265 = DIRECTION ( 'NONE',  ( 0.000000000000000000, 1.000000000000000000, 0.000000000000000000 ) ) ;
#266 = ORIENTED_EDGE ( 'NONE', *, *, #131, .T. ) ;
#267 = APPROVAL_PERSON_ORGANIZATION ( #281, #306, #299 ) ;
#268 = CARTESIAN_POINT ( 'NONE',  ( 0.000000000000000000, 0.000000000000000000, 0.000000000000000000 ) ) ;
#269 = DIRECTION ( 'NONE',  ( 0.000000000000000000, 1.000000000000000000, 0.000000000000000000 ) ) ;
#270 = PERSON_AND_ORGANIZATION_ROLE ( 'classification_officer' ) ;
#271 = CALENDAR_DATE ( 2023, 31, 3 ) ;
#272 = ADVANCED_FACE ( 'NONE', ( #231 ), #97, .F. ) ;
#273 = ORIENTED_EDGE ( 'NONE', *, *, #31, .F. ) ;
#274 = PERSON_AND_ORGANIZATION_ROLE ( 'design_owner' ) ;
#275 = CIRCLE ( 'NONE', #127, 1.499999999999996669 ) ;
#276 = DIRECTION ( 'NONE',  ( -3.491481338843133355E-15, 1.224646799147353207E-16, -1.000000000000000000 ) ) ;
#277 = CARTESIAN_POINT ( 'NONE',  ( 2.793185071074506684E-14, 1.499999999999995559, 8.000000000000000000 ) ) ;
#278 = AXIS2_PLACEMENT_3D ( 'NONE', #96, #60, #163 ) ;
#279 = ORIENTED_EDGE ( 'NONE', *, *, #183, .T. ) ;
#280 = AXIS2_PLACEMENT_3D ( 'NONE', #268, #168, #27 ) ;
#281 = PERSON_AND_ORGANIZATION ( #204, #49 ) ;
#282 = ORIENTED_EDGE ( 'NONE', *, *, #181, .F. ) ;
#283 = PRODUCT ( '372691', '372691', '', ( #85 ) ) ;
#284 = VECTOR ( 'NONE', #190, 1000.000000000000000 ) ;
#285 = CARTESIAN_POINT ( 'NONE',  ( 1.036969957636410417E-13, -3.637200993467639107E-15, 29.69999999999999574 ) ) ;
#286 = AXIS2_PLACEMENT_3D ( 'NONE', #186, #215, #83 ) ;
#287 = DIRECTION ( 'NONE',  ( -2.468850131082271655E-15, 0.7071067811865455743, -0.7071067811865493491 ) ) ;
#288 = ORIENTED_EDGE ( 'NONE', *, *, #1, .T. ) ;
#289 = APPROVAL_ROLE ( '' ) ;
#290 = LINE ( 'NONE', #100, #207 ) ;
#291 = CARTESIAN_POINT ( 'NONE',  ( 2.793185071074506684E-14, 1.124819836996388964E-32, 8.000000000000000000 ) ) ;
#292 =( LENGTH_UNIT ( ) NAMED_UNIT ( * ) SI_UNIT ( .MILLI., .METRE. ) );
#293 = APPROVAL_ROLE ( '' ) ;
#294 = DIRECTION ( 'NONE',  ( -4.275831445896958607E-31, -1.000000000000000000, -1.224646799147353207E-16 ) ) ;
#295 = EDGE_LOOP ( 'NONE', ( #145, #53, #200, #130 ) ) ;
#296 = DATE_AND_TIME ( #23, #139 ) ;
#297 = EDGE_CURVE ( 'NONE', #304, #298, #124, .T. ) ;
#298 = VERTEX_POINT ( 'NONE', #110 ) ;
#299 = APPROVAL_ROLE ( '' ) ;
#300 = CIRCLE ( 'NONE', #20, 1.499999999999996669 ) ;
#301 = CARTESIAN_POINT ( 'NONE',  ( 2.793185071074506684E-14, 1.124819836996388964E-32, 8.000000000000000000 ) ) ;
#302 = APPLICATION_CONTEXT ( 'configuration controlled 3d designs of mechanical parts and assemblies' ) ;
#303 = SECURITY_CLASSIFICATION ( '', '', #69 ) ;
#304 = VERTEX_POINT ( 'NONE', #220 ) ;
#305 = CC_DESIGN_PERSON_AND_ORGANIZATION_ASSIGNMENT ( #120, #116, ( #80 ) ) ;
#306 = APPROVAL ( #34, 'UNSPECIFIED' ) ;
#307 = APPROVAL_PERSON_ORGANIZATION ( #149, #117, #289 ) ;
#308 = CARTESIAN_POINT ( 'NONE',  ( -1.282760783051491948E-30, 4.499319155909546587E-32, -3.673972903078788124E-16 ) ) ;
#309 = DIRECTION ( 'NONE',  ( 4.275831445896958607E-31, 1.000000000000000000, 1.224646799147353207E-16 ) ) ;
#310 = DIRECTION ( 'NONE',  ( 4.275831445896959482E-31, 1.000000000000000000, 1.224646799147353207E-16 ) ) ;
#311 = VERTEX_POINT ( 'NONE', #89 ) ;
#312 = APPROVAL_STATUS ( 'not_yet_approved' ) ;
#313 = FACE_OUTER_BOUND ( 'NONE', #86, .T. ) ;
ENDSEC;
END-ISO-10303-21;
