ISO-10303-21;
HEADER;
FILE_DESCRIPTION (( 'STEP AP203' ),
    '1' );
FILE_NAME ('372690.step',
    '2023-03-31T06:31:42',
    ( '' ),
    ( '' ),
    'SwSTEP 2.0',
    'SolidWorks 2022',
    '' );
FILE_SCHEMA (( 'CONFIG_CONTROL_DESIGN' ));
ENDSEC;

DATA;
#1 = PRODUCT_DEFINITION ( 'UNKNOWN', '', #152, #147 ) ;
#2 = VERTEX_POINT ( 'NONE', #243 ) ;
#3 = CARTESIAN_POINT ( 'NONE',  ( 1.326762908760390423E-13, -4.653657836759941941E-15, 38.00000000000000000 ) ) ;
#4 = ORIENTED_EDGE ( 'NONE', *, *, #269, .F. ) ;
#5 = CARTESIAN_POINT ( 'NONE',  ( 0.000000000000000000, 0.000000000000000000, 0.000000000000000000 ) ) ;
#6 = ORIENTED_EDGE ( 'NONE', *, *, #247, .T. ) ;
#7 = DIRECTION ( 'NONE',  ( -4.275831445896958607E-31, -1.000000000000000000, -1.224646799147353207E-16 ) ) ;
#8 = LOCAL_TIME ( 8, 31, 42.00000000000000000, #134 ) ;
#9 = CARTESIAN_POINT ( 'NONE',  ( 1.745740669421566678E-14, -6.123233995736766282E-16, 5.000000000000000000 ) ) ;
#10 = DIRECTION ( 'NONE',  ( -3.491481338843133355E-15, 1.224646799147353207E-16, -1.000000000000000000 ) ) ;
#11 = CARTESIAN_POINT ( 'NONE',  ( 1.326762908760390423E-13, 1.199999999999996403, 38.00000000000000000 ) ) ;
#12 = EDGE_CURVE ( 'NONE', #129, #135, #253, .T. ) ;
#13 = PLANE ( 'NONE',  #291 ) ;
#14 = ORIENTED_EDGE ( 'NONE', *, *, #150, .F. ) ;
#15 = AXIS2_PLACEMENT_3D ( 'NONE', #184, #202, #7 ) ;
#16 = DIRECTION ( 'NONE',  ( 0.000000000000000000, 1.000000000000000000, 0.000000000000000000 ) ) ;
#17 = APPROVAL_PERSON_ORGANIZATION ( #208, #138, #263 ) ;
#18 = PERSON_AND_ORGANIZATION_ROLE ( 'design_owner' ) ;
#19 = DIRECTION ( 'NONE',  ( -3.491481338843133355E-15, 1.224646799147353207E-16, -1.000000000000000000 ) ) ;
#20 = ORIENTED_EDGE ( 'NONE', *, *, #146, .T. ) ;
#21 = CALENDAR_DATE ( 2023, 31, 3 ) ;
#22 = DIRECTION ( 'NONE',  ( 0.000000000000000000, 1.000000000000000000, 0.000000000000000000 ) ) ;
#23 = AXIS2_PLACEMENT_3D ( 'NONE', #229, #32, #55 ) ;
#24 = VERTEX_POINT ( 'NONE', #185 ) ;
#25 = CARTESIAN_POINT ( 'NONE',  ( -1.282762315192432113E-30, 4.499324529936545246E-32, -3.673977291304848502E-16 ) ) ;
#26 = AXIS2_PLACEMENT_3D ( 'NONE', #305, #213, #88 ) ;
#27 = ADVANCED_FACE ( 'NONE', ( #181 ), #272, .T. ) ;
#28 = CC_DESIGN_DATE_AND_TIME_ASSIGNMENT ( #189, #73, ( #197 ) ) ;
#29 = ORIENTED_EDGE ( 'NONE', *, *, #122, .T. ) ;
#30 = ORIENTED_EDGE ( 'NONE', *, *, #146, .F. ) ;
#31 = LINE ( 'NONE', #116, #266 ) ;
#32 = DIRECTION ( 'NONE',  ( -3.491481338843133355E-15, 1.224646799147353207E-16, -1.000000000000000000 ) ) ;
#33 = FACE_OUTER_BOUND ( 'NONE', #237, .T. ) ;
#34 = EDGE_LOOP ( 'NONE', ( #30, #250, #29, #4 ) ) ;
#35 = VERTEX_POINT ( 'NONE', #258 ) ;
#36 = ADVANCED_FACE ( 'NONE', ( #149 ), #90, .F. ) ;
#37 = DIRECTION ( 'NONE',  ( -3.491481338843133355E-15, 1.224646799147353207E-16, -1.000000000000000000 ) ) ;
#38 = VERTEX_POINT ( 'NONE', #230 ) ;
#39 = CIRCLE ( 'NONE', #112, 1.499999999999996447 ) ;
#40 = CALENDAR_DATE ( 2023, 31, 3 ) ;
#41 = CARTESIAN_POINT ( 'NONE',  ( 1.326762908760390423E-13, -4.653657836759941941E-15, 38.00000000000000000 ) ) ;
#42 = ORIENTED_EDGE ( 'NONE', *, *, #86, .T. ) ;
#43 = COORDINATED_UNIVERSAL_TIME_OFFSET ( 1, 0, .AHEAD. ) ;
#44 = CARTESIAN_POINT ( 'NONE',  ( 1.745740669421566678E-14, -6.123233995736766282E-16, 5.000000000000000000 ) ) ;
#45 = ORIENTED_EDGE ( 'NONE', *, *, #170, .F. ) ;
#46 = CARTESIAN_POINT ( 'NONE',  ( 1.745740669421566678E-14, 1.124819836996389648E-32, 5.000000000000000000 ) ) ;
#47 = AXIS2_PLACEMENT_3D ( 'NONE', #282, #299, #192 ) ;
#48 = CC_DESIGN_APPROVAL ( #138, ( #1 ) ) ;
#49 = ORIENTED_EDGE ( 'NONE', *, *, #164, .F. ) ;
#50 = PERSON_AND_ORGANIZATION_ROLE ( 'classification_officer' ) ;
#51 = EDGE_CURVE ( 'NONE', #35, #273, #312, .T. ) ;
#52 = ORIENTED_EDGE ( 'NONE', *, *, #174, .T. ) ;
#53 = LOCAL_TIME ( 8, 31, 42.00000000000000000, #94 ) ;
#54 = CARTESIAN_POINT ( 'NONE',  ( 1.316288464743861212E-13, -4.616918432785521081E-15, 37.69999999999999574 ) ) ;
#55 = DIRECTION ( 'NONE',  ( 0.000000000000000000, 1.000000000000000000, 0.000000000000000000 ) ) ;
#56 = EDGE_LOOP ( 'NONE', ( #262, #226 ) ) ;
#57 = DIRECTION ( 'NONE',  ( -3.491481338843133355E-15, 1.224646799147353207E-16, -1.000000000000000000 ) ) ;
#58 = APPROVAL_PERSON_ORGANIZATION ( #160, #212, #153 ) ;
#59 = ORIENTED_EDGE ( 'NONE', *, *, #86, .F. ) ;
#60 = ORIENTED_EDGE ( 'NONE', *, *, #201, .T. ) ;
#61 = DIRECTION ( 'NONE',  ( 0.000000000000000000, 1.000000000000000000, 0.000000000000000000 ) ) ;
#62 = CARTESIAN_POINT ( 'NONE',  ( 6.413747168845420394E-31, 1.499999999999996003, 1.836970198721024757E-16 ) ) ;
#63 = PLANE ( 'NONE',  #15 ) ;
#64 = EDGE_CURVE ( 'NONE', #38, #159, #119, .T. ) ;
#65 = DIRECTION ( 'NONE',  ( 4.275831445896958607E-31, 1.000000000000000000, 1.224646799147353207E-16 ) ) ;
#66 = CIRCLE ( 'NONE', #97, 1.499999999999995559 ) ;
#67 = ORIENTED_EDGE ( 'NONE', *, *, #174, .F. ) ;
#68 = ORGANIZATION ( 'UNSPECIFIED', 'UNSPECIFIED', '' ) ;
#69 = EDGE_CURVE ( 'NONE', #175, #2, #285, .T. ) ;
#70 = CARTESIAN_POINT ( 'NONE',  ( 1.326762908760390423E-13, -4.653657836759941941E-15, 38.00000000000000000 ) ) ;
#71 = COORDINATED_UNIVERSAL_TIME_OFFSET ( 1, 0, .AHEAD. ) ;
#72 = MECHANICAL_CONTEXT ( 'NONE', #74, 'mechanical' ) ;
#73 = DATE_TIME_ROLE ( 'classification_date' ) ;
#74 = APPLICATION_CONTEXT ( 'configuration controlled 3d designs of mechanical parts and assemblies' ) ;
#75 = CC_DESIGN_PERSON_AND_ORGANIZATION_ASSIGNMENT ( #290, #50, ( #197 ) ) ;
#76 = AXIS2_PLACEMENT_3D ( 'NONE', #268, #167, #161 ) ;
#77 = ORIENTED_EDGE ( 'NONE', *, *, #69, .T. ) ;
#78 = PRODUCT_RELATED_PRODUCT_CATEGORY ( 'detail', '', ( #228 ) ) ;
#79 = ORIENTED_EDGE ( 'NONE', *, *, #292, .F. ) ;
#80 = DIRECTION ( 'NONE',  ( 0.000000000000000000, 1.000000000000000000, 0.000000000000000000 ) ) ;
#81 = APPROVAL_STATUS ( 'not_yet_approved' ) ;
#82 = ADVANCED_FACE ( 'NONE', ( #235 ), #63, .T. ) ;
#83 = CARTESIAN_POINT ( 'NONE',  ( 1.326762908760390423E-13, 8.998558695971084067E-33, 38.00000000000000000 ) ) ;
#84 = CARTESIAN_POINT ( 'NONE',  ( 1.836970198721021799E-16, -1.499999999999998668, -1.836970198721034618E-16 ) ) ;
#85 = CC_DESIGN_APPROVAL ( #249, ( #197 ) ) ;
#86 = EDGE_CURVE ( 'NONE', #2, #24, #106, .T. ) ;
#87 = APPROVAL_DATE_TIME ( #126, #138 ) ;
#88 = DIRECTION ( 'NONE',  ( 4.275831445896958607E-31, 1.000000000000000000, 1.224646799147353207E-16 ) ) ;
#89 = AXIS2_PLACEMENT_3D ( 'NONE', #289, #214, #123 ) ;
#90 = PLANE ( 'NONE',  #139 ) ;
#91 = CC_DESIGN_DATE_AND_TIME_ASSIGNMENT ( #108, #308, ( #1 ) ) ;
#92 = FACE_OUTER_BOUND ( 'NONE', #156, .T. ) ;
#93 = FACE_OUTER_BOUND ( 'NONE', #169, .T. ) ;
#94 = COORDINATED_UNIVERSAL_TIME_OFFSET ( 1, 0, .AHEAD. ) ;
#95 = PERSON_AND_ORGANIZATION ( #259, #68 ) ;
#96 = VECTOR ( 'NONE', #274, 1000.000000000000000 ) ;
#97 = AXIS2_PLACEMENT_3D ( 'NONE', #25, #215, #310 ) ;
#98 = CARTESIAN_POINT ( 'NONE',  ( 8.912400366979931377E-15, -1.499999999999995559, -5.510947490026183873E-16 ) ) ;
#99 = DIRECTION ( 'NONE',  ( 4.275831445896958607E-31, 1.000000000000000000, 1.224646799147353207E-16 ) ) ;
#100 = ADVANCED_FACE ( 'NONE', ( #309 ), #210, .T. ) ;
#101 = APPLICATION_PROTOCOL_DEFINITION ( 'international standard', 'config_control_design', 1994, #74 ) ;
#102 = CARTESIAN_POINT ( 'NONE',  ( 0.000000000000000000, 0.000000000000000000, 0.000000000000000000 ) ) ;
#103 = DIRECTION ( 'NONE',  ( -3.491481338843133355E-15, 1.224646799147353207E-16, -1.000000000000000000 ) ) ;
#104 = EDGE_LOOP ( 'NONE', ( #191, #227 ) ) ;
#105 = FACE_OUTER_BOUND ( 'NONE', #34, .T. ) ;
#106 = LINE ( 'NONE', #84, #233 ) ;
#107 = AXIS2_PLACEMENT_3D ( 'NONE', #41, #109, #124 ) ;
#108 = DATE_AND_TIME ( #21, #171 ) ;
#109 = DIRECTION ( 'NONE',  ( -3.491481338843133355E-15, 1.224646799147353207E-16, -1.000000000000000000 ) ) ;
#110 = PLANE ( 'NONE',  #306 ) ;
#111 = ADVANCED_FACE ( 'NONE', ( #92 ), #283, .T. ) ;
#112 = AXIS2_PLACEMENT_3D ( 'NONE', #44, #155, #16 ) ;
#113 = CC_DESIGN_APPROVAL ( #212, ( #152 ) ) ;
#114 = ORIENTED_EDGE ( 'NONE', *, *, #64, .F. ) ;
#115 = CLOSED_SHELL ( 'NONE', ( #27, #303, #239, #100, #206, #36 ) ) ;
#116 = CARTESIAN_POINT ( 'NONE',  ( 6.413747168845432655E-31, 1.499999999999998668, 1.836970198721028208E-16 ) ) ;
#117 = LINE ( 'NONE', #193, #142 ) ;
#118 = DIRECTION ( 'NONE',  ( -3.491481338843133355E-15, 1.224646799147353207E-16, -1.000000000000000000 ) ) ;
#119 = CIRCLE ( 'NONE', #107, 1.200000000000001066 ) ;
#120 = CARTESIAN_POINT ( 'NONE',  ( 0.000000000000000000, 0.000000000000000000, 0.000000000000000000 ) ) ;
#121 = COORDINATED_UNIVERSAL_TIME_OFFSET ( 1, 0, .AHEAD. ) ;
#122 = EDGE_CURVE ( 'NONE', #38, #175, #196, .T. ) ;
#123 = DIRECTION ( 'NONE',  ( 1.000000000000000000, 0.000000000000000000, 0.000000000000000000 ) ) ;
#124 = DIRECTION ( 'NONE',  ( 0.000000000000000000, 1.000000000000000000, 0.000000000000000000 ) ) ;
#125 = ORIENTED_EDGE ( 'NONE', *, *, #51, .T. ) ;
#126 = DATE_AND_TIME ( #40, #179 ) ;
#127 = DIRECTION ( 'NONE',  ( -3.491481338843133355E-15, 1.224646799147353207E-16, -1.000000000000000000 ) ) ;
#128 = DIRECTION ( 'NONE',  ( 4.275831445896958607E-31, 1.000000000000000000, 1.224646799147353207E-16 ) ) ;
#129 = VERTEX_POINT ( 'NONE', #98 ) ;
#130 = VECTOR ( 'NONE', #200, 1000.000000000000000 ) ;
#131 = DIRECTION ( 'NONE',  ( 3.491481338843133355E-15, -1.224646799147353207E-16, 1.000000000000000000 ) ) ;
#132 = CLOSED_SHELL ( 'NONE', ( #111, #221, #254, #82 ) ) ;
#133 = CALENDAR_DATE ( 2023, 31, 3 ) ;
#134 = COORDINATED_UNIVERSAL_TIME_OFFSET ( 1, 0, .AHEAD. ) ;
#135 = VERTEX_POINT ( 'NONE', #297 ) ;
#136 = VECTOR ( 'NONE', #166, 1000.000000000000114 ) ;
#137 = LOCAL_TIME ( 8, 31, 42.00000000000000000, #121 ) ;
#138 = APPROVAL ( #286, 'UNSPECIFIED' ) ;
#139 = AXIS2_PLACEMENT_3D ( 'NONE', #83, #240, #128 ) ;
#140 = ORIENTED_EDGE ( 'NONE', *, *, #12, .T. ) ;
#141 = DIRECTION ( 'NONE',  ( 0.000000000000000000, 1.000000000000000000, 0.000000000000000000 ) ) ;
#142 = VECTOR ( 'NONE', #302, 1000.000000000000000 ) ;
#143 = EDGE_CURVE ( 'NONE', #35, #135, #279, .T. ) ;
#144 =( NAMED_UNIT ( * ) PLANE_ANGLE_UNIT ( ) SI_UNIT ( $, .RADIAN. ) );
#145 = LINE ( 'NONE', #148, #130 ) ;
#146 = EDGE_CURVE ( 'NONE', #159, #2, #145, .T. ) ;
#147 = DESIGN_CONTEXT ( 'detailed design', #288, 'design' ) ;
#148 = CARTESIAN_POINT ( 'NONE',  ( 1.328232484919367446E-13, -1.200000000000005507, 38.00000000000000000 ) ) ;
#149 = FACE_OUTER_BOUND ( 'NONE', #296, .T. ) ;
#150 = EDGE_CURVE ( 'NONE', #276, #24, #300, .T. ) ;
#151 = AXIS2_PLACEMENT_3D ( 'NONE', #102, #10, #65 ) ;
#152 = PRODUCT_DEFINITION_FORMATION_WITH_SPECIFIED_SOURCE ( 'ANY', '', #228, .NOT_KNOWN. ) ;
#153 = APPROVAL_ROLE ( '' ) ;
#154 = CC_DESIGN_PERSON_AND_ORGANIZATION_ASSIGNMENT ( #95, #162, ( #152 ) ) ;
#155 = DIRECTION ( 'NONE',  ( -3.491481338843133355E-15, 1.224646799147353207E-16, -1.000000000000000000 ) ) ;
#156 = EDGE_LOOP ( 'NONE', ( #125, #52, #251, #260 ) ) ;
#157 = SHAPE_DEFINITION_REPRESENTATION ( #172, #234 ) ;
#158 = ORIENTED_EDGE ( 'NONE', *, *, #143, .T. ) ;
#159 = VERTEX_POINT ( 'NONE', #231 ) ;
#160 = PERSON_AND_ORGANIZATION ( #259, #68 ) ;
#161 = DIRECTION ( 'NONE',  ( 0.000000000000000000, 1.000000000000000000, 0.000000000000000000 ) ) ;
#162 = PERSON_AND_ORGANIZATION_ROLE ( 'creator' ) ;
#163 = AXIS2_PLACEMENT_3D ( 'NONE', #9, #223, #80 ) ;
#164 = EDGE_CURVE ( 'NONE', #24, #276, #275, .T. ) ;
#165 = CONICAL_SURFACE ( 'NONE', #241, 1.200000000000001066, 0.7853981633974453924 ) ;
#166 = DIRECTION ( 'NONE',  ( -2.468850131082271655E-15, 0.7071067811865455743, -0.7071067811865493491 ) ) ;
#167 = DIRECTION ( 'NONE',  ( -3.491481338843133355E-15, 1.224646799147353207E-16, -1.000000000000000000 ) ) ;
#168 = MANIFOLD_SOLID_BREP ( 'Corps-Déplacer/Copier1[2]', #132 ) ;
#169 = EDGE_LOOP ( 'NONE', ( #67, #60, #158, #277 ) ) ;
#170 = EDGE_CURVE ( 'NONE', #159, #38, #190, .T. ) ;
#171 = LOCAL_TIME ( 8, 31, 42.00000000000000000, #71 ) ;
#172 = PRODUCT_DEFINITION_SHAPE ( 'NONE', 'NONE',  #1 ) ;
#173 = APPROVAL_STATUS ( 'not_yet_approved' ) ;
#174 = EDGE_CURVE ( 'NONE', #273, #129, #117, .T. ) ;
#175 = VERTEX_POINT ( 'NONE', #301 ) ;
#176 = CC_DESIGN_PERSON_AND_ORGANIZATION_ASSIGNMENT ( #267, #18, ( #228 ) ) ;
#177 =( LENGTH_UNIT ( ) NAMED_UNIT ( * ) SI_UNIT ( .MILLI., .METRE. ) );
#178 = CIRCLE ( 'NONE', #222, 1.500000000000000888 ) ;
#179 = LOCAL_TIME ( 8, 31, 42.00000000000000000, #43 ) ;
#180 = PERSON_AND_ORGANIZATION_ROLE ( 'creator' ) ;
#181 = FACE_OUTER_BOUND ( 'NONE', #281, .T. ) ;
#182 = DIRECTION ( 'NONE',  ( 4.275831445896958607E-31, 1.000000000000000000, 1.224646799147353207E-16 ) ) ;
#183 = FACE_OUTER_BOUND ( 'NONE', #56, .T. ) ;
#184 = CARTESIAN_POINT ( 'NONE',  ( 1.745740669421566678E-14, 1.124819836996389648E-32, 5.000000000000000000 ) ) ;
#185 = CARTESIAN_POINT ( 'NONE',  ( 7.472682360417295253E-14, -1.499999999999996891, 5.000000000000000000 ) ) ;
#186 = CC_DESIGN_PERSON_AND_ORGANIZATION_ASSIGNMENT ( #242, #188, ( #152 ) ) ;
#187 = CYLINDRICAL_SURFACE ( 'NONE', #47, 1.499999999999996003 ) ;
#188 = PERSON_AND_ORGANIZATION_ROLE ( 'design_supplier' ) ;
#189 = DATE_AND_TIME ( #244, #8 ) ;
#190 = CIRCLE ( 'NONE', #271, 1.200000000000001066 ) ;
#191 = ORIENTED_EDGE ( 'NONE', *, *, #51, .F. ) ;
#192 = DIRECTION ( 'NONE',  ( 4.275831445896958607E-31, 1.000000000000000000, 1.224646799147353207E-16 ) ) ;
#193 = CARTESIAN_POINT ( 'NONE',  ( 1.836970198721018594E-16, -1.499999999999996003, -1.836970198721030920E-16 ) ) ;
#194 = AXIS2_PLACEMENT_3D ( 'NONE', #120, #232, #182 ) ;
#195 = UNCERTAINTY_MEASURE_WITH_UNIT (LENGTH_MEASURE( 1.000000000000000082E-05 ), #177, 'distance_accuracy_value', 'NONE');
#196 = LINE ( 'NONE', #11, #136 ) ;
#197 = SECURITY_CLASSIFICATION ( '', '', #218 ) ;
#198 = DIRECTION ( 'NONE',  ( -3.491481338843133355E-15, 1.224646799147353207E-16, -1.000000000000000000 ) ) ;
#199 = DIRECTION ( 'NONE',  ( -3.491481338843133355E-15, 1.224646799147353207E-16, -1.000000000000000000 ) ) ;
#200 = DIRECTION ( 'NONE',  ( -2.382254525458723780E-15, -0.7071067811865453523, -0.7071067811865496822 ) ) ;
#201 = EDGE_CURVE ( 'NONE', #273, #35, #39, .T. ) ;
#202 = DIRECTION ( 'NONE',  ( 3.491481338843133355E-15, -1.224646799147353207E-16, 1.000000000000000000 ) ) ;
#203 = ORIENTED_EDGE ( 'NONE', *, *, #122, .F. ) ;
#204 = AXIS2_PLACEMENT_3D ( 'NONE', #5, #118, #99 ) ;
#205 = FACE_OUTER_BOUND ( 'NONE', #224, .T. ) ;
#206 = ADVANCED_FACE ( 'NONE', ( #105 ), #165, .T. ) ;
#207 = ORIENTED_EDGE ( 'NONE', *, *, #64, .T. ) ;
#208 = PERSON_AND_ORGANIZATION ( #259, #68 ) ;
#209 = DIRECTION ( 'NONE',  ( 3.491481338843133355E-15, -1.224646799147353207E-16, 1.000000000000000000 ) ) ;
#210 = CYLINDRICAL_SURFACE ( 'NONE', #194, 1.499999999999998668 ) ;
#211 = DIRECTION ( 'NONE',  ( -4.275831445896958607E-31, -1.000000000000000000, -1.224646799147353207E-16 ) ) ;
#212 = APPROVAL ( #81, 'UNSPECIFIED' ) ;
#213 = DIRECTION ( 'NONE',  ( -3.491481338843133355E-15, 1.224646799147353207E-16, -1.000000000000000000 ) ) ;
#214 = DIRECTION ( 'NONE',  ( 0.000000000000000000, 0.000000000000000000, 1.000000000000000000 ) ) ;
#215 = DIRECTION ( 'NONE',  ( -3.491481338843133355E-15, 1.224646799147353207E-16, -1.000000000000000000 ) ) ;
#216 = DIRECTION ( 'NONE',  ( -4.275831445896958607E-31, -1.000000000000000000, -1.224646799147353207E-16 ) ) ;
#217 = APPROVAL_ROLE ( '' ) ;
#218 = SECURITY_CLASSIFICATION_LEVEL ( 'unclassified' ) ;
#219 = CC_DESIGN_SECURITY_CLASSIFICATION ( #197, ( #152 ) ) ;
#220 = ORIENTED_EDGE ( 'NONE', *, *, #69, .F. ) ;
#221 = ADVANCED_FACE ( 'NONE', ( #205 ), #13, .F. ) ;
#222 = AXIS2_PLACEMENT_3D ( 'NONE', #54, #199, #61 ) ;
#223 = DIRECTION ( 'NONE',  ( -3.491481338843133355E-15, 1.224646799147353207E-16, -1.000000000000000000 ) ) ;
#224 = EDGE_LOOP ( 'NONE', ( #6, #140 ) ) ;
#225 = CYLINDRICAL_SURFACE ( 'NONE', #204, 1.499999999999998668 ) ;
#226 = ORIENTED_EDGE ( 'NONE', *, *, #164, .T. ) ;
#227 = ORIENTED_EDGE ( 'NONE', *, *, #201, .F. ) ;
#228 = PRODUCT ( '372690', '372690', '', ( #72 ) ) ;
#229 = CARTESIAN_POINT ( 'NONE',  ( 1.745740669421566678E-14, -6.123233995736766282E-16, 5.000000000000000000 ) ) ;
#230 = CARTESIAN_POINT ( 'NONE',  ( 1.326762908760390423E-13, 1.199999999999996403, 38.00000000000000000 ) ) ;
#231 = CARTESIAN_POINT ( 'NONE',  ( 1.323178959930974653E-13, -1.200000000000005507, 38.00000000000000000 ) ) ;
#232 = DIRECTION ( 'NONE',  ( -3.491481338843133355E-15, 1.224646799147353207E-16, -1.000000000000000000 ) ) ;
#233 = VECTOR ( 'NONE', #37, 1000.000000000000000 ) ;
#234 = ADVANCED_BREP_SHAPE_REPRESENTATION ( '372690', ( #284, #168, #89 ), #294 ) ;
#235 = FACE_OUTER_BOUND ( 'NONE', #104, .T. ) ;
#236 = APPROVAL_DATE_TIME ( #264, #249 ) ;
#237 = EDGE_LOOP ( 'NONE', ( #77, #42, #14, #79 ) ) ;
#238 = PERSON_AND_ORGANIZATION ( #259, #68 ) ;
#239 = ADVANCED_FACE ( 'NONE', ( #183 ), #110, .F. ) ;
#240 = DIRECTION ( 'NONE',  ( -3.491481338843133355E-15, 1.224646799147353207E-16, -1.000000000000000000 ) ) ;
#241 = AXIS2_PLACEMENT_3D ( 'NONE', #70, #19, #287 ) ;
#242 = PERSON_AND_ORGANIZATION ( #259, #68 ) ;
#243 = CARTESIAN_POINT ( 'NONE',  ( 7.472682360417285155E-14, -1.500000000000005329, 37.69999999999999574 ) ) ;
#244 = CALENDAR_DATE ( 2023, 31, 3 ) ;
#245 = ORIENTED_EDGE ( 'NONE', *, *, #292, .T. ) ;
#246 = CARTESIAN_POINT ( 'NONE',  ( 1.745740669421566678E-14, 1.499999999999995781, 5.000000000000000000 ) ) ;
#247 = EDGE_CURVE ( 'NONE', #135, #129, #66, .T. ) ;
#248 = EDGE_LOOP ( 'NONE', ( #59, #307, #245, #49 ) ) ;
#249 = APPROVAL ( #173, 'UNSPECIFIED' ) ;
#250 = ORIENTED_EDGE ( 'NONE', *, *, #170, .T. ) ;
#251 = ORIENTED_EDGE ( 'NONE', *, *, #247, .F. ) ;
#252 = CARTESIAN_POINT ( 'NONE',  ( 1.316288464743861212E-13, -4.616918432785521081E-15, 37.69999999999999574 ) ) ;
#253 = CIRCLE ( 'NONE', #26, 1.499999999999995559 ) ;
#254 = ADVANCED_FACE ( 'NONE', ( #93 ), #187, .T. ) ;
#255 = CARTESIAN_POINT ( 'NONE',  ( -6.413811575962160563E-31, 2.249662264968272623E-32, -1.836988645652424251E-16 ) ) ;
#256 = AXIS2_PLACEMENT_3D ( 'NONE', #304, #198, #22 ) ;
#257 = APPLICATION_PROTOCOL_DEFINITION ( 'international standard', 'config_control_design', 1994, #288 ) ;
#258 = CARTESIAN_POINT ( 'NONE',  ( 1.745740669421566678E-14, 1.499999999999995781, 5.000000000000000000 ) ) ;
#259 = PERSON ( 'UNSPECIFIED', 'UNSPECIFIED', 'UNSPECIFIED', ('UNSPECIFIED'), ('UNSPECIFIED'), ('UNSPECIFIED') ) ;
#260 = ORIENTED_EDGE ( 'NONE', *, *, #143, .F. ) ;
#261 = CC_DESIGN_PERSON_AND_ORGANIZATION_ASSIGNMENT ( #238, #180, ( #1 ) ) ;
#262 = ORIENTED_EDGE ( 'NONE', *, *, #150, .T. ) ;
#263 = APPROVAL_ROLE ( '' ) ;
#264 = DATE_AND_TIME ( #133, #53 ) ;
#265 = CALENDAR_DATE ( 2023, 31, 3 ) ;
#266 = VECTOR ( 'NONE', #57, 1000.000000000000000 ) ;
#267 = PERSON_AND_ORGANIZATION ( #259, #68 ) ;
#268 = CARTESIAN_POINT ( 'NONE',  ( 1.326762908760390423E-13, -4.653657836759941941E-15, 38.00000000000000000 ) ) ;
#269 = EDGE_CURVE ( 'NONE', #2, #175, #178, .T. ) ;
#270 = PERSON_AND_ORGANIZATION ( #259, #68 ) ;
#271 = AXIS2_PLACEMENT_3D ( 'NONE', #3, #103, #141 ) ;
#272 = CONICAL_SURFACE ( 'NONE', #76, 1.200000000000001066, 0.7853981633974453924 ) ;
#273 = VERTEX_POINT ( 'NONE', #295 ) ;
#274 = DIRECTION ( 'NONE',  ( -3.491481338843133355E-15, 1.224646799147353207E-16, -1.000000000000000000 ) ) ;
#275 = CIRCLE ( 'NONE', #163, 1.499999999999996447 ) ;
#276 = VERTEX_POINT ( 'NONE', #246 ) ;
#277 = ORIENTED_EDGE ( 'NONE', *, *, #12, .F. ) ;
#278 =( NAMED_UNIT ( * ) SI_UNIT ( $, .STERADIAN. ) SOLID_ANGLE_UNIT ( ) );
#279 = LINE ( 'NONE', #62, #96 ) ;
#280 = DIRECTION ( 'NONE',  ( 0.000000000000000000, 1.000000000000000000, 0.000000000000000000 ) ) ;
#281 = EDGE_LOOP ( 'NONE', ( #207, #20, #220, #203 ) ) ;
#282 = CARTESIAN_POINT ( 'NONE',  ( 0.000000000000000000, 0.000000000000000000, 0.000000000000000000 ) ) ;
#283 = CYLINDRICAL_SURFACE ( 'NONE', #151, 1.499999999999996003 ) ;
#284 = MANIFOLD_SOLID_BREP ( 'Corps-Déplacer/Copier1[1]', #115 ) ;
#285 = CIRCLE ( 'NONE', #298, 1.500000000000000888 ) ;
#286 = APPROVAL_STATUS ( 'not_yet_approved' ) ;
#287 = DIRECTION ( 'NONE',  ( 0.000000000000000000, 1.000000000000000000, 0.000000000000000000 ) ) ;
#288 = APPLICATION_CONTEXT ( 'configuration controlled 3d designs of mechanical parts and assemblies' ) ;
#289 = CARTESIAN_POINT ( 'NONE',  ( 0.000000000000000000, 0.000000000000000000, 0.000000000000000000 ) ) ;
#290 = PERSON_AND_ORGANIZATION ( #259, #68 ) ;
#291 = AXIS2_PLACEMENT_3D ( 'NONE', #255, #209, #211 ) ;
#292 = EDGE_CURVE ( 'NONE', #175, #276, #31, .T. ) ;
#293 = APPROVAL_DATE_TIME ( #311, #212 ) ;
#294 =( GEOMETRIC_REPRESENTATION_CONTEXT ( 3 ) GLOBAL_UNCERTAINTY_ASSIGNED_CONTEXT ( ( #195 ) ) GLOBAL_UNIT_ASSIGNED_CONTEXT ( ( #177, #144, #278 ) ) REPRESENTATION_CONTEXT ( 'NONE', 'WORKASPACE' ) );
#295 = CARTESIAN_POINT ( 'NONE',  ( 8.912400366979928222E-15, -1.499999999999997113, 5.000000000000000000 ) ) ;
#296 = EDGE_LOOP ( 'NONE', ( #114, #45 ) ) ;
#297 = CARTESIAN_POINT ( 'NONE',  ( -6.413875983078902484E-31, 1.499999999999995559, -1.837007092583824238E-16 ) ) ;
#298 = AXIS2_PLACEMENT_3D ( 'NONE', #252, #127, #280 ) ;
#299 = DIRECTION ( 'NONE',  ( -3.491481338843133355E-15, 1.224646799147353207E-16, -1.000000000000000000 ) ) ;
#300 = CIRCLE ( 'NONE', #23, 1.499999999999996447 ) ;
#301 = CARTESIAN_POINT ( 'NONE',  ( 1.316288464743861212E-13, 1.499999999999996447, 37.69999999999999574 ) ) ;
#302 = DIRECTION ( 'NONE',  ( -3.491481338843133355E-15, 1.224646799147353207E-16, -1.000000000000000000 ) ) ;
#303 = ADVANCED_FACE ( 'NONE', ( #33 ), #225, .T. ) ;
#304 = CARTESIAN_POINT ( 'NONE',  ( 1.745740669421566678E-14, -6.123233995736766282E-16, 5.000000000000000000 ) ) ;
#305 = CARTESIAN_POINT ( 'NONE',  ( -1.282762315192432113E-30, 4.499324529936545246E-32, -3.673977291304848502E-16 ) ) ;
#306 = AXIS2_PLACEMENT_3D ( 'NONE', #46, #131, #216 ) ;
#307 = ORIENTED_EDGE ( 'NONE', *, *, #269, .T. ) ;
#308 = DATE_TIME_ROLE ( 'creation_date' ) ;
#309 = FACE_OUTER_BOUND ( 'NONE', #248, .T. ) ;
#310 = DIRECTION ( 'NONE',  ( 4.275831445896958607E-31, 1.000000000000000000, 1.224646799147353207E-16 ) ) ;
#311 = DATE_AND_TIME ( #265, #137 ) ;
#312 = CIRCLE ( 'NONE', #256, 1.499999999999996447 ) ;
#313 = APPROVAL_PERSON_ORGANIZATION ( #270, #249, #217 ) ;
ENDSEC;
END-ISO-10303-21;
