ISO-10303-21;
HEADER;
FILE_DESCRIPTION (( 'STEP AP203' ),
    '1' );
FILE_NAME ('372689.step',
    '2023-03-31T06:31:41',
    ( '' ),
    ( '' ),
    'SwSTEP 2.0',
    'SolidWorks 2022',
    '' );
FILE_SCHEMA (( 'CONFIG_CONTROL_DESIGN' ));
ENDSEC;

DATA;
#1 = DIRECTION ( 'NONE',  ( -2.468850131082271655E-15, 0.7071067811865455743, -0.7071067811865493491 ) ) ;
#2 = PERSON_AND_ORGANIZATION ( #10, #235 ) ;
#3 = EDGE_CURVE ( 'NONE', #167, #223, #238, .T. ) ;
#4 = ORIENTED_EDGE ( 'NONE', *, *, #124, .T. ) ;
#5 = CARTESIAN_POINT ( 'NONE',  ( 1.326762908760390423E-13, -4.653657836759941941E-15, 38.00000000000000000 ) ) ;
#6 = EDGE_LOOP ( 'NONE', ( #56, #85, #42, #267 ) ) ;
#7 = CC_DESIGN_SECURITY_CLASSIFICATION ( #119, ( #351 ) ) ;
#8 = ORIENTED_EDGE ( 'NONE', *, *, #99, .F. ) ;
#9 = DIRECTION ( 'NONE',  ( 3.491481338843133355E-15, -1.276467311168695266E-16, 1.000000000000000000 ) ) ;
#10 = PERSON ( 'UNSPECIFIED', 'UNSPECIFIED', 'UNSPECIFIED', ('UNSPECIFIED'), ('UNSPECIFIED'), ('UNSPECIFIED') ) ;
#11 = CARTESIAN_POINT ( 'NONE',  ( 8.610081678426450799E-14, -3.147800816442411500E-15, 24.66025403784433223 ) ) ;
#12 = FACE_OUTER_BOUND ( 'NONE', #159, .T. ) ;
#13 = VECTOR ( 'NONE', #314, 1000.000000000000000 ) ;
#14 = LOCAL_TIME ( 8, 31, 41.00000000000000000, #123 ) ;
#15 = ORIENTED_EDGE ( 'NONE', *, *, #178, .T. ) ;
#16 = EDGE_CURVE ( 'NONE', #66, #172, #129, .T. ) ;
#17 = ORIENTED_EDGE ( 'NONE', *, *, #99, .T. ) ;
#18 = VECTOR ( 'NONE', #1, 1000.000000000000114 ) ;
#19 = AXIS2_PLACEMENT_3D ( 'NONE', #5, #100, #333 ) ;
#20 = AXIS2_PLACEMENT_3D ( 'NONE', #279, #26, #133 ) ;
#21 = AXIS2_PLACEMENT_3D ( 'NONE', #200, #173, #233 ) ;
#22 = MECHANICAL_CONTEXT ( 'NONE', #97, 'mechanical' ) ;
#23 = ADVANCED_FACE ( 'NONE', ( #352 ), #67, .F. ) ;
#24 = DIRECTION ( 'NONE',  ( -4.456761796588771413E-31, -1.000000000000000000, -1.276467311168695512E-16 ) ) ;
#25 = DATE_TIME_ROLE ( 'creation_date' ) ;
#26 = DIRECTION ( 'NONE',  ( 3.491481338843133355E-15, -1.276467311168695266E-16, 1.000000000000000000 ) ) ;
#27 = PERSON_AND_ORGANIZATION ( #10, #235 ) ;
#28 = CARTESIAN_POINT ( 'NONE',  ( 1.326762908760390423E-13, 1.199999999999996403, 38.00000000000000000 ) ) ;
#29 = CALENDAR_DATE ( 2023, 31, 3 ) ;
#30 = ORIENTED_EDGE ( 'NONE', *, *, #242, .F. ) ;
#31 = CARTESIAN_POINT ( 'NONE',  ( 1.326762908760390423E-13, -4.653657836759941941E-15, 38.00000000000000000 ) ) ;
#32 = ORIENTED_EDGE ( 'NONE', *, *, #178, .F. ) ;
#33 = CC_DESIGN_APPROVAL ( #43, ( #239 ) ) ;
#34 = DIRECTION ( 'NONE',  ( 0.000000000000000000, -1.000000000000000000, 0.000000000000000000 ) ) ;
#35 = LOCAL_TIME ( 8, 31, 41.00000000000000000, #334 ) ;
#36 = CARTESIAN_POINT ( 'NONE',  ( 0.000000000000000000, 0.000000000000000000, 0.000000000000000000 ) ) ;
#37 = FACE_OUTER_BOUND ( 'NONE', #331, .T. ) ;
#38 = EDGE_CURVE ( 'NONE', #57, #187, #214, .T. ) ;
#39 = CARTESIAN_POINT ( 'NONE',  ( 2.094888803305880013E-14, 1.124819836996389511E-32, 6.000000000000000000 ) ) ;
#40 = ORIENTED_EDGE ( 'NONE', *, *, #327, .T. ) ;
#41 = DIRECTION ( 'NONE',  ( 0.000000000000000000, 1.000000000000000000, 0.000000000000000000 ) ) ;
#42 = ORIENTED_EDGE ( 'NONE', *, *, #16, .F. ) ;
#43 = APPROVAL ( #121, 'UNSPECIFIED' ) ;
#44 = APPROVAL_DATE_TIME ( #268, #115 ) ;
#45 = PERSON_AND_ORGANIZATION_ROLE ( 'creator' ) ;
#46 = CARTESIAN_POINT ( 'NONE',  ( -1.198479195589419821E-30, -1.249999999999999334, -3.432580842567308968E-16 ) ) ;
#47 = PERSON_AND_ORGANIZATION ( #10, #235 ) ;
#48 = CARTESIAN_POINT ( 'NONE',  ( 2.420648447061906217E-14, -8.849764081882758065E-16, 6.933012701892209861 ) ) ;
#49 = EDGE_CURVE ( 'NONE', #84, #291, #309, .T. ) ;
#50 = DIRECTION ( 'NONE',  ( 3.372511997194914833E-15, -0.2588190451025215166, 0.9659258262890679791 ) ) ;
#51 = APPROVAL_ROLE ( '' ) ;
#52 = CONICAL_SURFACE ( 'NONE', #297, 6.250000000000000000, 0.2617993877991501850 ) ;
#53 = VERTEX_POINT ( 'NONE', #354 ) ;
#54 = CARTESIAN_POINT ( 'NONE',  ( 0.000000000000000000, 0.000000000000000000, 0.000000000000000000 ) ) ;
#55 = ORIENTED_EDGE ( 'NONE', *, *, #271, .F. ) ;
#56 = ORIENTED_EDGE ( 'NONE', *, *, #49, .T. ) ;
#57 = VERTEX_POINT ( 'NONE', #276 ) ;
#58 = CARTESIAN_POINT ( 'NONE',  ( 2.094888803305880013E-14, -7.658803867012171593E-16, 6.000000000000000000 ) ) ;
#59 = APPROVAL ( #304, 'UNSPECIFIED' ) ;
#60 = CARTESIAN_POINT ( 'NONE',  ( 1.326762908760390423E-13, 1.199999999999996403, 38.00000000000000000 ) ) ;
#61 = PRODUCT ( '372689', '372689', '', ( #22 ) ) ;
#62 = ADVANCED_FACE ( 'NONE', ( #206 ), #107, .F. ) ;
#63 = CARTESIAN_POINT ( 'NONE',  ( 1.530808498934189845E-16, 1.249999999999999334, -2.414125646455773986E-17 ) ) ;
#64 = DIRECTION ( 'NONE',  ( -4.275831445896958607E-31, -1.000000000000000000, -1.224646799147353207E-16 ) ) ;
#65 = CONICAL_SURFACE ( 'NONE', #326, 1.200000000000001066, 0.7853981633974453924 ) ;
#66 = VERTEX_POINT ( 'NONE', #73 ) ;
#67 = PLANE ( 'NONE',  #21 ) ;
#68 = AXIS2_PLACEMENT_3D ( 'NONE', #251, #102, #185 ) ;
#69 = ORIENTED_EDGE ( 'NONE', *, *, #111, .F. ) ;
#70 = EDGE_CURVE ( 'NONE', #135, #167, #337, .T. ) ;
#71 = CALENDAR_DATE ( 2023, 31, 3 ) ;
#72 = PERSON_AND_ORGANIZATION ( #10, #235 ) ;
#73 = CARTESIAN_POINT ( 'NONE',  ( 2.094888803305880013E-14, -1.250000000000000444, 6.000000000000000000 ) ) ;
#74 = VECTOR ( 'NONE', #147, 1000.000000000000000 ) ;
#75 =( LENGTH_UNIT ( ) NAMED_UNIT ( * ) SI_UNIT ( .MILLI., .METRE. ) );
#76 = APPROVAL_PERSON_ORGANIZATION ( #240, #115, #292 ) ;
#77 = DIRECTION ( 'NONE',  ( 3.491481338843133355E-15, -1.276467311168695266E-16, 1.000000000000000000 ) ) ;
#78 = CALENDAR_DATE ( 2023, 31, 3 ) ;
#79 = DIRECTION ( 'NONE',  ( 4.275831445896958607E-31, 1.000000000000000000, 1.224646799147353207E-16 ) ) ;
#80 = DIRECTION ( 'NONE',  ( 3.491481338843133355E-15, -1.276467311168695266E-16, 1.000000000000000000 ) ) ;
#81 = CALENDAR_DATE ( 2023, 31, 3 ) ;
#82 = ORIENTED_EDGE ( 'NONE', *, *, #163, .F. ) ;
#83 = DIRECTION ( 'NONE',  ( -3.491481338843133355E-15, 1.224646799147353207E-16, -1.000000000000000000 ) ) ;
#84 = VERTEX_POINT ( 'NONE', #179 ) ;
#85 = ORIENTED_EDGE ( 'NONE', *, *, #192, .T. ) ;
#86 = DIRECTION ( 'NONE',  ( 3.491481338843133355E-15, -1.276467311168695266E-16, 1.000000000000000000 ) ) ;
#87 = CC_DESIGN_DATE_AND_TIME_ASSIGNMENT ( #325, #25, ( #239 ) ) ;
#88 = VECTOR ( 'NONE', #264, 1000.000000000000000 ) ;
#89 = LINE ( 'NONE', #193, #13 ) ;
#90 = ADVANCED_FACE ( 'NONE', ( #104 ), #215, .T. ) ;
#91 = LINE ( 'NONE', #63, #269 ) ;
#92 = CARTESIAN_POINT ( 'NONE',  ( 1.326762908760390423E-13, -4.653657836759941941E-15, 38.00000000000000000 ) ) ;
#93 = DIRECTION ( 'NONE',  ( 0.000000000000000000, -1.000000000000000000, 0.000000000000000000 ) ) ;
#94 = CONICAL_SURFACE ( 'NONE', #294, 1.200000000000001066, 0.7853981633974453924 ) ;
#95 = ORIENTED_EDGE ( 'NONE', *, *, #166, .T. ) ;
#96 = EDGE_CURVE ( 'NONE', #187, #257, #340, .T. ) ;
#97 = APPLICATION_CONTEXT ( 'configuration controlled 3d designs of mechanical parts and assemblies' ) ;
#98 = COORDINATED_UNIVERSAL_TIME_OFFSET ( 1, 0, .AHEAD. ) ;
#99 = EDGE_CURVE ( 'NONE', #57, #338, #184, .T. ) ;
#100 = DIRECTION ( 'NONE',  ( -3.491481338843133355E-15, 1.224646799147353207E-16, -1.000000000000000000 ) ) ;
#101 = DIRECTION ( 'NONE',  ( 0.000000000000000000, -1.000000000000000000, 0.000000000000000000 ) ) ;
#102 = DIRECTION ( 'NONE',  ( -3.491481338843133355E-15, 1.224646799147353207E-16, -1.000000000000000000 ) ) ;
#103 = ORIENTED_EDGE ( 'NONE', *, *, #161, .F. ) ;
#104 = FACE_OUTER_BOUND ( 'NONE', #342, .T. ) ;
#105 = PERSON_AND_ORGANIZATION_ROLE ( 'classification_officer' ) ;
#106 = ORIENTED_EDGE ( 'NONE', *, *, #70, .T. ) ;
#107 = PLANE ( 'NONE',  #210 ) ;
#108 = ORIENTED_EDGE ( 'NONE', *, *, #111, .T. ) ;
#109 = CYLINDRICAL_SURFACE ( 'NONE', #226, 1.499999999999998668 ) ;
#110 = DIRECTION ( 'NONE',  ( -4.275831445896958607E-31, -1.000000000000000000, -1.224646799147353207E-16 ) ) ;
#111 = EDGE_CURVE ( 'NONE', #338, #57, #336, .T. ) ;
#112 = MANIFOLD_SOLID_BREP ( 'Corps-Déplacer/Copier1[2]', #290 ) ;
#113 = AXIS2_PLACEMENT_3D ( 'NONE', #11, #137, #225 ) ;
#114 = DIRECTION ( 'NONE',  ( 3.491481338843133355E-15, -1.276467311168695266E-16, 1.000000000000000000 ) ) ;
#115 = APPROVAL ( #322, 'UNSPECIFIED' ) ;
#116 = EDGE_LOOP ( 'NONE', ( #30, #188, #106, #266 ) ) ;
#117 = EDGE_LOOP ( 'NONE', ( #108, #288, #55, #32 ) ) ;
#118 = AXIS2_PLACEMENT_3D ( 'NONE', #31, #130, #298 ) ;
#119 = SECURITY_CLASSIFICATION ( '', '', #246 ) ;
#120 = CC_DESIGN_PERSON_AND_ORGANIZATION_ASSIGNMENT ( #72, #45, ( #239 ) ) ;
#121 = APPROVAL_STATUS ( 'not_yet_approved' ) ;
#122 = CARTESIAN_POINT ( 'NONE',  ( 1.326762908760390423E-13, -4.653657836759941941E-15, 38.00000000000000000 ) ) ;
#123 = COORDINATED_UNIVERSAL_TIME_OFFSET ( 1, 0, .AHEAD. ) ;
#124 = EDGE_CURVE ( 'NONE', #84, #66, #324, .T. ) ;
#125 = AXIS2_PLACEMENT_3D ( 'NONE', #58, #114, #34 ) ;
#126 = CARTESIAN_POINT ( 'NONE',  ( 1.062752486642281585E-14, 1.249999999999998668, 6.000000000000000000 ) ) ;
#127 = PERSON_AND_ORGANIZATION ( #10, #235 ) ;
#128 = EDGE_LOOP ( 'NONE', ( #189, #157, #40, #260 ) ) ;
#129 = CIRCLE ( 'NONE', #228, 1.249999999999999556 ) ;
#130 = DIRECTION ( 'NONE',  ( -3.491481338843133355E-15, 1.224646799147353207E-16, -1.000000000000000000 ) ) ;
#131 = CALENDAR_DATE ( 2023, 31, 3 ) ;
#132 = CARTESIAN_POINT ( 'NONE',  ( 1.328232484919367446E-13, -1.200000000000005507, 38.00000000000000000 ) ) ;
#133 = DIRECTION ( 'NONE',  ( -4.456761796588773165E-31, -1.000000000000000000, -1.276467311168694772E-16 ) ) ;
#134 = ORIENTED_EDGE ( 'NONE', *, *, #161, .T. ) ;
#135 = VERTEX_POINT ( 'NONE', #300 ) ;
#136 = LOCAL_TIME ( 8, 31, 41.00000000000000000, #330 ) ;
#137 = DIRECTION ( 'NONE',  ( 3.491481338843133355E-15, -1.276467311168695266E-16, 1.000000000000000000 ) ) ;
#138 = DIRECTION ( 'NONE',  ( -3.491481338843133355E-15, 1.224646799147353207E-16, -1.000000000000000000 ) ) ;
#139 = CARTESIAN_POINT ( 'NONE',  ( 1.836970198721021799E-16, -1.499999999999998668, -1.836970198721034618E-16 ) ) ;
#140 = FACE_OUTER_BOUND ( 'NONE', #116, .T. ) ;
#141 = ORIENTED_EDGE ( 'NONE', *, *, #256, .F. ) ;
#142 = CARTESIAN_POINT ( 'NONE',  ( 1.062752486642282058E-14, 1.249999999999999112, -7.654042494671328371E-16 ) ) ;
#143 = ADVANCED_FACE ( 'NONE', ( #357 ), #274, .T. ) ;
#144 = CIRCLE ( 'NONE', #125, 1.249999999999999556 ) ;
#145 = AXIS2_PLACEMENT_3D ( 'NONE', #231, #349, #93 ) ;
#146 = VECTOR ( 'NONE', #254, 1000.000000000000000 ) ;
#147 = DIRECTION ( 'NONE',  ( 3.491481338843133355E-15, -1.276467311168695266E-16, 1.000000000000000000 ) ) ;
#148 = PERSON_AND_ORGANIZATION_ROLE ( 'creator' ) ;
#149 = CARTESIAN_POINT ( 'NONE',  ( 7.810136249237468809E-14, -1.499999999999999556, 6.933012701892209861 ) ) ;
#150 = DIRECTION ( 'NONE',  ( 0.000000000000000000, 0.000000000000000000, 1.000000000000000000 ) ) ;
#151 = AXIS2_PLACEMENT_3D ( 'NONE', #39, #190, #64 ) ;
#152 = DIRECTION ( 'NONE',  ( -3.491481338843133355E-15, 1.276467311168695266E-16, -1.000000000000000000 ) ) ;
#153 = ORIENTED_EDGE ( 'NONE', *, *, #170, .F. ) ;
#154 = ADVANCED_FACE ( 'NONE', ( #182 ), #65, .T. ) ;
#155 = DIRECTION ( 'NONE',  ( 0.000000000000000000, 1.000000000000000000, 0.000000000000000000 ) ) ;
#156 = VECTOR ( 'NONE', #50, 1000.000000000000114 ) ;
#157 = ORIENTED_EDGE ( 'NONE', *, *, #96, .T. ) ;
#158 = CC_DESIGN_DATE_AND_TIME_ASSIGNMENT ( #186, #296, ( #119 ) ) ;
#159 = EDGE_LOOP ( 'NONE', ( #234, #17, #15, #362 ) ) ;
#160 = DIRECTION ( 'NONE',  ( 3.491481338843133355E-15, -1.224646799147353207E-16, 1.000000000000000000 ) ) ;
#161 = EDGE_CURVE ( 'NONE', #172, #66, #207, .T. ) ;
#162 = CARTESIAN_POINT ( 'NONE',  ( 8.686622103373160898E-14, 6.249999999999996447, 24.66025403784433223 ) ) ;
#163 = EDGE_CURVE ( 'NONE', #135, #53, #321, .T. ) ;
#164 = CARTESIAN_POINT ( 'NONE',  ( 1.316288464743861212E-13, -4.616918432785521081E-15, 37.69999999999999574 ) ) ;
#165 = DIRECTION ( 'NONE',  ( -3.491481338843133355E-15, 1.224646799147353207E-16, -1.000000000000000000 ) ) ;
#166 = EDGE_CURVE ( 'NONE', #291, #84, #284, .T. ) ;
#167 = VERTEX_POINT ( 'NONE', #149 ) ;
#168 = AXIS2_PLACEMENT_3D ( 'NONE', #208, #77, #307 ) ;
#169 = CARTESIAN_POINT ( 'NONE',  ( 8.610081678426450799E-14, -3.147800816442411500E-15, 24.66025403784433223 ) ) ;
#170 = EDGE_CURVE ( 'NONE', #223, #167, #258, .T. ) ;
#171 = ORIENTED_EDGE ( 'NONE', *, *, #192, .F. ) ;
#172 = VERTEX_POINT ( 'NONE', #126 ) ;
#173 = DIRECTION ( 'NONE',  ( -3.491481338843133355E-15, 1.224646799147353207E-16, -1.000000000000000000 ) ) ;
#174 = SHAPE_DEFINITION_REPRESENTATION ( #263, #237 ) ;
#175 = AXIS2_PLACEMENT_3D ( 'NONE', #343, #86, #344 ) ;
#176 = PERSON_AND_ORGANIZATION_ROLE ( 'design_supplier' ) ;
#177 = APPROVAL_PERSON_ORGANIZATION ( #27, #43, #358 ) ;
#178 = EDGE_CURVE ( 'NONE', #338, #257, #361, .T. ) ;
#179 = CARTESIAN_POINT ( 'NONE',  ( -3.786585102832791150E-30, -1.249999999999999112, -1.084521077259269355E-15 ) ) ;
#180 = PERSON_AND_ORGANIZATION ( #10, #235 ) ;
#181 = CARTESIAN_POINT ( 'NONE',  ( -6.413839710158237013E-31, 0.000000000000000000, -1.836996703606440502E-16 ) ) ;
#182 = FACE_OUTER_BOUND ( 'NONE', #117, .T. ) ;
#183 = APPLICATION_PROTOCOL_DEFINITION ( 'international standard', 'config_control_design', 1994, #97 ) ;
#184 = CIRCLE ( 'NONE', #19, 1.200000000000001066 ) ;
#185 = DIRECTION ( 'NONE',  ( 0.000000000000000000, 1.000000000000000000, 0.000000000000000000 ) ) ;
#186 = DATE_AND_TIME ( #81, #35 ) ;
#187 = VERTEX_POINT ( 'NONE', #211 ) ;
#188 = ORIENTED_EDGE ( 'NONE', *, *, #256, .T. ) ;
#189 = ORIENTED_EDGE ( 'NONE', *, *, #194, .F. ) ;
#190 = DIRECTION ( 'NONE',  ( 3.491481338843133355E-15, -1.224646799147353207E-16, 1.000000000000000000 ) ) ;
#191 = AXIS2_PLACEMENT_3D ( 'NONE', #181, #80, #24 ) ;
#192 = EDGE_CURVE ( 'NONE', #291, #172, #91, .T. ) ;
#193 = CARTESIAN_POINT ( 'NONE',  ( 6.413747168845432655E-31, 1.499999999999998668, 1.836970198721028208E-16 ) ) ;
#194 = EDGE_CURVE ( 'NONE', #187, #167, #286, .T. ) ;
#195 = PLANE ( 'NONE',  #218 ) ;
#196 = CC_DESIGN_PERSON_AND_ORGANIZATION_ASSIGNMENT ( #127, #301, ( #61 ) ) ;
#197 = DIRECTION ( 'NONE',  ( -3.491481338843133355E-15, 1.224646799147353207E-16, -1.000000000000000000 ) ) ;
#198 = CARTESIAN_POINT ( 'NONE',  ( 2.094888803305880013E-14, -7.658803867012171593E-16, 6.000000000000000000 ) ) ;
#199 = APPROVAL_PERSON_ORGANIZATION ( #180, #59, #51 ) ;
#200 = CARTESIAN_POINT ( 'NONE',  ( 1.326762908760390423E-13, 8.998558695971084067E-33, 38.00000000000000000 ) ) ;
#201 = ORIENTED_EDGE ( 'NONE', *, *, #16, .T. ) ;
#202 = DIRECTION ( 'NONE',  ( 3.491481338843133355E-15, -1.276467311168695266E-16, 1.000000000000000000 ) ) ;
#203 = DIRECTION ( 'NONE',  ( -4.456761796588773165E-31, -1.000000000000000000, -1.276467311168694772E-16 ) ) ;
#204 =( NAMED_UNIT ( * ) PLANE_ANGLE_UNIT ( ) SI_UNIT ( $, .RADIAN. ) );
#205 = ADVANCED_FACE ( 'NONE', ( #37 ), #195, .F. ) ;
#206 = FACE_OUTER_BOUND ( 'NONE', #320, .T. ) ;
#207 = CIRCLE ( 'NONE', #313, 1.249999999999999556 ) ;
#208 = CARTESIAN_POINT ( 'NONE',  ( 2.094888803305880013E-14, -7.658803867012171593E-16, 6.000000000000000000 ) ) ;
#209 =( NAMED_UNIT ( * ) SI_UNIT ( $, .STERADIAN. ) SOLID_ANGLE_UNIT ( ) );
#210 = AXIS2_PLACEMENT_3D ( 'NONE', #219, #255, #248 ) ;
#211 = CARTESIAN_POINT ( 'NONE',  ( 7.810136249237454925E-14, -1.500000000000005329, 37.69999999999999574 ) ) ;
#212 = APPLICATION_PROTOCOL_DEFINITION ( 'international standard', 'config_control_design', 1994, #363 ) ;
#213 = EDGE_LOOP ( 'NONE', ( #201, #134 ) ) ;
#214 = LINE ( 'NONE', #132, #146 ) ;
#215 = CYLINDRICAL_SURFACE ( 'NONE', #222, 1.499999999999998668 ) ;
#216 = DATE_AND_TIME ( #131, #14 ) ;
#217 = EDGE_LOOP ( 'NONE', ( #171, #95, #4, #103 ) ) ;
#218 = AXIS2_PLACEMENT_3D ( 'NONE', #312, #160, #110 ) ;
#219 = CARTESIAN_POINT ( 'NONE',  ( 2.094888803305880013E-14, 1.124819836996389511E-32, 6.000000000000000000 ) ) ;
#220 = ORIENTED_EDGE ( 'NONE', *, *, #271, .T. ) ;
#221 = CLOSED_SHELL ( 'NONE', ( #293, #154, #90, #280, #229, #23, #353, #62 ) ) ;
#222 = AXIS2_PLACEMENT_3D ( 'NONE', #54, #83, #79 ) ;
#223 = VERTEX_POINT ( 'NONE', #224 ) ;
#224 = CARTESIAN_POINT ( 'NONE',  ( 7.791766547250264848E-14, 1.499999999999997780, 6.933012701892209861 ) ) ;
#225 = DIRECTION ( 'NONE',  ( 0.000000000000000000, -1.000000000000000000, 0.000000000000000000 ) ) ;
#226 = AXIS2_PLACEMENT_3D ( 'NONE', #36, #197, #227 ) ;
#227 = DIRECTION ( 'NONE',  ( 4.275831445896958607E-31, 1.000000000000000000, 1.224646799147353207E-16 ) ) ;
#228 = AXIS2_PLACEMENT_3D ( 'NONE', #198, #202, #236 ) ;
#229 = ADVANCED_FACE ( 'NONE', ( #12 ), #94, .T. ) ;
#230 = FACE_OUTER_BOUND ( 'NONE', #128, .T. ) ;
#231 = CARTESIAN_POINT ( 'NONE',  ( 2.420648447061906217E-14, -8.849764081882758065E-16, 6.933012701892209861 ) ) ;
#232 = PRODUCT_RELATED_PRODUCT_CATEGORY ( 'detail', '', ( #61 ) ) ;
#233 = DIRECTION ( 'NONE',  ( 4.275831445896958607E-31, 1.000000000000000000, 1.224646799147353207E-16 ) ) ;
#234 = ORIENTED_EDGE ( 'NONE', *, *, #38, .F. ) ;
#235 = ORGANIZATION ( 'UNSPECIFIED', 'UNSPECIFIED', '' ) ;
#236 = DIRECTION ( 'NONE',  ( 0.000000000000000000, -1.000000000000000000, 0.000000000000000000 ) ) ;
#237 = ADVANCED_BREP_SHAPE_REPRESENTATION ( '372689', ( #360, #112, #355 ), #306 ) ;
#238 = CIRCLE ( 'NONE', #145, 1.499999999999998668 ) ;
#239 = PRODUCT_DEFINITION ( 'UNKNOWN', '', #351, #283 ) ;
#240 = PERSON_AND_ORGANIZATION ( #10, #235 ) ;
#241 = LOCAL_TIME ( 8, 31, 41.00000000000000000, #249 ) ;
#242 = EDGE_CURVE ( 'NONE', #53, #223, #262, .T. ) ;
#243 = APPROVAL_DATE_TIME ( #277, #43 ) ;
#244 = CC_DESIGN_PERSON_AND_ORGANIZATION_ASSIGNMENT ( #47, #148, ( #351 ) ) ;
#245 = DIRECTION ( 'NONE',  ( -3.491481338843133355E-15, 1.224646799147353207E-16, -1.000000000000000000 ) ) ;
#246 = SECURITY_CLASSIFICATION_LEVEL ( 'unclassified' ) ;
#247 = AXIS2_PLACEMENT_3D ( 'NONE', #48, #152, #275 ) ;
#248 = DIRECTION ( 'NONE',  ( -4.275831445896958607E-31, -1.000000000000000000, -1.224646799147353207E-16 ) ) ;
#249 = COORDINATED_UNIVERSAL_TIME_OFFSET ( 1, 0, .AHEAD. ) ;
#250 = ORIENTED_EDGE ( 'NONE', *, *, #327, .F. ) ;
#251 = CARTESIAN_POINT ( 'NONE',  ( 1.316288464743861212E-13, -4.616918432785521081E-15, 37.69999999999999574 ) ) ;
#252 = PERSON_AND_ORGANIZATION ( #10, #235 ) ;
#253 = EDGE_LOOP ( 'NONE', ( #278, #335, #281, #305 ) ) ;
#254 = DIRECTION ( 'NONE',  ( -2.382254525458723780E-15, -0.7071067811865453523, -0.7071067811865496822 ) ) ;
#255 = DIRECTION ( 'NONE',  ( 3.491481338843133355E-15, -1.224646799147353207E-16, 1.000000000000000000 ) ) ;
#256 = EDGE_CURVE ( 'NONE', #53, #135, #144, .T. ) ;
#257 = VERTEX_POINT ( 'NONE', #348 ) ;
#258 = CIRCLE ( 'NONE', #247, 1.499999999999998668 ) ;
#259 = LOCAL_TIME ( 8, 31, 41.00000000000000000, #98 ) ;
#260 = ORIENTED_EDGE ( 'NONE', *, *, #3, .F. ) ;
#261 = FACE_OUTER_BOUND ( 'NONE', #217, .T. ) ;
#262 = LINE ( 'NONE', #162, #359 ) ;
#263 = PRODUCT_DEFINITION_SHAPE ( 'NONE', 'NONE',  #239 ) ;
#264 = DIRECTION ( 'NONE',  ( -3.491481338843133355E-15, 1.224646799147353207E-16, -1.000000000000000000 ) ) ;
#265 = DIRECTION ( 'NONE',  ( 3.491481338843133355E-15, -1.276467311168695266E-16, 1.000000000000000000 ) ) ;
#266 = ORIENTED_EDGE ( 'NONE', *, *, #3, .T. ) ;
#267 = ORIENTED_EDGE ( 'NONE', *, *, #124, .F. ) ;
#268 = DATE_AND_TIME ( #71, #259 ) ;
#269 = VECTOR ( 'NONE', #9, 1000.000000000000000 ) ;
#270 = DIRECTION ( 'NONE',  ( 3.491481338843133355E-15, -1.276467311168695266E-16, 1.000000000000000000 ) ) ;
#271 = EDGE_CURVE ( 'NONE', #257, #187, #272, .T. ) ;
#272 = CIRCLE ( 'NONE', #345, 1.500000000000000888 ) ;
#273 = CC_DESIGN_APPROVAL ( #59, ( #351 ) ) ;
#274 = CYLINDRICAL_SURFACE ( 'NONE', #191, 1.249999999999999334 ) ;
#275 = DIRECTION ( 'NONE',  ( -3.552713678800500929E-14, -1.000000000000000000, 0.000000000000000000 ) ) ;
#276 = CARTESIAN_POINT ( 'NONE',  ( 1.323178959930974653E-13, -1.200000000000005507, 38.00000000000000000 ) ) ;
#277 = DATE_AND_TIME ( #78, #241 ) ;
#278 = ORIENTED_EDGE ( 'NONE', *, *, #163, .T. ) ;
#279 = CARTESIAN_POINT ( 'NONE',  ( -3.229489878259195468E-30, 9.461979795468095855E-32, -9.249626633631825086E-16 ) ) ;
#280 = ADVANCED_FACE ( 'NONE', ( #230 ), #109, .T. ) ;
#281 = ORIENTED_EDGE ( 'NONE', *, *, #170, .T. ) ;
#282 = DIRECTION ( 'NONE',  ( 3.404208188709233130E-15, 0.2588190451025213501, 0.9659258262890680902 ) ) ;
#283 = DESIGN_CONTEXT ( 'detailed design', #363, 'design' ) ;
#284 = CIRCLE ( 'NONE', #20, 1.249999999999999112 ) ;
#285 = DIRECTION ( 'NONE',  ( 0.000000000000000000, 1.000000000000000000, 0.000000000000000000 ) ) ;
#286 = LINE ( 'NONE', #139, #88 ) ;
#287 = CYLINDRICAL_SURFACE ( 'NONE', #175, 1.249999999999999334 ) ;
#288 = ORIENTED_EDGE ( 'NONE', *, *, #38, .T. ) ;
#289 = DIRECTION ( 'NONE',  ( 0.000000000000000000, -1.000000000000000000, 0.000000000000000000 ) ) ;
#290 = CLOSED_SHELL ( 'NONE', ( #143, #302, #295, #205 ) ) ;
#291 = VERTEX_POINT ( 'NONE', #142 ) ;
#292 = APPROVAL_ROLE ( '' ) ;
#293 = ADVANCED_FACE ( 'NONE', ( #346 ), #318, .T. ) ;
#294 = AXIS2_PLACEMENT_3D ( 'NONE', #92, #165, #41 ) ;
#295 = ADVANCED_FACE ( 'NONE', ( #261 ), #287, .T. ) ;
#296 = DATE_TIME_ROLE ( 'classification_date' ) ;
#297 = AXIS2_PLACEMENT_3D ( 'NONE', #169, #265, #289 ) ;
#298 = DIRECTION ( 'NONE',  ( 0.000000000000000000, 1.000000000000000000, 0.000000000000000000 ) ) ;
#299 = APPROVAL_DATE_TIME ( #216, #59 ) ;
#300 = CARTESIAN_POINT ( 'NONE',  ( 2.094888803305880013E-14, -1.250000000000000444, 6.000000000000000000 ) ) ;
#301 = PERSON_AND_ORGANIZATION_ROLE ( 'design_owner' ) ;
#302 = ADVANCED_FACE ( 'NONE', ( #317 ), #316, .T. ) ;
#303 = DIRECTION ( 'NONE',  ( 3.491481338843133355E-15, -1.276467311168695266E-16, 1.000000000000000000 ) ) ;
#304 = APPROVAL_STATUS ( 'not_yet_approved' ) ;
#305 = ORIENTED_EDGE ( 'NONE', *, *, #70, .F. ) ;
#306 =( GEOMETRIC_REPRESENTATION_CONTEXT ( 3 ) GLOBAL_UNCERTAINTY_ASSIGNED_CONTEXT ( ( #341 ) ) GLOBAL_UNIT_ASSIGNED_CONTEXT ( ( #75, #204, #209 ) ) REPRESENTATION_CONTEXT ( 'NONE', 'WORKASPACE' ) );
#307 = DIRECTION ( 'NONE',  ( 0.000000000000000000, -1.000000000000000000, 0.000000000000000000 ) ) ;
#308 = ORIENTED_EDGE ( 'NONE', *, *, #49, .F. ) ;
#309 = CIRCLE ( 'NONE', #347, 1.249999999999999112 ) ;
#310 = EDGE_LOOP ( 'NONE', ( #69, #8 ) ) ;
#311 = ORIENTED_EDGE ( 'NONE', *, *, #166, .F. ) ;
#312 = CARTESIAN_POINT ( 'NONE',  ( -6.413811575962160563E-31, 2.249662264968272623E-32, -1.836988645652424251E-16 ) ) ;
#313 = AXIS2_PLACEMENT_3D ( 'NONE', #328, #303, #101 ) ;
#314 = DIRECTION ( 'NONE',  ( -3.491481338843133355E-15, 1.224646799147353207E-16, -1.000000000000000000 ) ) ;
#315 = CC_DESIGN_PERSON_AND_ORGANIZATION_ASSIGNMENT ( #2, #105, ( #119 ) ) ;
#316 = PLANE ( 'NONE',  #151 ) ;
#317 = FACE_OUTER_BOUND ( 'NONE', #213, .T. ) ;
#318 = CONICAL_SURFACE ( 'NONE', #113, 6.250000000000000000, 0.2617993877991501850 ) ;
#319 = CC_DESIGN_APPROVAL ( #115, ( #119 ) ) ;
#320 = EDGE_LOOP ( 'NONE', ( #82, #141 ) ) ;
#321 = CIRCLE ( 'NONE', #168, 1.249999999999999556 ) ;
#322 = APPROVAL_STATUS ( 'not_yet_approved' ) ;
#323 = DIRECTION ( 'NONE',  ( 1.000000000000000000, 0.000000000000000000, 0.000000000000000000 ) ) ;
#324 = LINE ( 'NONE', #46, #74 ) ;
#325 = DATE_AND_TIME ( #29, #136 ) ;
#326 = AXIS2_PLACEMENT_3D ( 'NONE', #122, #245, #155 ) ;
#327 = EDGE_CURVE ( 'NONE', #257, #223, #89, .T. ) ;
#328 = CARTESIAN_POINT ( 'NONE',  ( 2.094888803305880013E-14, -7.658803867012171593E-16, 6.000000000000000000 ) ) ;
#329 = CARTESIAN_POINT ( 'NONE',  ( 8.610081678426450799E-14, -6.250000000000003553, 24.66025403784433223 ) ) ;
#330 = COORDINATED_UNIVERSAL_TIME_OFFSET ( 1, 0, .AHEAD. ) ;
#331 = EDGE_LOOP ( 'NONE', ( #308, #311 ) ) ;
#332 = CARTESIAN_POINT ( 'NONE',  ( -3.229489878259195468E-30, 9.461979795468095855E-32, -9.249626633631825086E-16 ) ) ;
#333 = DIRECTION ( 'NONE',  ( 0.000000000000000000, 1.000000000000000000, 0.000000000000000000 ) ) ;
#334 = COORDINATED_UNIVERSAL_TIME_OFFSET ( 1, 0, .AHEAD. ) ;
#335 = ORIENTED_EDGE ( 'NONE', *, *, #242, .T. ) ;
#336 = CIRCLE ( 'NONE', #118, 1.200000000000001066 ) ;
#337 = LINE ( 'NONE', #329, #156 ) ;
#338 = VERTEX_POINT ( 'NONE', #60 ) ;
#339 = CC_DESIGN_PERSON_AND_ORGANIZATION_ASSIGNMENT ( #252, #176, ( #351 ) ) ;
#340 = CIRCLE ( 'NONE', #68, 1.500000000000000888 ) ;
#341 = UNCERTAINTY_MEASURE_WITH_UNIT (LENGTH_MEASURE( 1.000000000000000082E-05 ), #75, 'distance_accuracy_value', 'NONE');
#342 = EDGE_LOOP ( 'NONE', ( #220, #350, #153, #250 ) ) ;
#343 = CARTESIAN_POINT ( 'NONE',  ( -6.413839710158237013E-31, 0.000000000000000000, -1.836996703606440502E-16 ) ) ;
#344 = DIRECTION ( 'NONE',  ( -4.456761796588771413E-31, -1.000000000000000000, -1.276467311168695512E-16 ) ) ;
#345 = AXIS2_PLACEMENT_3D ( 'NONE', #164, #138, #285 ) ;
#346 = FACE_OUTER_BOUND ( 'NONE', #253, .T. ) ;
#347 = AXIS2_PLACEMENT_3D ( 'NONE', #332, #270, #203 ) ;
#348 = CARTESIAN_POINT ( 'NONE',  ( 1.316288464743861212E-13, 1.499999999999996447, 37.69999999999999574 ) ) ;
#349 = DIRECTION ( 'NONE',  ( -3.491481338843133355E-15, 1.276467311168695266E-16, -1.000000000000000000 ) ) ;
#350 = ORIENTED_EDGE ( 'NONE', *, *, #194, .T. ) ;
#351 = PRODUCT_DEFINITION_FORMATION_WITH_SPECIFIED_SOURCE ( 'ANY', '', #61, .NOT_KNOWN. ) ;
#352 = FACE_OUTER_BOUND ( 'NONE', #310, .T. ) ;
#353 = ADVANCED_FACE ( 'NONE', ( #140 ), #52, .T. ) ;
#354 = CARTESIAN_POINT ( 'NONE',  ( 2.274607518672169198E-14, 1.249999999999998668, 6.000000000000000000 ) ) ;
#355 = AXIS2_PLACEMENT_3D ( 'NONE', #356, #150, #323 ) ;
#356 = CARTESIAN_POINT ( 'NONE',  ( 0.000000000000000000, 0.000000000000000000, 0.000000000000000000 ) ) ;
#357 = FACE_OUTER_BOUND ( 'NONE', #6, .T. ) ;
#358 = APPROVAL_ROLE ( '' ) ;
#359 = VECTOR ( 'NONE', #282, 1000.000000000000000 ) ;
#360 = MANIFOLD_SOLID_BREP ( 'Corps-Déplacer/Copier1[1]', #221 ) ;
#361 = LINE ( 'NONE', #28, #18 ) ;
#362 = ORIENTED_EDGE ( 'NONE', *, *, #96, .F. ) ;
#363 = APPLICATION_CONTEXT ( 'configuration controlled 3d designs of mechanical parts and assemblies' ) ;
ENDSEC;
END-ISO-10303-21;
