ISO-10303-21;
HEADER;
FILE_DESCRIPTION (( 'STEP AP203' ),
    '1' );
FILE_NAME ('372688.step',
    '2023-03-31T06:31:41',
    ( '' ),
    ( '' ),
    'SwSTEP 2.0',
    'SolidWorks 2022',
    '' );
FILE_SCHEMA (( 'CONFIG_CONTROL_DESIGN' ));
ENDSEC;

DATA;
#1 = ORIENTED_EDGE ( 'NONE', *, *, #170, .T. ) ;
#2 = ADVANCED_FACE ( 'NONE', ( #173 ), #205, .T. ) ;
#3 = CARTESIAN_POINT ( 'NONE',  ( 0.000000000000000000, 0.000000000000000000, 0.000000000000000000 ) ) ;
#4 = CIRCLE ( 'NONE', #146, 1.499999999999999334 ) ;
#5 = CYLINDRICAL_SURFACE ( 'NONE', #174, 1.499999999999997780 ) ;
#6 = VERTEX_POINT ( 'NONE', #9 ) ;
#7 =( LENGTH_UNIT ( ) NAMED_UNIT ( * ) SI_UNIT ( .MILLI., .METRE. ) );
#8 = AXIS2_PLACEMENT_3D ( 'NONE', #47, #76, #158 ) ;
#9 = CARTESIAN_POINT ( 'NONE',  ( 6.395174011713008981E-14, 1.499999999999996891, 6.933012701892206309 ) ) ;
#10 = AXIS2_PLACEMENT_3D ( 'NONE', #276, #358, #123 ) ;
#11 = ADVANCED_FACE ( 'NONE', ( #108 ), #292, .F. ) ;
#12 = CARTESIAN_POINT ( 'NONE',  ( 2.094888803305880013E-14, -7.658803867012171593E-16, 6.000000000000000000 ) ) ;
#13 = FACE_OUTER_BOUND ( 'NONE', #259, .T. ) ;
#14 = CIRCLE ( 'NONE', #200, 1.499999999999997780 ) ;
#15 = VERTEX_POINT ( 'NONE', #266 ) ;
#16 = CARTESIAN_POINT ( 'NONE',  ( 2.420648447061904955E-14, -8.849764081882755106E-16, 6.933012701892206309 ) ) ;
#17 = PERSON_AND_ORGANIZATION_ROLE ( 'design_owner' ) ;
#18 = DIRECTION ( 'NONE',  ( 3.491481338843133355E-15, -1.276467311168695266E-16, 1.000000000000000000 ) ) ;
#19 = CALENDAR_DATE ( 2023, 31, 3 ) ;
#20 = ORIENTED_EDGE ( 'NONE', *, *, #36, .F. ) ;
#21 = CARTESIAN_POINT ( 'NONE',  ( -3.229489878259195468E-30, 9.461979795468095855E-32, -9.249626633631825086E-16 ) ) ;
#22 = AXIS2_PLACEMENT_3D ( 'NONE', #3, #230, #279 ) ;
#23 = DATE_AND_TIME ( #73, #72 ) ;
#24 = COORDINATED_UNIVERSAL_TIME_OFFSET ( 1, 0, .AHEAD. ) ;
#25 = EDGE_CURVE ( 'NONE', #168, #361, #48, .T. ) ;
#26 = DIRECTION ( 'NONE',  ( 3.491481338843133355E-15, -1.276467311168695266E-16, 1.000000000000000000 ) ) ;
#27 = CARTESIAN_POINT ( 'NONE',  ( 8.686622103373160898E-14, 6.249999999999996447, 24.66025403784433223 ) ) ;
#28 = ORIENTED_EDGE ( 'NONE', *, *, #58, .T. ) ;
#29 = SHAPE_DEFINITION_REPRESENTATION ( #236, #70 ) ;
#30 = CIRCLE ( 'NONE', #169, 1.249999999999999556 ) ;
#31 = FACE_OUTER_BOUND ( 'NONE', #56, .T. ) ;
#32 = VERTEX_POINT ( 'NONE', #156 ) ;
#33 = VERTEX_POINT ( 'NONE', #130 ) ;
#34 = ORIENTED_EDGE ( 'NONE', *, *, #222, .T. ) ;
#35 = LINE ( 'NONE', #189, #46 ) ;
#36 = EDGE_CURVE ( 'NONE', #15, #239, #164, .T. ) ;
#37 = CIRCLE ( 'NONE', #225, 1.499999999999999334 ) ;
#38 = DIRECTION ( 'NONE',  ( -3.491481338843133355E-15, 1.224646799147353207E-16, -1.000000000000000000 ) ) ;
#39 = CARTESIAN_POINT ( 'NONE',  ( 1.047444401652940007E-13, 8.998558695971085435E-33, 30.00000000000000000 ) ) ;
#40 = FACE_OUTER_BOUND ( 'NONE', #54, .T. ) ;
#41 = CARTESIAN_POINT ( 'NONE',  ( -3.786585102832791150E-30, -1.249999999999999112, -1.084521077259269355E-15 ) ) ;
#42 =( GEOMETRIC_REPRESENTATION_CONTEXT ( 3 ) GLOBAL_UNCERTAINTY_ASSIGNED_CONTEXT ( ( #234 ) ) GLOBAL_UNIT_ASSIGNED_CONTEXT ( ( #7, #233, #142 ) ) REPRESENTATION_CONTEXT ( 'NONE', 'WORKASPACE' ) );
#43 = LOCAL_TIME ( 8, 31, 41.00000000000000000, #167 ) ;
#44 = DIRECTION ( 'NONE',  ( 3.491481338843133355E-15, -1.224646799147353207E-16, 1.000000000000000000 ) ) ;
#45 = DATE_TIME_ROLE ( 'classification_date' ) ;
#46 = VECTOR ( 'NONE', #122, 1000.000000000000000 ) ;
#47 = CARTESIAN_POINT ( 'NONE',  ( 0.000000000000000000, 0.000000000000000000, 0.000000000000000000 ) ) ;
#48 = LINE ( 'NONE', #159, #110 ) ;
#49 = EDGE_CURVE ( 'NONE', #33, #6, #360, .T. ) ;
#50 = CIRCLE ( 'NONE', #347, 1.249999999999999112 ) ;
#51 = APPROVAL ( #272, 'UNSPECIFIED' ) ;
#52 = DIRECTION ( 'NONE',  ( 0.000000000000000000, -1.000000000000000000, 0.000000000000000000 ) ) ;
#53 = CYLINDRICAL_SURFACE ( 'NONE', #22, 1.499999999999997780 ) ;
#54 = EDGE_LOOP ( 'NONE', ( #34, #323 ) ) ;
#55 = PRODUCT_DEFINITION_FORMATION_WITH_SPECIFIED_SOURCE ( 'ANY', '', #262, .NOT_KNOWN. ) ;
#56 = EDGE_LOOP ( 'NONE', ( #208, #322, #111, #344 ) ) ;
#57 = ORIENTED_EDGE ( 'NONE', *, *, #339, .T. ) ;
#58 = EDGE_CURVE ( 'NONE', #117, #229, #319, .T. ) ;
#59 = DIRECTION ( 'NONE',  ( 0.000000000000000000, 1.000000000000000000, 0.000000000000000000 ) ) ;
#60 = VECTOR ( 'NONE', #68, 1000.000000000000000 ) ;
#61 = ORIENTED_EDGE ( 'NONE', *, *, #96, .F. ) ;
#62 = DIRECTION ( 'NONE',  ( -4.275831445896958607E-31, -1.000000000000000000, -1.224646799147353207E-16 ) ) ;
#63 = EDGE_CURVE ( 'NONE', #215, #168, #37, .T. ) ;
#64 = ORIENTED_EDGE ( 'NONE', *, *, #339, .F. ) ;
#65 = DIRECTION ( 'NONE',  ( -2.664535259100376013E-14, -1.000000000000000000, 0.000000000000000000 ) ) ;
#66 = DIRECTION ( 'NONE',  ( 0.000000000000000000, -1.000000000000000000, 0.000000000000000000 ) ) ;
#67 = CONICAL_SURFACE ( 'NONE', #211, 1.199999999999999512, 0.7853981633974511656 ) ;
#68 = DIRECTION ( 'NONE',  ( 3.491481338843133355E-15, -1.276467311168695266E-16, 1.000000000000000000 ) ) ;
#69 = CARTESIAN_POINT ( 'NONE',  ( 6.413543713700207894E-14, -1.500000000000003109, 29.69999999999999929 ) ) ;
#70 = ADVANCED_BREP_SHAPE_REPRESENTATION ( '372688', ( #77, #198, #8 ), #42 ) ;
#71 = CC_DESIGN_PERSON_AND_ORGANIZATION_ASSIGNMENT ( #194, #154, ( #298 ) ) ;
#72 = LOCAL_TIME ( 8, 31, 41.00000000000000000, #337 ) ;
#73 = CALENDAR_DATE ( 2023, 31, 3 ) ;
#74 = LINE ( 'NONE', #134, #275 ) ;
#75 = APPROVAL_DATE_TIME ( #157, #193 ) ;
#76 = DIRECTION ( 'NONE',  ( 0.000000000000000000, 0.000000000000000000, 1.000000000000000000 ) ) ;
#77 = MANIFOLD_SOLID_BREP ( 'Corps-Déplacer/Copier1[1]', #270 ) ;
#78 = CARTESIAN_POINT ( 'NONE',  ( 2.420648447061904955E-14, -8.849764081882755106E-16, 6.933012701892206309 ) ) ;
#79 = CC_DESIGN_PERSON_AND_ORGANIZATION_ASSIGNMENT ( #356, #124, ( #55 ) ) ;
#80 = AXIS2_PLACEMENT_3D ( 'NONE', #78, #315, #105 ) ;
#81 = EDGE_LOOP ( 'NONE', ( #203, #20 ) ) ;
#82 = EDGE_LOOP ( 'NONE', ( #321, #113 ) ) ;
#83 = FACE_OUTER_BOUND ( 'NONE', #199, .T. ) ;
#84 = EDGE_LOOP ( 'NONE', ( #57, #346, #341, #302 ) ) ;
#85 = CC_DESIGN_APPROVAL ( #193, ( #55 ) ) ;
#86 = EDGE_CURVE ( 'NONE', #239, #215, #35, .T. ) ;
#87 = VECTOR ( 'NONE', #242, 1000.000000000000000 ) ;
#88 = DIRECTION ( 'NONE',  ( 0.000000000000000000, -1.000000000000000000, 0.000000000000000000 ) ) ;
#89 = CARTESIAN_POINT ( 'NONE',  ( -6.413839710158237013E-31, 0.000000000000000000, -1.836996703606440502E-16 ) ) ;
#90 = ADVANCED_FACE ( 'NONE', ( #247 ), #214, .F. ) ;
#91 = DIRECTION ( 'NONE',  ( 0.000000000000000000, 1.000000000000000000, 0.000000000000000000 ) ) ;
#92 = CALENDAR_DATE ( 2023, 31, 3 ) ;
#93 = CARTESIAN_POINT ( 'NONE',  ( 2.094888803305880013E-14, -7.658803867012171593E-16, 6.000000000000000000 ) ) ;
#94 = DIRECTION ( 'NONE',  ( 0.000000000000000000, -1.000000000000000000, 0.000000000000000000 ) ) ;
#95 = PERSON_AND_ORGANIZATION ( #232, #263 ) ;
#96 = EDGE_CURVE ( 'NONE', #117, #149, #357, .T. ) ;
#97 = DIRECTION ( 'NONE',  ( -4.275831445896958607E-31, -1.000000000000000000, -1.224646799147353207E-16 ) ) ;
#98 = PERSON_AND_ORGANIZATION ( #232, #263 ) ;
#99 = PERSON_AND_ORGANIZATION ( #232, #263 ) ;
#100 = MECHANICAL_CONTEXT ( 'NONE', #256, 'mechanical' ) ;
#101 = VECTOR ( 'NONE', #336, 1000.000000000000114 ) ;
#102 = CARTESIAN_POINT ( 'NONE',  ( 8.610081678426450799E-14, -6.250000000000003553, 24.66025403784433223 ) ) ;
#103 = CLOSED_SHELL ( 'NONE', ( #107, #286, #250, #90 ) ) ;
#104 = EDGE_LOOP ( 'NONE', ( #188, #137, #291, #269 ) ) ;
#105 = DIRECTION ( 'NONE',  ( 0.000000000000000000, -1.000000000000000000, 0.000000000000000000 ) ) ;
#106 = AXIS2_PLACEMENT_3D ( 'NONE', #132, #251, #224 ) ;
#107 = ADVANCED_FACE ( 'NONE', ( #304 ), #264, .T. ) ;
#108 = FACE_OUTER_BOUND ( 'NONE', #81, .T. ) ;
#109 = CARTESIAN_POINT ( 'NONE',  ( -6.413839710158237013E-31, 0.000000000000000000, -1.836996703606440502E-16 ) ) ;
#110 = VECTOR ( 'NONE', #278, 1000.000000000000000 ) ;
#111 = ORIENTED_EDGE ( 'NONE', *, *, #301, .T. ) ;
#112 = DIRECTION ( 'NONE',  ( -3.491481338843133355E-15, 1.224646799147353207E-16, -1.000000000000000000 ) ) ;
#113 = ORIENTED_EDGE ( 'NONE', *, *, #58, .F. ) ;
#114 = CARTESIAN_POINT ( 'NONE',  ( 1.048913977811916904E-13, -1.200000000000003064, 30.00000000000000000 ) ) ;
#115 = CONICAL_SURFACE ( 'NONE', #325, 6.250000000000000000, 0.2617993877991501850 ) ;
#116 = CARTESIAN_POINT ( 'NONE',  ( 2.094888803305880013E-14, -1.250000000000000444, 6.000000000000000000 ) ) ;
#117 = VERTEX_POINT ( 'NONE', #238 ) ;
#118 = APPROVAL ( #335, 'UNSPECIFIED' ) ;
#119 = CARTESIAN_POINT ( 'NONE',  ( 6.413747168845429152E-31, 1.499999999999997780, 1.836970198721027222E-16 ) ) ;
#120 = CARTESIAN_POINT ( 'NONE',  ( -6.413798080740949357E-31, 2.249657531481865154E-32, -1.836984780467449341E-16 ) ) ;
#121 = APPROVAL_ROLE ( '' ) ;
#122 = DIRECTION ( 'NONE',  ( -2.468850131082257849E-15, 0.7071067811865496822, -0.7071067811865453523 ) ) ;
#123 = DIRECTION ( 'NONE',  ( 0.000000000000000000, 1.000000000000000000, 0.000000000000000000 ) ) ;
#124 = PERSON_AND_ORGANIZATION_ROLE ( 'creator' ) ;
#125 = LOCAL_TIME ( 8, 31, 41.00000000000000000, #24 ) ;
#126 = DIRECTION ( 'NONE',  ( 3.491481338843133355E-15, -1.276467311168695266E-16, 1.000000000000000000 ) ) ;
#127 = CC_DESIGN_DATE_AND_TIME_ASSIGNMENT ( #23, #216, ( #171 ) ) ;
#128 = APPROVAL_ROLE ( '' ) ;
#129 = LINE ( 'NONE', #102, #101 ) ;
#130 = CARTESIAN_POINT ( 'NONE',  ( 2.274607518672168567E-14, 1.249999999999998668, 6.000000000000000000 ) ) ;
#131 = CALENDAR_DATE ( 2023, 31, 3 ) ;
#132 = CARTESIAN_POINT ( 'NONE',  ( 2.094888803305880013E-14, -7.658803867012171593E-16, 6.000000000000000000 ) ) ;
#133 = SECURITY_CLASSIFICATION_LEVEL ( 'unclassified' ) ;
#134 = CARTESIAN_POINT ( 'NONE',  ( -1.198479195589419821E-30, -1.249999999999999334, -3.432580842567308968E-16 ) ) ;
#135 = EDGE_CURVE ( 'NONE', #149, #284, #30, .T. ) ;
#136 = AXIS2_PLACEMENT_3D ( 'NONE', #163, #228, #166 ) ;
#137 = ORIENTED_EDGE ( 'NONE', *, *, #96, .T. ) ;
#138 = DATE_AND_TIME ( #314, #43 ) ;
#139 = CARTESIAN_POINT ( 'NONE',  ( -3.229489878259195468E-30, 9.461979795468095855E-32, -9.249626633631825086E-16 ) ) ;
#140 = CARTESIAN_POINT ( 'NONE',  ( 1.047444401652940007E-13, -3.673940397442059178E-15, 30.00000000000000000 ) ) ;
#141 = AXIS2_PLACEMENT_3D ( 'NONE', #12, #289, #88 ) ;
#142 =( NAMED_UNIT ( * ) SI_UNIT ( $, .STERADIAN. ) SOLID_ANGLE_UNIT ( ) );
#143 = DIRECTION ( 'NONE',  ( -3.491481338843133355E-15, 1.224646799147353207E-16, -1.000000000000000000 ) ) ;
#144 = ORIENTED_EDGE ( 'NONE', *, *, #172, .T. ) ;
#145 = CARTESIAN_POINT ( 'NONE',  ( 1.047444401652940007E-13, -3.673940397442059178E-15, 30.00000000000000000 ) ) ;
#146 = AXIS2_PLACEMENT_3D ( 'NONE', #260, #265, #148 ) ;
#147 = EDGE_CURVE ( 'NONE', #15, #168, #328, .T. ) ;
#148 = DIRECTION ( 'NONE',  ( 0.000000000000000000, 1.000000000000000000, 0.000000000000000000 ) ) ;
#149 = VERTEX_POINT ( 'NONE', #254 ) ;
#150 = DIRECTION ( 'NONE',  ( -4.456761796588771413E-31, -1.000000000000000000, -1.276467311168695512E-16 ) ) ;
#151 = PLANE ( 'NONE',  #362 ) ;
#152 = EDGE_LOOP ( 'NONE', ( #197, #1, #313, #165 ) ) ;
#153 = DIRECTION ( 'NONE',  ( 3.404208188709233130E-15, 0.2588190451025213501, 0.9659258262890680902 ) ) ;
#154 = PERSON_AND_ORGANIZATION_ROLE ( 'classification_officer' ) ;
#155 = CIRCLE ( 'NONE', #141, 1.249999999999999556 ) ;
#156 = CARTESIAN_POINT ( 'NONE',  ( 2.094888803305880013E-14, -1.250000000000000444, 6.000000000000000000 ) ) ;
#157 = DATE_AND_TIME ( #19, #342 ) ;
#158 = DIRECTION ( 'NONE',  ( 1.000000000000000000, 0.000000000000000000, 0.000000000000000000 ) ) ;
#159 = CARTESIAN_POINT ( 'NONE',  ( 1.836970198721020813E-16, -1.499999999999997780, -1.836970198721033385E-16 ) ) ;
#160 = CARTESIAN_POINT ( 'NONE',  ( 0.000000000000000000, 0.000000000000000000, 0.000000000000000000 ) ) ;
#161 = AXIS2_PLACEMENT_3D ( 'NONE', #331, #18, #66 ) ;
#162 = EDGE_CURVE ( 'NONE', #32, #361, #129, .T. ) ;
#163 = CARTESIAN_POINT ( 'NONE',  ( 1.047444401652940007E-13, -3.673940397442059178E-15, 30.00000000000000000 ) ) ;
#164 = CIRCLE ( 'NONE', #10, 1.199999999999999512 ) ;
#165 = ORIENTED_EDGE ( 'NONE', *, *, #176, .T. ) ;
#166 = DIRECTION ( 'NONE',  ( 0.000000000000000000, 1.000000000000000000, 0.000000000000000000 ) ) ;
#167 = COORDINATED_UNIVERSAL_TIME_OFFSET ( 1, 0, .AHEAD. ) ;
#168 = VERTEX_POINT ( 'NONE', #69 ) ;
#169 = AXIS2_PLACEMENT_3D ( 'NONE', #93, #217, #246 ) ;
#170 = EDGE_CURVE ( 'NONE', #33, #32, #350, .T. ) ;
#171 = PRODUCT_DEFINITION ( 'UNKNOWN', '', #55, #285 ) ;
#172 = EDGE_CURVE ( 'NONE', #229, #284, #74, .T. ) ;
#173 = FACE_OUTER_BOUND ( 'NONE', #297, .T. ) ;
#174 = AXIS2_PLACEMENT_3D ( 'NONE', #160, #112, #180 ) ;
#175 = DIRECTION ( 'NONE',  ( 3.491481338843133355E-15, -1.276467311168695266E-16, 1.000000000000000000 ) ) ;
#176 = EDGE_CURVE ( 'NONE', #361, #6, #287, .T. ) ;
#177 = DIRECTION ( 'NONE',  ( 3.491481338843133355E-15, -1.276467311168695266E-16, 1.000000000000000000 ) ) ;
#178 = PRODUCT_RELATED_PRODUCT_CATEGORY ( 'detail', '', ( #262 ) ) ;
#179 = ORIENTED_EDGE ( 'NONE', *, *, #63, .F. ) ;
#180 = DIRECTION ( 'NONE',  ( 4.275831445896959482E-31, 1.000000000000000000, 1.224646799147353207E-16 ) ) ;
#181 = ORIENTED_EDGE ( 'NONE', *, *, #86, .F. ) ;
#182 = ORIENTED_EDGE ( 'NONE', *, *, #170, .F. ) ;
#183 = CIRCLE ( 'NONE', #136, 1.199999999999999512 ) ;
#184 = APPROVAL_PERSON_ORGANIZATION ( #274, #118, #317 ) ;
#185 = CARTESIAN_POINT ( 'NONE',  ( 2.094888803305880013E-14, -7.658803867012171593E-16, 6.000000000000000000 ) ) ;
#186 = PERSON_AND_ORGANIZATION ( #232, #263 ) ;
#187 = CC_DESIGN_PERSON_AND_ORGANIZATION_ASSIGNMENT ( #99, #223, ( #171 ) ) ;
#188 = ORIENTED_EDGE ( 'NONE', *, *, #257, .T. ) ;
#189 = CARTESIAN_POINT ( 'NONE',  ( 1.047444401652940007E-13, 1.199999999999995737, 30.00000000000000000 ) ) ;
#190 = AXIS2_PLACEMENT_3D ( 'NONE', #185, #299, #94 ) ;
#191 = LOCAL_TIME ( 8, 31, 41.00000000000000000, #245 ) ;
#192 = ADVANCED_FACE ( 'NONE', ( #31 ), #53, .T. ) ;
#193 = APPROVAL ( #227, 'UNSPECIFIED' ) ;
#194 = PERSON_AND_ORGANIZATION ( #232, #263 ) ;
#195 = DIRECTION ( 'NONE',  ( 3.491481338843133355E-15, -1.276467311168695266E-16, 1.000000000000000000 ) ) ;
#196 = AXIS2_PLACEMENT_3D ( 'NONE', #120, #44, #97 ) ;
#197 = ORIENTED_EDGE ( 'NONE', *, *, #49, .F. ) ;
#198 = MANIFOLD_SOLID_BREP ( 'Corps-Déplacer/Copier1[2]', #103 ) ;
#199 = EDGE_LOOP ( 'NONE', ( #64, #182 ) ) ;
#200 = AXIS2_PLACEMENT_3D ( 'NONE', #16, #213, #65 ) ;
#201 = ADVANCED_FACE ( 'NONE', ( #308 ), #115, .T. ) ;
#202 = CARTESIAN_POINT ( 'NONE',  ( 1.047444401652940007E-13, 1.199999999999995737, 30.00000000000000000 ) ) ;
#203 = ORIENTED_EDGE ( 'NONE', *, *, #206, .F. ) ;
#204 = PERSON_AND_ORGANIZATION ( #232, #263 ) ;
#205 = CONICAL_SURFACE ( 'NONE', #363, 1.199999999999999512, 0.7853981633974511656 ) ;
#206 = EDGE_CURVE ( 'NONE', #239, #15, #183, .T. ) ;
#207 = EDGE_LOOP ( 'NONE', ( #61, #28, #144, #261 ) ) ;
#208 = ORIENTED_EDGE ( 'NONE', *, *, #25, .F. ) ;
#209 = ADVANCED_FACE ( 'NONE', ( #283 ), #5, .T. ) ;
#210 = ORIENTED_EDGE ( 'NONE', *, *, #237, .F. ) ;
#211 = AXIS2_PLACEMENT_3D ( 'NONE', #145, #143, #91 ) ;
#212 = PLANE ( 'NONE',  #355 ) ;
#213 = DIRECTION ( 'NONE',  ( -3.491481338843133355E-15, 1.276467311168695266E-16, -1.000000000000000000 ) ) ;
#214 = PLANE ( 'NONE',  #196 ) ;
#215 = VERTEX_POINT ( 'NONE', #349 ) ;
#216 = DATE_TIME_ROLE ( 'creation_date' ) ;
#217 = DIRECTION ( 'NONE',  ( 3.491481338843133355E-15, -1.276467311168695266E-16, 1.000000000000000000 ) ) ;
#218 = PERSON_AND_ORGANIZATION_ROLE ( 'design_supplier' ) ;
#219 = VECTOR ( 'NONE', #153, 1000.000000000000000 ) ;
#220 = DIRECTION ( 'NONE',  ( -3.491481338843133355E-15, 1.224646799147353207E-16, -1.000000000000000000 ) ) ;
#221 = DIRECTION ( 'NONE',  ( -2.382254525458708792E-15, -0.7071067811865493491, -0.7071067811865455743 ) ) ;
#222 = EDGE_CURVE ( 'NONE', #284, #149, #155, .T. ) ;
#223 = PERSON_AND_ORGANIZATION_ROLE ( 'creator' ) ;
#224 = DIRECTION ( 'NONE',  ( 0.000000000000000000, -1.000000000000000000, 0.000000000000000000 ) ) ;
#225 = AXIS2_PLACEMENT_3D ( 'NONE', #226, #220, #305 ) ;
#226 = CARTESIAN_POINT ( 'NONE',  ( 1.036969957636410543E-13, -3.637200993467639107E-15, 29.69999999999999929 ) ) ;
#227 = APPROVAL_STATUS ( 'not_yet_approved' ) ;
#228 = DIRECTION ( 'NONE',  ( -3.491481338843133355E-15, 1.224646799147353207E-16, -1.000000000000000000 ) ) ;
#229 = VERTEX_POINT ( 'NONE', #41 ) ;
#230 = DIRECTION ( 'NONE',  ( -3.491481338843133355E-15, 1.224646799147353207E-16, -1.000000000000000000 ) ) ;
#231 = AXIS2_PLACEMENT_3D ( 'NONE', #89, #175, #352 ) ;
#232 = PERSON ( 'UNSPECIFIED', 'UNSPECIFIED', 'UNSPECIFIED', ('UNSPECIFIED'), ('UNSPECIFIED'), ('UNSPECIFIED') ) ;
#233 =( NAMED_UNIT ( * ) PLANE_ANGLE_UNIT ( ) SI_UNIT ( $, .RADIAN. ) );
#234 = UNCERTAINTY_MEASURE_WITH_UNIT (LENGTH_MEASURE( 1.000000000000000082E-05 ), #7, 'distance_accuracy_value', 'NONE');
#235 = ORIENTED_EDGE ( 'NONE', *, *, #25, .T. ) ;
#236 = PRODUCT_DEFINITION_SHAPE ( 'NONE', 'NONE',  #171 ) ;
#237 = EDGE_CURVE ( 'NONE', #168, #215, #4, .T. ) ;
#238 = CARTESIAN_POINT ( 'NONE',  ( 1.062752486642282058E-14, 1.249999999999999112, -7.654042494671328371E-16 ) ) ;
#239 = VERTEX_POINT ( 'NONE', #202 ) ;
#240 = CC_DESIGN_APPROVAL ( #51, ( #171 ) ) ;
#241 = DIRECTION ( 'NONE',  ( 3.491481338843133355E-15, -1.276467311168695266E-16, 1.000000000000000000 ) ) ;
#242 = DIRECTION ( 'NONE',  ( -3.491481338843133355E-15, 1.224646799147353207E-16, -1.000000000000000000 ) ) ;
#243 = ADVANCED_FACE ( 'NONE', ( #83 ), #212, .F. ) ;
#244 = ORIENTED_EDGE ( 'NONE', *, *, #147, .T. ) ;
#245 = COORDINATED_UNIVERSAL_TIME_OFFSET ( 1, 0, .AHEAD. ) ;
#246 = DIRECTION ( 'NONE',  ( 0.000000000000000000, -1.000000000000000000, 0.000000000000000000 ) ) ;
#247 = FACE_OUTER_BOUND ( 'NONE', #82, .T. ) ;
#248 = APPROVAL_DATE_TIME ( #252, #51 ) ;
#249 = DIRECTION ( 'NONE',  ( -4.456761796588773165E-31, -1.000000000000000000, -1.276467311168694772E-16 ) ) ;
#250 = ADVANCED_FACE ( 'NONE', ( #354 ), #324, .T. ) ;
#251 = DIRECTION ( 'NONE',  ( 3.491481338843133355E-15, -1.276467311168695266E-16, 1.000000000000000000 ) ) ;
#252 = DATE_AND_TIME ( #131, #125 ) ;
#253 = APPROVAL_PERSON_ORGANIZATION ( #95, #51, #128 ) ;
#254 = CARTESIAN_POINT ( 'NONE',  ( 1.062752486642281585E-14, 1.249999999999998668, 6.000000000000000000 ) ) ;
#255 = AXIS2_PLACEMENT_3D ( 'NONE', #39, #38, #326 ) ;
#256 = APPLICATION_CONTEXT ( 'configuration controlled 3d designs of mechanical parts and assemblies' ) ;
#257 = EDGE_CURVE ( 'NONE', #229, #117, #50, .T. ) ;
#258 = ORIENTED_EDGE ( 'NONE', *, *, #147, .F. ) ;
#259 = EDGE_LOOP ( 'NONE', ( #290, #244, #179, #181 ) ) ;
#260 = CARTESIAN_POINT ( 'NONE',  ( 1.036969957636410543E-13, -3.637200993467639107E-15, 29.69999999999999929 ) ) ;
#261 = ORIENTED_EDGE ( 'NONE', *, *, #135, .F. ) ;
#262 = PRODUCT ( '372688', '372688', '', ( #100 ) ) ;
#263 = ORGANIZATION ( 'UNSPECIFIED', 'UNSPECIFIED', '' ) ;
#264 = CYLINDRICAL_SURFACE ( 'NONE', #338, 1.249999999999999334 ) ;
#265 = DIRECTION ( 'NONE',  ( -3.491481338843133355E-15, 1.224646799147353207E-16, -1.000000000000000000 ) ) ;
#266 = CARTESIAN_POINT ( 'NONE',  ( 1.043860452823524237E-13, -1.200000000000003064, 30.00000000000000000 ) ) ;
#267 = APPROVAL_PERSON_ORGANIZATION ( #186, #193, #121 ) ;
#268 = DIRECTION ( 'NONE',  ( 3.491481338843133355E-15, -1.224646799147353207E-16, 1.000000000000000000 ) ) ;
#269 = ORIENTED_EDGE ( 'NONE', *, *, #172, .F. ) ;
#270 = CLOSED_SHELL ( 'NONE', ( #201, #273, #209, #192, #2, #11, #309, #243 ) ) ;
#271 = FACE_OUTER_BOUND ( 'NONE', #152, .T. ) ;
#272 = APPROVAL_STATUS ( 'not_yet_approved' ) ;
#273 = ADVANCED_FACE ( 'NONE', ( #13 ), #67, .T. ) ;
#274 = PERSON_AND_ORGANIZATION ( #232, #263 ) ;
#275 = VECTOR ( 'NONE', #195, 1000.000000000000000 ) ;
#276 = CARTESIAN_POINT ( 'NONE',  ( 1.047444401652940007E-13, -3.673940397442059178E-15, 30.00000000000000000 ) ) ;
#277 = CC_DESIGN_PERSON_AND_ORGANIZATION_ASSIGNMENT ( #98, #218, ( #55 ) ) ;
#278 = DIRECTION ( 'NONE',  ( -3.491481338843133355E-15, 1.224646799147353207E-16, -1.000000000000000000 ) ) ;
#279 = DIRECTION ( 'NONE',  ( 4.275831445896959482E-31, 1.000000000000000000, 1.224646799147353207E-16 ) ) ;
#280 = APPROVAL_DATE_TIME ( #138, #118 ) ;
#281 = AXIS2_PLACEMENT_3D ( 'NONE', #21, #126, #249 ) ;
#282 = ORIENTED_EDGE ( 'NONE', *, *, #86, .T. ) ;
#283 = FACE_OUTER_BOUND ( 'NONE', #343, .T. ) ;
#284 = VERTEX_POINT ( 'NONE', #116 ) ;
#285 = DESIGN_CONTEXT ( 'detailed design', #340, 'design' ) ;
#286 = ADVANCED_FACE ( 'NONE', ( #40 ), #151, .T. ) ;
#287 = CIRCLE ( 'NONE', #80, 1.499999999999997780 ) ;
#288 = ORIENTED_EDGE ( 'NONE', *, *, #63, .T. ) ;
#289 = DIRECTION ( 'NONE',  ( 3.491481338843133355E-15, -1.276467311168695266E-16, 1.000000000000000000 ) ) ;
#290 = ORIENTED_EDGE ( 'NONE', *, *, #206, .T. ) ;
#291 = ORIENTED_EDGE ( 'NONE', *, *, #222, .F. ) ;
#292 = PLANE ( 'NONE',  #255 ) ;
#293 = DIRECTION ( 'NONE',  ( -4.275831445896958607E-31, -1.000000000000000000, -1.224646799147353207E-16 ) ) ;
#294 = DIRECTION ( 'NONE',  ( -4.456761796588773165E-31, -1.000000000000000000, -1.276467311168694772E-16 ) ) ;
#295 = EDGE_CURVE ( 'NONE', #6, #361, #14, .T. ) ;
#296 = LINE ( 'NONE', #119, #87 ) ;
#297 = EDGE_LOOP ( 'NONE', ( #258, #320, #282, #210 ) ) ;
#298 = SECURITY_CLASSIFICATION ( '', '', #133 ) ;
#299 = DIRECTION ( 'NONE',  ( 3.491481338843133355E-15, -1.276467311168695266E-16, 1.000000000000000000 ) ) ;
#300 = DATE_AND_TIME ( #92, #191 ) ;
#301 = EDGE_CURVE ( 'NONE', #215, #6, #296, .T. ) ;
#302 = ORIENTED_EDGE ( 'NONE', *, *, #162, .F. ) ;
#303 = APPLICATION_PROTOCOL_DEFINITION ( 'international standard', 'config_control_design', 1994, #340 ) ;
#304 = FACE_OUTER_BOUND ( 'NONE', #104, .T. ) ;
#305 = DIRECTION ( 'NONE',  ( 0.000000000000000000, 1.000000000000000000, 0.000000000000000000 ) ) ;
#306 = CIRCLE ( 'NONE', #190, 1.249999999999999556 ) ;
#307 = COORDINATED_UNIVERSAL_TIME_OFFSET ( 1, 0, .AHEAD. ) ;
#308 = FACE_OUTER_BOUND ( 'NONE', #84, .T. ) ;
#309 = ADVANCED_FACE ( 'NONE', ( #271 ), #332, .T. ) ;
#310 = VECTOR ( 'NONE', #221, 1000.000000000000114 ) ;
#311 = CARTESIAN_POINT ( 'NONE',  ( 8.610081678426450799E-14, -3.147800816442411500E-15, 24.66025403784433223 ) ) ;
#312 = ORIENTED_EDGE ( 'NONE', *, *, #301, .F. ) ;
#313 = ORIENTED_EDGE ( 'NONE', *, *, #162, .T. ) ;
#314 = CALENDAR_DATE ( 2023, 31, 3 ) ;
#315 = DIRECTION ( 'NONE',  ( -3.491481338843133355E-15, 1.276467311168695266E-16, -1.000000000000000000 ) ) ;
#316 = CC_DESIGN_DATE_AND_TIME_ASSIGNMENT ( #300, #45, ( #298 ) ) ;
#317 = APPROVAL_ROLE ( '' ) ;
#318 = CARTESIAN_POINT ( 'NONE',  ( 6.413543713700215467E-14, -1.499999999999998668, 6.933012701892206309 ) ) ;
#319 = CIRCLE ( 'NONE', #281, 1.249999999999999112 ) ;
#320 = ORIENTED_EDGE ( 'NONE', *, *, #36, .T. ) ;
#321 = ORIENTED_EDGE ( 'NONE', *, *, #257, .F. ) ;
#322 = ORIENTED_EDGE ( 'NONE', *, *, #237, .T. ) ;
#323 = ORIENTED_EDGE ( 'NONE', *, *, #135, .T. ) ;
#324 = CYLINDRICAL_SURFACE ( 'NONE', #231, 1.249999999999999334 ) ;
#325 = AXIS2_PLACEMENT_3D ( 'NONE', #311, #26, #52 ) ;
#326 = DIRECTION ( 'NONE',  ( 4.275831445896958607E-31, 1.000000000000000000, 1.224646799147353207E-16 ) ) ;
#327 = CC_DESIGN_APPROVAL ( #118, ( #298 ) ) ;
#328 = LINE ( 'NONE', #114, #310 ) ;
#329 = CARTESIAN_POINT ( 'NONE',  ( 2.094888803305880013E-14, 1.124819836996389237E-32, 6.000000000000000000 ) ) ;
#330 = DIRECTION ( 'NONE',  ( 3.491481338843133355E-15, -1.224646799147353207E-16, 1.000000000000000000 ) ) ;
#331 = CARTESIAN_POINT ( 'NONE',  ( 8.610081678426450799E-14, -3.147800816442411500E-15, 24.66025403784433223 ) ) ;
#332 = CONICAL_SURFACE ( 'NONE', #161, 6.250000000000000000, 0.2617993877991501850 ) ;
#333 = CC_DESIGN_SECURITY_CLASSIFICATION ( #298, ( #55 ) ) ;
#334 = CARTESIAN_POINT ( 'NONE',  ( 1.530808498934189845E-16, 1.249999999999999334, -2.414125646455773986E-17 ) ) ;
#335 = APPROVAL_STATUS ( 'not_yet_approved' ) ;
#336 = DIRECTION ( 'NONE',  ( 3.372511997194914833E-15, -0.2588190451025215166, 0.9659258262890679791 ) ) ;
#337 = COORDINATED_UNIVERSAL_TIME_OFFSET ( 1, 0, .AHEAD. ) ;
#338 = AXIS2_PLACEMENT_3D ( 'NONE', #109, #241, #150 ) ;
#339 = EDGE_CURVE ( 'NONE', #32, #33, #306, .T. ) ;
#340 = APPLICATION_CONTEXT ( 'configuration controlled 3d designs of mechanical parts and assemblies' ) ;
#341 = ORIENTED_EDGE ( 'NONE', *, *, #295, .T. ) ;
#342 = LOCAL_TIME ( 8, 31, 41.00000000000000000, #307 ) ;
#343 = EDGE_LOOP ( 'NONE', ( #288, #235, #345, #312 ) ) ;
#344 = ORIENTED_EDGE ( 'NONE', *, *, #176, .F. ) ;
#345 = ORIENTED_EDGE ( 'NONE', *, *, #295, .F. ) ;
#346 = ORIENTED_EDGE ( 'NONE', *, *, #49, .T. ) ;
#347 = AXIS2_PLACEMENT_3D ( 'NONE', #139, #177, #294 ) ;
#348 = DIRECTION ( 'NONE',  ( -3.491481338843133355E-15, 1.224646799147353207E-16, -1.000000000000000000 ) ) ;
#349 = CARTESIAN_POINT ( 'NONE',  ( 1.036969957636410543E-13, 1.499999999999995781, 29.69999999999999929 ) ) ;
#350 = CIRCLE ( 'NONE', #106, 1.249999999999999556 ) ;
#351 = CARTESIAN_POINT ( 'NONE',  ( 2.094888803305880013E-14, 1.124819836996389237E-32, 6.000000000000000000 ) ) ;
#352 = DIRECTION ( 'NONE',  ( -4.456761796588771413E-31, -1.000000000000000000, -1.276467311168695512E-16 ) ) ;
#353 = CC_DESIGN_PERSON_AND_ORGANIZATION_ASSIGNMENT ( #204, #17, ( #262 ) ) ;
#354 = FACE_OUTER_BOUND ( 'NONE', #207, .T. ) ;
#355 = AXIS2_PLACEMENT_3D ( 'NONE', #329, #330, #62 ) ;
#356 = PERSON_AND_ORGANIZATION ( #232, #263 ) ;
#357 = LINE ( 'NONE', #334, #60 ) ;
#358 = DIRECTION ( 'NONE',  ( -3.491481338843133355E-15, 1.224646799147353207E-16, -1.000000000000000000 ) ) ;
#359 = APPLICATION_PROTOCOL_DEFINITION ( 'international standard', 'config_control_design', 1994, #256 ) ;
#360 = LINE ( 'NONE', #27, #219 ) ;
#361 = VERTEX_POINT ( 'NONE', #318 ) ;
#362 = AXIS2_PLACEMENT_3D ( 'NONE', #351, #268, #293 ) ;
#363 = AXIS2_PLACEMENT_3D ( 'NONE', #140, #348, #59 ) ;
ENDSEC;
END-ISO-10303-21;
