ISO-10303-21;
HEADER;
FILE_DESCRIPTION (( 'STEP AP203' ),
    '1' );
FILE_NAME ('372687.step',
    '2023-03-31T06:31:40',
    ( '' ),
    ( '' ),
    'SwSTEP 2.0',
    'SolidWorks 2022',
    '' );
FILE_SCHEMA (( 'CONFIG_CONTROL_DESIGN' ));
ENDSEC;

DATA;
#1 = VERTEX_POINT ( 'NONE', #215 ) ;
#2 = EDGE_CURVE ( 'NONE', #314, #274, #98, .T. ) ;
#3 = CIRCLE ( 'NONE', #268, 0.9999999999999993339 ) ;
#4 = CARTESIAN_POINT ( 'NONE',  ( 8.260933544542134939E-14, -3.020154085325540840E-15, 23.66025403784432513 ) ) ;
#5 = ORIENTED_EDGE ( 'NONE', *, *, #195, .F. ) ;
#6 = FACE_OUTER_BOUND ( 'NONE', #333, .T. ) ;
#7 = ORIENTED_EDGE ( 'NONE', *, *, #13, .F. ) ;
#8 = AXIS2_PLACEMENT_3D ( 'NONE', #120, #183, #270 ) ;
#9 = FACE_OUTER_BOUND ( 'NONE', #198, .T. ) ;
#10 = DIRECTION ( 'NONE',  ( 0.000000000000000000, -1.000000000000000000, 0.000000000000000000 ) ) ;
#11 = CIRCLE ( 'NONE', #281, 2.999999999999999112 ) ;
#12 = FACE_OUTER_BOUND ( 'NONE', #81, .T. ) ;
#13 = EDGE_CURVE ( 'NONE', #97, #1, #59, .T. ) ;
#14 = DIRECTION ( 'NONE',  ( -4.456761796588769661E-31, -1.000000000000000000, -1.276467311168695512E-16 ) ) ;
#15 = VERTEX_POINT ( 'NONE', #253 ) ;
#16 = AXIS2_PLACEMENT_3D ( 'NONE', #140, #348, #292 ) ;
#17 = CARTESIAN_POINT ( 'NONE',  ( 1.326762908760390423E-13, 2.399999999999996803, 38.00000000000000000 ) ) ;
#18 = PLANE ( 'NONE',  #340 ) ;
#19 = CARTESIAN_POINT ( 'NONE',  ( 1.305814020727332001E-13, 2.999999999999996447, 37.40000000000000568 ) ) ;
#20 = SECURITY_CLASSIFICATION_LEVEL ( 'unclassified' ) ;
#21 = CARTESIAN_POINT ( 'NONE',  ( 1.305814020727332001E-13, -4.580179028811101798E-15, 37.40000000000000568 ) ) ;
#22 = ADVANCED_FACE ( 'NONE', ( #172 ), #157, .T. ) ;
#23 = APPROVAL ( #78, 'UNSPECIFIED' ) ;
#24 = DIRECTION ( 'NONE',  ( 0.000000000000000000, -1.000000000000000000, 0.000000000000000000 ) ) ;
#25 = EDGE_LOOP ( 'NONE', ( #82, #162, #290, #134 ) ) ;
#26 = PERSON_AND_ORGANIZATION ( #220, #230 ) ;
#27 = CARTESIAN_POINT ( 'NONE',  ( 8.704979013371558890E-14, 2.999999999999997780, 12.46410161513772863 ) ) ;
#28 = ORIENTED_EDGE ( 'NONE', *, *, #167, .T. ) ;
#29 = CARTESIAN_POINT ( 'NONE',  ( 1.745740669421566678E-14, 2.249639673992783127E-32, 5.000000000000000000 ) ) ;
#30 = ORIENTED_EDGE ( 'NONE', *, *, #285, .F. ) ;
#31 = ORIENTED_EDGE ( 'NONE', *, *, #175, .F. ) ;
#32 = PRODUCT ( '372687', '372687', '', ( #355 ) ) ;
#33 = ADVANCED_FACE ( 'NONE', ( #272 ), #141, .T. ) ;
#34 = CC_DESIGN_SECURITY_CLASSIFICATION ( #214, ( #286 ) ) ;
#35 = DIRECTION ( 'NONE',  ( -2.468850131082257849E-15, 0.7071067811865496822, -0.7071067811865453523 ) ) ;
#36 = EDGE_LOOP ( 'NONE', ( #191, #311, #83, #221 ) ) ;
#37 = CONICAL_SURFACE ( 'NONE', #347, 5.999999999999999112, 0.2617993877991502960 ) ;
#38 = CC_DESIGN_PERSON_AND_ORGANIZATION_ASSIGNMENT ( #70, #241, ( #214 ) ) ;
#39 = CYLINDRICAL_SURFACE ( 'NONE', #91, 0.9999999999999991118 ) ;
#40 = VECTOR ( 'NONE', #279, 1000.000000000000000 ) ;
#41 = APPROVAL_DATE_TIME ( #73, #99 ) ;
#42 = DIRECTION ( 'NONE',  ( -4.275831445896958607E-31, -1.000000000000000000, -1.224646799147353207E-16 ) ) ;
#43 = DIRECTION ( 'NONE',  ( 4.275831445896958607E-31, 1.000000000000000000, 1.224646799147353207E-16 ) ) ;
#44 = DIRECTION ( 'NONE',  ( -3.491481338843133355E-15, 1.224646799147353207E-16, -1.000000000000000000 ) ) ;
#45 = CC_DESIGN_APPROVAL ( #99, ( #286 ) ) ;
#46 = ORIENTED_EDGE ( 'NONE', *, *, #175, .T. ) ;
#47 = CIRCLE ( 'NONE', #258, 0.9999999999999993339 ) ;
#48 =( LENGTH_UNIT ( ) NAMED_UNIT ( * ) SI_UNIT ( .MILLI., .METRE. ) );
#49 = EDGE_CURVE ( 'NONE', #314, #15, #208, .T. ) ;
#50 = VECTOR ( 'NONE', #194, 1000.000000000000000 ) ;
#51 = DIRECTION ( 'NONE',  ( -2.382254525458708792E-15, -0.7071067811865493491, -0.7071067811865455743 ) ) ;
#52 = AXIS2_PLACEMENT_3D ( 'NONE', #174, #227, #318 ) ;
#53 = ORIENTED_EDGE ( 'NONE', *, *, #13, .T. ) ;
#54 = DIRECTION ( 'NONE',  ( -3.491481338843133355E-15, 1.224646799147353207E-16, -1.000000000000000000 ) ) ;
#55 = CARTESIAN_POINT ( 'NONE',  ( 4.351817819469793351E-14, -1.591001827480824846E-15, 12.46410161513772863 ) ) ;
#56 = AXIS2_PLACEMENT_3D ( 'NONE', #357, #100, #210 ) ;
#57 = ADVANCED_BREP_SHAPE_REPRESENTATION ( '372687', ( #299, #161, #102 ), #353 ) ;
#58 = FACE_OUTER_BOUND ( 'NONE', #361, .T. ) ;
#59 = LINE ( 'NONE', #259, #65 ) ;
#60 = CARTESIAN_POINT ( 'NONE',  ( 1.745740669421566678E-14, -1.000000000000000000, 5.000000000000000000 ) ) ;
#61 = EDGE_CURVE ( 'NONE', #160, #62, #205, .T. ) ;
#62 = VERTEX_POINT ( 'NONE', #27 ) ;
#63 = DIRECTION ( 'NONE',  ( 3.372511997194914833E-15, -0.2588190451025216277, 0.9659258262890679791 ) ) ;
#64 = CARTESIAN_POINT ( 'NONE',  ( -3.206816838010679608E-31, 1.124799933034400303E-32, -9.184688465421457852E-17 ) ) ;
#65 = VECTOR ( 'NONE', #51, 1000.000000000000114 ) ;
#66 = ADVANCED_FACE ( 'NONE', ( #133 ), #37, .T. ) ;
#67 = LINE ( 'NONE', #184, #204 ) ;
#68 = DIRECTION ( 'NONE',  ( 3.491481338843133355E-15, -1.276467311168695266E-16, 1.000000000000000000 ) ) ;
#69 = APPROVAL_PERSON_ORGANIZATION ( #231, #216, #145 ) ;
#70 = PERSON_AND_ORGANIZATION ( #220, #230 ) ;
#71 = AXIS2_PLACEMENT_3D ( 'NONE', #223, #192, #264 ) ;
#72 = APPLICATION_PROTOCOL_DEFINITION ( 'international standard', 'config_control_design', 1994, #110 ) ;
#73 = DATE_AND_TIME ( #305, #319 ) ;
#74 = DIRECTION ( 'NONE',  ( 3.404208188709233130E-15, 0.2588190451025214611, 0.9659258262890680902 ) ) ;
#75 = ORIENTED_EDGE ( 'NONE', *, *, #228, .F. ) ;
#76 = CIRCLE ( 'NONE', #56, 2.400000000000001688 ) ;
#77 = DIRECTION ( 'NONE',  ( 0.000000000000000000, 1.000000000000000000, 0.000000000000000000 ) ) ;
#78 = APPROVAL_STATUS ( 'not_yet_approved' ) ;
#79 = CC_DESIGN_PERSON_AND_ORGANIZATION_ASSIGNMENT ( #234, #147, ( #286 ) ) ;
#80 = CIRCLE ( 'NONE', #8, 2.400000000000001688 ) ;
#81 = EDGE_LOOP ( 'NONE', ( #323, #31 ) ) ;
#82 = ORIENTED_EDGE ( 'NONE', *, *, #233, .F. ) ;
#83 = ORIENTED_EDGE ( 'NONE', *, *, #239, .F. ) ;
#84 = CARTESIAN_POINT ( 'NONE',  ( 1.224646799147350002E-16, 0.9999999999999991118, -5.605293924377505371E-17 ) ) ;
#85 = CARTESIAN_POINT ( 'NONE',  ( 1.319595011101558884E-13, -2.400000000000006128, 38.00000000000000000 ) ) ;
#86 = AXIS2_PLACEMENT_3D ( 'NONE', #243, #211, #77 ) ;
#87 = COORDINATED_UNIVERSAL_TIME_OFFSET ( 1, 0, .AHEAD. ) ;
#88 = DESIGN_CONTEXT ( 'detailed design', #146, 'design' ) ;
#89 = EDGE_CURVE ( 'NONE', #62, #315, #199, .T. ) ;
#90 = AXIS2_PLACEMENT_3D ( 'NONE', #300, #273, #165 ) ;
#91 = AXIS2_PLACEMENT_3D ( 'NONE', #112, #296, #201 ) ;
#92 = ADVANCED_FACE ( 'NONE', ( #12 ), #226, .F. ) ;
#93 = AXIS2_PLACEMENT_3D ( 'NONE', #29, #255, #108 ) ;
#94 = CALENDAR_DATE ( 2023, 31, 3 ) ;
#95 = DIRECTION ( 'NONE',  ( 3.491481338843133355E-15, -1.276467311168695266E-16, 1.000000000000000000 ) ) ;
#96 = ADVANCED_FACE ( 'NONE', ( #6 ), #250, .T. ) ;
#97 = VERTEX_POINT ( 'NONE', #85 ) ;
#98 = CIRCLE ( 'NONE', #313, 0.9999999999999991118 ) ;
#99 = APPROVAL ( #132, 'UNSPECIFIED' ) ;
#100 = DIRECTION ( 'NONE',  ( -3.491481338843133355E-15, 1.224646799147353207E-16, -1.000000000000000000 ) ) ;
#101 = PERSON_AND_ORGANIZATION ( #220, #230 ) ;
#102 = AXIS2_PLACEMENT_3D ( 'NONE', #200, #328, #122 ) ;
#103 = LINE ( 'NONE', #337, #362 ) ;
#104 = AXIS2_PLACEMENT_3D ( 'NONE', #128, #44, #148 ) ;
#105 = ORIENTED_EDGE ( 'NONE', *, *, #307, .T. ) ;
#106 = ORIENTED_EDGE ( 'NONE', *, *, #307, .F. ) ;
#107 = CC_DESIGN_DATE_AND_TIME_ASSIGNMENT ( #139, #245, ( #214 ) ) ;
#108 = DIRECTION ( 'NONE',  ( -4.275831445896958607E-31, -1.000000000000000000, -1.224646799147353207E-16 ) ) ;
#109 = EDGE_CURVE ( 'NONE', #315, #62, #11, .T. ) ;
#110 = APPLICATION_CONTEXT ( 'configuration controlled 3d designs of mechanical parts and assemblies' ) ;
#111 = AXIS2_PLACEMENT_3D ( 'NONE', #64, #137, #196 ) ;
#112 = CARTESIAN_POINT ( 'NONE',  ( -6.413839710158237013E-31, 0.000000000000000000, -1.836996703606440502E-16 ) ) ;
#113 = DIRECTION ( 'NONE',  ( -4.456761796588769661E-31, -1.000000000000000000, -1.276467311168695512E-16 ) ) ;
#114 = APPROVAL_STATUS ( 'not_yet_approved' ) ;
#115 = CLOSED_SHELL ( 'NONE', ( #142, #171, #295, #276 ) ) ;
#116 = ORIENTED_EDGE ( 'NONE', *, *, #89, .T. ) ;
#117 = CARTESIAN_POINT ( 'NONE',  ( 8.741718417345976910E-14, -3.000000000000000888, 12.46410161513772863 ) ) ;
#118 = APPLICATION_PROTOCOL_DEFINITION ( 'international standard', 'config_control_design', 1994, #146 ) ;
#119 = CARTESIAN_POINT ( 'NONE',  ( 0.000000000000000000, 0.000000000000000000, 0.000000000000000000 ) ) ;
#120 = CARTESIAN_POINT ( 'NONE',  ( 1.326762908760390423E-13, -4.653657836759941941E-15, 38.00000000000000000 ) ) ;
#121 = DIRECTION ( 'NONE',  ( 3.491481338843133355E-15, -1.276467311168695266E-16, 1.000000000000000000 ) ) ;
#122 = DIRECTION ( 'NONE',  ( 1.000000000000000000, 0.000000000000000000, 0.000000000000000000 ) ) ;
#123 =( NAMED_UNIT ( * ) PLANE_ANGLE_UNIT ( ) SI_UNIT ( $, .RADIAN. ) );
#124 = FACE_OUTER_BOUND ( 'NONE', #25, .T. ) ;
#125 = AXIS2_PLACEMENT_3D ( 'NONE', #350, #121, #14 ) ;
#126 = DIRECTION ( 'NONE',  ( 4.275831445896958607E-31, 1.000000000000000000, 1.224646799147353207E-16 ) ) ;
#127 = ORIENTED_EDGE ( 'NONE', *, *, #61, .F. ) ;
#128 = CARTESIAN_POINT ( 'NONE',  ( 1.326762908760390423E-13, 1.799711739194223108E-32, 38.00000000000000000 ) ) ;
#129 = LINE ( 'NONE', #329, #166 ) ;
#130 = PRODUCT_DEFINITION ( 'UNKNOWN', '', #286, #88 ) ;
#131 = APPROVAL_PERSON_ORGANIZATION ( #101, #23, #187 ) ;
#132 = APPROVAL_STATUS ( 'not_yet_approved' ) ;
#133 = FACE_OUTER_BOUND ( 'NONE', #218, .T. ) ;
#134 = ORIENTED_EDGE ( 'NONE', *, *, #109, .F. ) ;
#135 = COORDINATED_UNIVERSAL_TIME_OFFSET ( 1, 0, .AHEAD. ) ;
#136 = CYLINDRICAL_SURFACE ( 'NONE', #293, 0.9999999999999991118 ) ;
#137 = DIRECTION ( 'NONE',  ( 3.491481338843133355E-15, -1.224646799147353207E-16, 1.000000000000000000 ) ) ;
#138 = CIRCLE ( 'NONE', #190, 3.000000000000001332 ) ;
#139 = DATE_AND_TIME ( #178, #254 ) ;
#140 = CARTESIAN_POINT ( 'NONE',  ( 1.326762908760390423E-13, -4.653657836759941941E-15, 38.00000000000000000 ) ) ;
#141 = CYLINDRICAL_SURFACE ( 'NONE', #217, 2.999999999999999112 ) ;
#142 = ADVANCED_FACE ( 'NONE', ( #343 ), #136, .T. ) ;
#143 = APPROVAL_ROLE ( '' ) ;
#144 = LINE ( 'NONE', #17, #331 ) ;
#145 = APPROVAL_ROLE ( '' ) ;
#146 = APPLICATION_CONTEXT ( 'configuration controlled 3d designs of mechanical parts and assemblies' ) ;
#147 = PERSON_AND_ORGANIZATION_ROLE ( 'design_supplier' ) ;
#148 = DIRECTION ( 'NONE',  ( 4.275831445896958607E-31, 1.000000000000000000, 1.224646799147353207E-16 ) ) ;
#149 = VERTEX_POINT ( 'NONE', #60 ) ;
#150 = CARTESIAN_POINT ( 'NONE',  ( 1.745740669421566678E-14, -6.382336555843476821E-16, 5.000000000000000000 ) ) ;
#151 = VECTOR ( 'NONE', #309, 1000.000000000000000 ) ;
#152 = APPROVAL_DATE_TIME ( #212, #23 ) ;
#153 = CC_DESIGN_DATE_AND_TIME_ASSIGNMENT ( #163, #278, ( #130 ) ) ;
#154 = CARTESIAN_POINT ( 'NONE',  ( 1.282749433769087232E-30, 2.999999999999999112, 3.673940397442058882E-16 ) ) ;
#155 = LOCAL_TIME ( 8, 31, 40.00000000000000000, #135 ) ;
#156 = EDGE_CURVE ( 'NONE', #256, #15, #271, .T. ) ;
#157 = CONICAL_SURFACE ( 'NONE', #354, 5.999999999999999112, 0.2617993877991502960 ) ;
#158 = ORIENTED_EDGE ( 'NONE', *, *, #109, .T. ) ;
#159 = PRODUCT_RELATED_PRODUCT_CATEGORY ( 'detail', '', ( #32 ) ) ;
#160 = VERTEX_POINT ( 'NONE', #19 ) ;
#161 = MANIFOLD_SOLID_BREP ( 'Corps-Déplacer/Copier1[2]', #115 ) ;
#162 = ORIENTED_EDGE ( 'NONE', *, *, #228, .T. ) ;
#163 = DATE_AND_TIME ( #316, #155 ) ;
#164 = CARTESIAN_POINT ( 'NONE',  ( 1.326762908760390423E-13, 2.399999999999996803, 38.00000000000000000 ) ) ;
#165 = DIRECTION ( 'NONE',  ( -1.421085471520200372E-14, -1.000000000000000000, 0.000000000000000000 ) ) ;
#166 = VECTOR ( 'NONE', #74, 1000.000000000000000 ) ;
#167 = EDGE_CURVE ( 'NONE', #274, #314, #240, .T. ) ;
#168 = EDGE_LOOP ( 'NONE', ( #5, #176 ) ) ;
#169 = ORIENTED_EDGE ( 'NONE', *, *, #49, .T. ) ;
#170 = DIRECTION ( 'NONE',  ( 3.491481338843133355E-15, -1.276467311168695266E-16, 1.000000000000000000 ) ) ;
#171 = ADVANCED_FACE ( 'NONE', ( #181 ), #18, .T. ) ;
#172 = FACE_OUTER_BOUND ( 'NONE', #282, .T. ) ;
#173 = ORIENTED_EDGE ( 'NONE', *, *, #233, .T. ) ;
#174 = CARTESIAN_POINT ( 'NONE',  ( 1.745740669421566678E-14, -6.382336555843476821E-16, 5.000000000000000000 ) ) ;
#175 = EDGE_CURVE ( 'NONE', #344, #149, #47, .T. ) ;
#176 = ORIENTED_EDGE ( 'NONE', *, *, #332, .F. ) ;
#177 = FACE_OUTER_BOUND ( 'NONE', #359, .T. ) ;
#178 = CALENDAR_DATE ( 2023, 31, 3 ) ;
#179 = PRODUCT_DEFINITION_SHAPE ( 'NONE', 'NONE',  #130 ) ;
#180 = ADVANCED_FACE ( 'NONE', ( #235 ), #206, .F. ) ;
#181 = FACE_OUTER_BOUND ( 'NONE', #288, .T. ) ;
#182 = CC_DESIGN_PERSON_AND_ORGANIZATION_ASSIGNMENT ( #356, #317, ( #130 ) ) ;
#183 = DIRECTION ( 'NONE',  ( -3.491481338843133355E-15, 1.224646799147353207E-16, -1.000000000000000000 ) ) ;
#184 = CARTESIAN_POINT ( 'NONE',  ( 8.260933544542134939E-14, -6.000000000000001776, 23.66025403784432513 ) ) ;
#185 = CC_DESIGN_APPROVAL ( #216, ( #130 ) ) ;
#186 = DIRECTION ( 'NONE',  ( 0.000000000000000000, -1.000000000000000000, 0.000000000000000000 ) ) ;
#187 = APPROVAL_ROLE ( '' ) ;
#188 = EDGE_CURVE ( 'NONE', #160, #1, #138, .T. ) ;
#189 = CARTESIAN_POINT ( 'NONE',  ( 0.000000000000000000, 0.000000000000000000, 0.000000000000000000 ) ) ;
#190 = AXIS2_PLACEMENT_3D ( 'NONE', #21, #244, #242 ) ;
#191 = ORIENTED_EDGE ( 'NONE', *, *, #2, .T. ) ;
#192 = DIRECTION ( 'NONE',  ( -3.491481338843133355E-15, 1.224646799147353207E-16, -1.000000000000000000 ) ) ;
#193 = CC_DESIGN_PERSON_AND_ORGANIZATION_ASSIGNMENT ( #325, #265, ( #32 ) ) ;
#194 = DIRECTION ( 'NONE',  ( 3.491481338843133355E-15, -1.276467311168695266E-16, 1.000000000000000000 ) ) ;
#195 = EDGE_CURVE ( 'NONE', #251, #97, #76, .T. ) ;
#196 = DIRECTION ( 'NONE',  ( -4.275831445896958607E-31, -1.000000000000000000, -1.224646799147353207E-16 ) ) ;
#197 = ADVANCED_FACE ( 'NONE', ( #124 ), #248, .T. ) ;
#198 = EDGE_LOOP ( 'NONE', ( #262, #28, #169, #257 ) ) ;
#199 = CIRCLE ( 'NONE', #90, 2.999999999999999112 ) ;
#200 = CARTESIAN_POINT ( 'NONE',  ( 0.000000000000000000, 0.000000000000000000, 0.000000000000000000 ) ) ;
#201 = DIRECTION ( 'NONE',  ( -4.456761796588769661E-31, -1.000000000000000000, -1.276467311168695512E-16 ) ) ;
#202 = PERSON_AND_ORGANIZATION_ROLE ( 'creator' ) ;
#203 = DATE_AND_TIME ( #94, #280 ) ;
#204 = VECTOR ( 'NONE', #63, 1000.000000000000114 ) ;
#205 = LINE ( 'NONE', #154, #40 ) ;
#206 = PLANE ( 'NONE',  #104 ) ;
#207 = DIRECTION ( 'NONE',  ( -3.491481338843133355E-15, 1.224646799147353207E-16, -1.000000000000000000 ) ) ;
#208 = LINE ( 'NONE', #306, #151 ) ;
#209 = EDGE_CURVE ( 'NONE', #344, #62, #129, .T. ) ;
#210 = DIRECTION ( 'NONE',  ( 0.000000000000000000, 1.000000000000000000, 0.000000000000000000 ) ) ;
#211 = DIRECTION ( 'NONE',  ( -3.491481338843133355E-15, 1.224646799147353207E-16, -1.000000000000000000 ) ) ;
#212 = DATE_AND_TIME ( #358, #263 ) ;
#213 = CIRCLE ( 'NONE', #86, 3.000000000000001332 ) ;
#214 = SECURITY_CLASSIFICATION ( '', '', #20 ) ;
#215 = CARTESIAN_POINT ( 'NONE',  ( 8.741718417345971861E-14, -3.000000000000006217, 37.40000000000000568 ) ) ;
#216 = APPROVAL ( #114, 'UNSPECIFIED' ) ;
#217 = AXIS2_PLACEMENT_3D ( 'NONE', #119, #277, #43 ) ;
#218 = EDGE_LOOP ( 'NONE', ( #284, #46, #363, #158 ) ) ;
#219 = DIRECTION ( 'NONE',  ( 3.491481338843133355E-15, -1.276467311168695266E-16, 1.000000000000000000 ) ) ;
#220 = PERSON ( 'UNSPECIFIED', 'UNSPECIFIED', 'UNSPECIFIED', ('UNSPECIFIED'), ('UNSPECIFIED'), ('UNSPECIFIED') ) ;
#221 = ORIENTED_EDGE ( 'NONE', *, *, #49, .F. ) ;
#222 = CLOSED_SHELL ( 'NONE', ( #22, #96, #33, #197, #301, #180, #66, #92 ) ) ;
#223 = CARTESIAN_POINT ( 'NONE',  ( 1.326762908760390423E-13, -4.653657836759941941E-15, 38.00000000000000000 ) ) ;
#224 = CONICAL_SURFACE ( 'NONE', #16, 2.400000000000001688, 0.7853981633974511656 ) ;
#225 = DIRECTION ( 'NONE',  ( 3.491481338843133355E-15, -1.276467311168695266E-16, 1.000000000000000000 ) ) ;
#226 = PLANE ( 'NONE',  #93 ) ;
#227 = DIRECTION ( 'NONE',  ( 3.491481338843133355E-15, -1.276467311168695266E-16, 1.000000000000000000 ) ) ;
#228 = EDGE_CURVE ( 'NONE', #1, #160, #213, .T. ) ;
#229 = APPROVAL_DATE_TIME ( #203, #216 ) ;
#230 = ORGANIZATION ( 'UNSPECIFIED', 'UNSPECIFIED', '' ) ;
#231 = PERSON_AND_ORGANIZATION ( #220, #230 ) ;
#232 = DIRECTION ( 'NONE',  ( 3.491481338843133355E-15, -1.224646799147353207E-16, 1.000000000000000000 ) ) ;
#233 = EDGE_CURVE ( 'NONE', #1, #315, #103, .T. ) ;
#234 = PERSON_AND_ORGANIZATION ( #220, #230 ) ;
#235 = FACE_OUTER_BOUND ( 'NONE', #168, .T. ) ;
#236 = COORDINATED_UNIVERSAL_TIME_OFFSET ( 1, 0, .AHEAD. ) ;
#237 = ORIENTED_EDGE ( 'NONE', *, *, #209, .T. ) ;
#238 =( NAMED_UNIT ( * ) SI_UNIT ( $, .STERADIAN. ) SOLID_ANGLE_UNIT ( ) );
#239 = EDGE_CURVE ( 'NONE', #15, #256, #3, .T. ) ;
#240 = CIRCLE ( 'NONE', #125, 0.9999999999999991118 ) ;
#241 = PERSON_AND_ORGANIZATION_ROLE ( 'classification_officer' ) ;
#242 = DIRECTION ( 'NONE',  ( 0.000000000000000000, 1.000000000000000000, 0.000000000000000000 ) ) ;
#243 = CARTESIAN_POINT ( 'NONE',  ( 1.305814020727332001E-13, -4.580179028811101798E-15, 37.40000000000000568 ) ) ;
#244 = DIRECTION ( 'NONE',  ( -3.491481338843133355E-15, 1.224646799147353207E-16, -1.000000000000000000 ) ) ;
#245 = DATE_TIME_ROLE ( 'classification_date' ) ;
#246 = APPROVAL_PERSON_ORGANIZATION ( #26, #99, #143 ) ;
#247 = CARTESIAN_POINT ( 'NONE',  ( 1.264656398699904550E-30, -6.968383873751909209E-32, 3.622119885420712633E-16 ) ) ;
#248 = CYLINDRICAL_SURFACE ( 'NONE', #298, 2.999999999999999112 ) ;
#249 = ORIENTED_EDGE ( 'NONE', *, *, #351, .T. ) ;
#250 = CONICAL_SURFACE ( 'NONE', #71, 2.400000000000001688, 0.7853981633974511656 ) ;
#251 = VERTEX_POINT ( 'NONE', #164 ) ;
#252 = EDGE_CURVE ( 'NONE', #274, #256, #289, .T. ) ;
#253 = CARTESIAN_POINT ( 'NONE',  ( 1.745740669421566678E-14, -1.000000000000000000, 5.000000000000000000 ) ) ;
#254 = LOCAL_TIME ( 8, 31, 40.00000000000000000, #87 ) ;
#255 = DIRECTION ( 'NONE',  ( 3.491481338843133355E-15, -1.224646799147353207E-16, 1.000000000000000000 ) ) ;
#256 = VERTEX_POINT ( 'NONE', #345 ) ;
#257 = ORIENTED_EDGE ( 'NONE', *, *, #156, .F. ) ;
#258 = AXIS2_PLACEMENT_3D ( 'NONE', #297, #68, #349 ) ;
#260 = ORIENTED_EDGE ( 'NONE', *, *, #167, .F. ) ;
#259 = CARTESIAN_POINT ( 'NONE',  ( 1.329702061078344218E-13, -2.400000000000006128, 38.00000000000000000 ) ) ;
#261 = CARTESIAN_POINT ( 'NONE',  ( -6.413839710158237013E-31, 0.000000000000000000, -1.836996703606440502E-16 ) ) ;
#262 = ORIENTED_EDGE ( 'NONE', *, *, #252, .F. ) ;
#263 = LOCAL_TIME ( 8, 31, 40.00000000000000000, #308 ) ;
#264 = DIRECTION ( 'NONE',  ( 0.000000000000000000, 1.000000000000000000, 0.000000000000000000 ) ) ;
#265 = PERSON_AND_ORGANIZATION_ROLE ( 'design_owner' ) ;
#266 = CC_DESIGN_PERSON_AND_ORGANIZATION_ASSIGNMENT ( #269, #202, ( #286 ) ) ;
#267 = CARTESIAN_POINT ( 'NONE',  ( 8.189802190410281091E-31, -0.9999999999999991118, 2.345652574252017860E-16 ) ) ;
#268 = AXIS2_PLACEMENT_3D ( 'NONE', #342, #225, #283 ) ;
#269 = PERSON_AND_ORGANIZATION ( #220, #230 ) ;
#270 = DIRECTION ( 'NONE',  ( 0.000000000000000000, 1.000000000000000000, 0.000000000000000000 ) ) ;
#271 = CIRCLE ( 'NONE', #52, 0.9999999999999993339 ) ;
#272 = FACE_OUTER_BOUND ( 'NONE', #341, .T. ) ;
#273 = DIRECTION ( 'NONE',  ( -3.491481338843133355E-15, 1.276467311168695266E-16, -1.000000000000000000 ) ) ;
#274 = VERTEX_POINT ( 'NONE', #320 ) ;
#275 = COORDINATED_UNIVERSAL_TIME_OFFSET ( 1, 0, .AHEAD. ) ;
#276 = ADVANCED_FACE ( 'NONE', ( #58 ), #324, .F. ) ;
#277 = DIRECTION ( 'NONE',  ( -3.491481338843133355E-15, 1.224646799147353207E-16, -1.000000000000000000 ) ) ;
#278 = DATE_TIME_ROLE ( 'creation_date' ) ;
#279 = DIRECTION ( 'NONE',  ( -3.491481338843133355E-15, 1.224646799147353207E-16, -1.000000000000000000 ) ) ;
#280 = LOCAL_TIME ( 8, 31, 40.00000000000000000, #236 ) ;
#281 = AXIS2_PLACEMENT_3D ( 'NONE', #55, #322, #10 ) ;
#282 = EDGE_LOOP ( 'NONE', ( #249, #237, #116, #30 ) ) ;
#283 = DIRECTION ( 'NONE',  ( 0.000000000000000000, -1.000000000000000000, 0.000000000000000000 ) ) ;
#284 = ORIENTED_EDGE ( 'NONE', *, *, #209, .F. ) ;
#285 = EDGE_CURVE ( 'NONE', #149, #315, #67, .T. ) ;
#286 = PRODUCT_DEFINITION_FORMATION_WITH_SPECIFIED_SOURCE ( 'ANY', '', #32, .NOT_KNOWN. ) ;
#287 = ORIENTED_EDGE ( 'NONE', *, *, #239, .T. ) ;
#288 = EDGE_LOOP ( 'NONE', ( #287, #346 ) ) ;
#289 = LINE ( 'NONE', #84, #50 ) ;
#290 = ORIENTED_EDGE ( 'NONE', *, *, #61, .T. ) ;
#291 = UNCERTAINTY_MEASURE_WITH_UNIT (LENGTH_MEASURE( 1.000000000000000082E-05 ), #48, 'distance_accuracy_value', 'NONE');
#292 = DIRECTION ( 'NONE',  ( 0.000000000000000000, 1.000000000000000000, 0.000000000000000000 ) ) ;
#293 = AXIS2_PLACEMENT_3D ( 'NONE', #261, #170, #113 ) ;
#294 = DIRECTION ( 'NONE',  ( 0.000000000000000000, -1.000000000000000000, 0.000000000000000000 ) ) ;
#295 = ADVANCED_FACE ( 'NONE', ( #9 ), #39, .T. ) ;
#296 = DIRECTION ( 'NONE',  ( 3.491481338843133355E-15, -1.276467311168695266E-16, 1.000000000000000000 ) ) ;
#297 = CARTESIAN_POINT ( 'NONE',  ( 1.745740669421566678E-14, -6.382336555843476821E-16, 5.000000000000000000 ) ) ;
#298 = AXIS2_PLACEMENT_3D ( 'NONE', #189, #207, #126 ) ;
#299 = MANIFOLD_SOLID_BREP ( 'Corps-Déplacer/Copier1[1]', #222 ) ;
#300 = CARTESIAN_POINT ( 'NONE',  ( 4.351817819469793351E-14, -1.591001827480824846E-15, 12.46410161513772863 ) ) ;
#301 = ADVANCED_FACE ( 'NONE', ( #177 ), #224, .T. ) ;
#302 = CARTESIAN_POINT ( 'NONE',  ( 3.073272180428626729E-14, 0.9999999999999986677, 5.000000000000000000 ) ) ;
#303 = SHAPE_DEFINITION_REPRESENTATION ( #179, #57 ) ;
#304 = AXIS2_PLACEMENT_3D ( 'NONE', #150, #360, #24 ) ;
#305 = CALENDAR_DATE ( 2023, 31, 3 ) ;
#306 = CARTESIAN_POINT ( 'NONE',  ( -1.087060150674700229E-30, -0.9999999999999991118, -3.113464014775134782E-16 ) ) ;
#307 = EDGE_CURVE ( 'NONE', #251, #160, #144, .T. ) ;
#308 = COORDINATED_UNIVERSAL_TIME_OFFSET ( 1, 0, .AHEAD. ) ;
#309 = DIRECTION ( 'NONE',  ( 3.491481338843133355E-15, -1.276467311168695266E-16, 1.000000000000000000 ) ) ;
#310 = CC_DESIGN_APPROVAL ( #23, ( #214 ) ) ;
#311 = ORIENTED_EDGE ( 'NONE', *, *, #252, .T. ) ;
#312 = ORIENTED_EDGE ( 'NONE', *, *, #89, .F. ) ;
#313 = AXIS2_PLACEMENT_3D ( 'NONE', #247, #219, #335 ) ;
#314 = VERTEX_POINT ( 'NONE', #267 ) ;
#315 = VERTEX_POINT ( 'NONE', #117 ) ;
#316 = CALENDAR_DATE ( 2023, 31, 3 ) ;
#317 = PERSON_AND_ORGANIZATION_ROLE ( 'creator' ) ;
#318 = DIRECTION ( 'NONE',  ( 0.000000000000000000, -1.000000000000000000, 0.000000000000000000 ) ) ;
#319 = LOCAL_TIME ( 8, 31, 40.00000000000000000, #275 ) ;
#320 = CARTESIAN_POINT ( 'NONE',  ( 8.851168027022574847E-15, 0.9999999999999991118, 4.898587196589097284E-16 ) ) ;
#321 = ORIENTED_EDGE ( 'NONE', *, *, #188, .F. ) ;
#322 = DIRECTION ( 'NONE',  ( -3.491481338843133355E-15, 1.276467311168695266E-16, -1.000000000000000000 ) ) ;
#323 = ORIENTED_EDGE ( 'NONE', *, *, #351, .F. ) ;
#324 = PLANE ( 'NONE',  #111 ) ;
#325 = PERSON_AND_ORGANIZATION ( #220, #230 ) ;
#326 = CIRCLE ( 'NONE', #304, 0.9999999999999993339 ) ;
#327 = CARTESIAN_POINT ( 'NONE',  ( 1.745740669421566678E-14, 2.249639673992783127E-32, 5.000000000000000000 ) ) ;
#328 = DIRECTION ( 'NONE',  ( 0.000000000000000000, 0.000000000000000000, 1.000000000000000000 ) ) ;
#329 = CARTESIAN_POINT ( 'NONE',  ( 8.334412352490976028E-14, 5.999999999999996447, 23.66025403784432513 ) ) ;
#330 = ORIENTED_EDGE ( 'NONE', *, *, #2, .F. ) ;
#331 = VECTOR ( 'NONE', #35, 1000.000000000000000 ) ;
#332 = EDGE_CURVE ( 'NONE', #97, #251, #80, .T. ) ;
#333 = EDGE_LOOP ( 'NONE', ( #334, #53, #321, #106 ) ) ;
#334 = ORIENTED_EDGE ( 'NONE', *, *, #195, .T. ) ;
#335 = DIRECTION ( 'NONE',  ( -4.456761796588769661E-31, -1.000000000000000000, -1.276467311168695512E-16 ) ) ;
#336 = ORIENTED_EDGE ( 'NONE', *, *, #188, .T. ) ;
#337 = CARTESIAN_POINT ( 'NONE',  ( 3.673940397442046063E-16, -2.999999999999999112, -3.673940397442071208E-16 ) ) ;
#338 = DIRECTION ( 'NONE',  ( 3.491481338843133355E-15, -1.276467311168695266E-16, 1.000000000000000000 ) ) ;
#339 = ORIENTED_EDGE ( 'NONE', *, *, #332, .T. ) ;
#340 = AXIS2_PLACEMENT_3D ( 'NONE', #327, #232, #42 ) ;
#341 = EDGE_LOOP ( 'NONE', ( #336, #173, #312, #127 ) ) ;
#342 = CARTESIAN_POINT ( 'NONE',  ( 1.745740669421566678E-14, -6.382336555843476821E-16, 5.000000000000000000 ) ) ;
#343 = FACE_OUTER_BOUND ( 'NONE', #36, .T. ) ;
#344 = VERTEX_POINT ( 'NONE', #302 ) ;
#345 = CARTESIAN_POINT ( 'NONE',  ( 8.851168027022570114E-15, 0.9999999999999986677, 5.000000000000000000 ) ) ;
#346 = ORIENTED_EDGE ( 'NONE', *, *, #156, .T. ) ;
#347 = AXIS2_PLACEMENT_3D ( 'NONE', #352, #95, #186 ) ;
#348 = DIRECTION ( 'NONE',  ( -3.491481338843133355E-15, 1.224646799147353207E-16, -1.000000000000000000 ) ) ;
#349 = DIRECTION ( 'NONE',  ( 0.000000000000000000, -1.000000000000000000, 0.000000000000000000 ) ) ;
#350 = CARTESIAN_POINT ( 'NONE',  ( 1.264656398699904550E-30, -6.968383873751909209E-32, 3.622119885420712633E-16 ) ) ;
#351 = EDGE_CURVE ( 'NONE', #149, #344, #326, .T. ) ;
#352 = CARTESIAN_POINT ( 'NONE',  ( 8.260933544542134939E-14, -3.020154085325540840E-15, 23.66025403784432513 ) ) ;
#353 =( GEOMETRIC_REPRESENTATION_CONTEXT ( 3 ) GLOBAL_UNCERTAINTY_ASSIGNED_CONTEXT ( ( #291 ) ) GLOBAL_UNIT_ASSIGNED_CONTEXT ( ( #48, #123, #238 ) ) REPRESENTATION_CONTEXT ( 'NONE', 'WORKASPACE' ) );
#354 = AXIS2_PLACEMENT_3D ( 'NONE', #4, #338, #294 ) ;
#355 = MECHANICAL_CONTEXT ( 'NONE', #110, 'mechanical' ) ;
#356 = PERSON_AND_ORGANIZATION ( #220, #230 ) ;
#357 = CARTESIAN_POINT ( 'NONE',  ( 1.326762908760390423E-13, -4.653657836759941941E-15, 38.00000000000000000 ) ) ;
#358 = CALENDAR_DATE ( 2023, 31, 3 ) ;
#359 = EDGE_LOOP ( 'NONE', ( #7, #339, #105, #75 ) ) ;
#360 = DIRECTION ( 'NONE',  ( 3.491481338843133355E-15, -1.276467311168695266E-16, 1.000000000000000000 ) ) ;
#361 = EDGE_LOOP ( 'NONE', ( #330, #260 ) ) ;
#362 = VECTOR ( 'NONE', #54, 1000.000000000000000 ) ;
#363 = ORIENTED_EDGE ( 'NONE', *, *, #285, .T. ) ;
ENDSEC;
END-ISO-10303-21;
