ISO-10303-21;
HEADER;
FILE_DESCRIPTION (( 'STEP AP203' ),
    '1' );
FILE_NAME ('372686.step',
    '2023-03-31T06:31:39',
    ( '' ),
    ( '' ),
    'SwSTEP 2.0',
    'SolidWorks 2022',
    '' );
FILE_SCHEMA (( 'CONFIG_CONTROL_DESIGN' ));
ENDSEC;

DATA;
#1 = EDGE_LOOP ( 'NONE', ( #107, #335 ) ) ;
#2 = ADVANCED_FACE ( 'NONE', ( #262 ), #222, .T. ) ;
#3 = PERSON_AND_ORGANIZATION ( #221, #247 ) ;
#4 = CC_DESIGN_DATE_AND_TIME_ASSIGNMENT ( #64, #26, ( #317 ) ) ;
#5 = EDGE_LOOP ( 'NONE', ( #17, #279 ) ) ;
#6 = PERSON_AND_ORGANIZATION ( #221, #247 ) ;
#7 = CARTESIAN_POINT ( 'NONE',  ( 0.000000000000000000, 0.000000000000000000, 0.000000000000000000 ) ) ;
#8 = AXIS2_PLACEMENT_3D ( 'NONE', #271, #28, #40 ) ;
#9 = ORIENTED_EDGE ( 'NONE', *, *, #121, .F. ) ;
#10 = LINE ( 'NONE', #122, #354 ) ;
#11 = FACE_OUTER_BOUND ( 'NONE', #148, .T. ) ;
#12 = DIRECTION ( 'NONE',  ( 0.000000000000000000, 1.000000000000000000, 0.000000000000000000 ) ) ;
#13 = AXIS2_PLACEMENT_3D ( 'NONE', #7, #311, #344 ) ;
#14 = FACE_OUTER_BOUND ( 'NONE', #143, .T. ) ;
#15 = EDGE_CURVE ( 'NONE', #203, #323, #142, .T. ) ;
#16 = ADVANCED_BREP_SHAPE_REPRESENTATION ( '372686', ( #193, #320, #333 ), #218 ) ;
#17 = ORIENTED_EDGE ( 'NONE', *, *, #281, .T. ) ;
#18 = ORIENTED_EDGE ( 'NONE', *, *, #162, .F. ) ;
#19 = CARTESIAN_POINT ( 'NONE',  ( 2.086808398166935407E-14, 0.9999999999999986677, 5.000000000000000000 ) ) ;
#20 = EDGE_LOOP ( 'NONE', ( #296, #39, #128, #246 ) ) ;
#21 = APPROVAL ( #169, 'UNSPECIFIED' ) ;
#22 = ORIENTED_EDGE ( 'NONE', *, *, #210, .T. ) ;
#23 = DIRECTION ( 'NONE',  ( 3.491481338843133355E-15, -1.224646799147353207E-16, 1.000000000000000000 ) ) ;
#24 = ADVANCED_FACE ( 'NONE', ( #118 ), #163, .T. ) ;
#25 = CONICAL_SURFACE ( 'NONE', #275, 5.999999999999999112, 0.2617993877991501850 ) ;
#26 = DATE_TIME_ROLE ( 'creation_date' ) ;
#27 = CC_DESIGN_PERSON_AND_ORGANIZATION_ASSIGNMENT ( #56, #83, ( #152 ) ) ;
#28 = DIRECTION ( 'NONE',  ( -3.491481338843133355E-15, 1.276467311168695266E-16, -1.000000000000000000 ) ) ;
#29 = ORIENTED_EDGE ( 'NONE', *, *, #329, .F. ) ;
#30 = APPROVAL_PERSON_ORGANIZATION ( #343, #21, #278 ) ;
#31 = SECURITY_CLASSIFICATION_LEVEL ( 'unclassified' ) ;
#32 = CIRCLE ( 'NONE', #244, 1.200000000000001066 ) ;
#33 = ADVANCED_FACE ( 'NONE', ( #144 ), #338, .T. ) ;
#34 = VERTEX_POINT ( 'NONE', #334 ) ;
#35 = DIRECTION ( 'NONE',  ( -3.491481338843133355E-15, 1.224646799147353207E-16, -1.000000000000000000 ) ) ;
#36 = CARTESIAN_POINT ( 'NONE',  ( 7.798442004173327768E-14, -1.499999999999998890, 6.866025403784427716 ) ) ;
#37 = CARTESIAN_POINT ( 'NONE',  ( 6.413747168845430028E-31, 1.499999999999998002, 1.836970198721027469E-16 ) ) ;
#38 = EDGE_LOOP ( 'NONE', ( #22, #166, #120, #180 ) ) ;
#39 = ORIENTED_EDGE ( 'NONE', *, *, #184, .T. ) ;
#40 = DIRECTION ( 'NONE',  ( 0.000000000000000000, -1.000000000000000000, 0.000000000000000000 ) ) ;
#41 = CARTESIAN_POINT ( 'NONE',  ( -2.476696116459930772E-30, 6.709805186089075782E-32, -7.093539607118619240E-16 ) ) ;
#42 = LINE ( 'NONE', #75, #150 ) ;
#43 = SHAPE_DEFINITION_REPRESENTATION ( #63, #16 ) ;
#44 = AXIS2_PLACEMENT_3D ( 'NONE', #327, #360, #267 ) ;
#45 = FACE_OUTER_BOUND ( 'NONE', #5, .T. ) ;
#46 = AXIS2_PLACEMENT_3D ( 'NONE', #346, #307, #175 ) ;
#47 = AXIS2_PLACEMENT_3D ( 'NONE', #287, #318, #282 ) ;
#48 = FACE_OUTER_BOUND ( 'NONE', #331, .T. ) ;
#49 = EDGE_LOOP ( 'NONE', ( #171, #188, #276, #254 ) ) ;
#50 = CARTESIAN_POINT ( 'NONE',  ( -1.087060150674700229E-30, -0.9999999999999991118, -3.113464014775134782E-16 ) ) ;
#51 = VECTOR ( 'NONE', #157, 1000.000000000000000 ) ;
#52 = PLANE ( 'NONE',  #100 ) ;
#53 = EDGE_CURVE ( 'NONE', #132, #235, #10, .T. ) ;
#54 = APPROVAL ( #76, 'UNSPECIFIED' ) ;
#55 = CARTESIAN_POINT ( 'NONE',  ( 8.260933544542137464E-14, -3.020154085325541628E-15, 23.66025403784433223 ) ) ;
#56 = PERSON_AND_ORGANIZATION ( #221, #247 ) ;
#57 = CIRCLE ( 'NONE', #341, 0.9999999999999993339 ) ;
#58 = VERTEX_POINT ( 'NONE', #69 ) ;
#59 = APPROVAL_STATUS ( 'not_yet_approved' ) ;
#60 = APPROVAL_DATE_TIME ( #336, #21 ) ;
#61 = CARTESIAN_POINT ( 'NONE',  ( 1.326762908760390423E-13, -4.653657836759941941E-15, 38.00000000000000000 ) ) ;
#62 = ORIENTED_EDGE ( 'NONE', *, *, #90, .F. ) ;
#63 = PRODUCT_DEFINITION_SHAPE ( 'NONE', 'NONE',  #317 ) ;
#64 = DATE_AND_TIME ( #313, #265 ) ;
#65 = PRODUCT_RELATED_PRODUCT_CATEGORY ( 'detail', '', ( #223 ) ) ;
#66 = AXIS2_PLACEMENT_3D ( 'NONE', #212, #81, #248 ) ;
#67 = DIRECTION ( 'NONE',  ( 0.000000000000000000, -1.000000000000000000, 0.000000000000000000 ) ) ;
#68 = EDGE_LOOP ( 'NONE', ( #9, #345 ) ) ;
#69 = CARTESIAN_POINT ( 'NONE',  ( 1.745740669421566678E-14, -1.000000000000000000, 5.000000000000000000 ) ) ;
#70 = DIRECTION ( 'NONE',  ( 3.404208188709233130E-15, 0.2588190451025213501, 0.9659258262890680902 ) ) ;
#71 = ADVANCED_FACE ( 'NONE', ( #250 ), #187, .T. ) ;
#72 = CARTESIAN_POINT ( 'NONE',  ( 1.326762908760390423E-13, -4.653657836759941941E-15, 38.00000000000000000 ) ) ;
#73 = CARTESIAN_POINT ( 'NONE',  ( 8.260933544542137464E-14, -3.020154085325541628E-15, 23.66025403784433223 ) ) ;
#74 = DIRECTION ( 'NONE',  ( -4.275831445896958607E-31, -1.000000000000000000, -1.224646799147353207E-16 ) ) ;
#75 = CARTESIAN_POINT ( 'NONE',  ( 8.260933544542137464E-14, -6.000000000000001776, 23.66025403784433223 ) ) ;
#76 = APPROVAL_STATUS ( 'not_yet_approved' ) ;
#77 = ORIENTED_EDGE ( 'NONE', *, *, #268, .T. ) ;
#78 = APPROVAL_PERSON_ORGANIZATION ( #6, #123, #309 ) ;
#79 = CIRCLE ( 'NONE', #297, 1.499999999999998002 ) ;
#80 = DIRECTION ( 'NONE',  ( 1.000000000000000000, 0.000000000000000000, 0.000000000000000000 ) ) ;
#81 = DIRECTION ( 'NONE',  ( 3.491481338843133355E-15, -1.276467311168695266E-16, 1.000000000000000000 ) ) ;
#82 = PERSON_AND_ORGANIZATION ( #221, #247 ) ;
#83 = PERSON_AND_ORGANIZATION_ROLE ( 'design_supplier' ) ;
#84 = DIRECTION ( 'NONE',  ( 3.491481338843133355E-15, -1.276467311168695266E-16, 1.000000000000000000 ) ) ;
#85 = VERTEX_POINT ( 'NONE', #280 ) ;
#86 = AXIS2_PLACEMENT_3D ( 'NONE', #295, #266, #74 ) ;
#87 = EDGE_LOOP ( 'NONE', ( #261, #215, #355, #91 ) ) ;
#88 = DIRECTION ( 'NONE',  ( 3.491481338843133355E-15, -1.276467311168695266E-16, 1.000000000000000000 ) ) ;
#89 = UNCERTAINTY_MEASURE_WITH_UNIT (LENGTH_MEASURE( 1.000000000000000082E-05 ), #299, 'distance_accuracy_value', 'NONE');
#90 = EDGE_CURVE ( 'NONE', #132, #252, #185, .T. ) ;
#91 = ORIENTED_EDGE ( 'NONE', *, *, #96, .F. ) ;
#92 = PERSON_AND_ORGANIZATION_ROLE ( 'creator' ) ;
#93 = DIRECTION ( 'NONE',  ( 4.275831445896958607E-31, 1.000000000000000000, 1.224646799147353207E-16 ) ) ;
#94 = DIRECTION ( 'NONE',  ( -3.491481338843133355E-15, 1.224646799147353207E-16, -1.000000000000000000 ) ) ;
#95 = DESIGN_CONTEXT ( 'detailed design', #322, 'design' ) ;
#96 = EDGE_CURVE ( 'NONE', #286, #348, #192, .T. ) ;
#97 = VECTOR ( 'NONE', #35, 1000.000000000000000 ) ;
#98 = DATE_TIME_ROLE ( 'classification_date' ) ;
#99 = EDGE_CURVE ( 'NONE', #58, #283, #292, .T. ) ;
#100 = AXIS2_PLACEMENT_3D ( 'NONE', #156, #23, #300 ) ;
#101 = APPLICATION_CONTEXT ( 'configuration controlled 3d designs of mechanical parts and assemblies' ) ;
#102 = COORDINATED_UNIVERSAL_TIME_OFFSET ( 1, 0, .AHEAD. ) ;
#103 = EDGE_CURVE ( 'NONE', #235, #286, #350, .T. ) ;
#104 = CARTESIAN_POINT ( 'NONE',  ( -6.413839710158237013E-31, 0.000000000000000000, -1.836996703606440502E-16 ) ) ;
#105 = LINE ( 'NONE', #241, #51 ) ;
#106 = VECTOR ( 'NONE', #332, 1000.000000000000000 ) ;
#107 = ORIENTED_EDGE ( 'NONE', *, *, #99, .F. ) ;
#108 = SECURITY_CLASSIFICATION ( '', '', #31 ) ;
#109 = APPLICATION_PROTOCOL_DEFINITION ( 'international standard', 'config_control_design', 1994, #322 ) ;
#110 = CIRCLE ( 'NONE', #358, 0.9999999999999993339 ) ;
#111 = ORIENTED_EDGE ( 'NONE', *, *, #329, .T. ) ;
#112 = ORIENTED_EDGE ( 'NONE', *, *, #294, .T. ) ;
#113 = DATE_AND_TIME ( #277, #114 ) ;
#114 = LOCAL_TIME ( 8, 31, 39.00000000000000000, #164 ) ;
#115 = ORIENTED_EDGE ( 'NONE', *, *, #186, .F. ) ;
#116 = CARTESIAN_POINT ( 'NONE',  ( 1.745740669421566678E-14, -6.382336555843476821E-16, 5.000000000000000000 ) ) ;
#117 = AXIS2_PLACEMENT_3D ( 'NONE', #301, #273, #304 ) ;
#118 = FACE_OUTER_BOUND ( 'NONE', #38, .T. ) ;
#119 = DIRECTION ( 'NONE',  ( 3.491481338843133355E-15, -1.276467311168695266E-16, 1.000000000000000000 ) ) ;
#120 = ORIENTED_EDGE ( 'NONE', *, *, #179, .F. ) ;
#121 = EDGE_CURVE ( 'NONE', #323, #203, #324, .T. ) ;
#122 = CARTESIAN_POINT ( 'NONE',  ( 1.328232484919367446E-13, -1.200000000000005507, 38.00000000000000000 ) ) ;
#123 = APPROVAL ( #59, 'UNSPECIFIED' ) ;
#124 = DIRECTION ( 'NONE',  ( 3.491481338843133355E-15, -1.276467311168695266E-16, 1.000000000000000000 ) ) ;
#125 = CYLINDRICAL_SURFACE ( 'NONE', #13, 1.499999999999998002 ) ;
#126 = APPLICATION_PROTOCOL_DEFINITION ( 'international standard', 'config_control_design', 1994, #101 ) ;
#127 = VECTOR ( 'NONE', #208, 1000.000000000000000 ) ;
#128 = ORIENTED_EDGE ( 'NONE', *, *, #281, .F. ) ;
#129 = DIRECTION ( 'NONE',  ( 3.491481338843133355E-15, -1.224646799147353207E-16, 1.000000000000000000 ) ) ;
#130 = CARTESIAN_POINT ( 'NONE',  ( 1.316288464743861212E-13, 1.499999999999996669, 37.69999999999999574 ) ) ;
#131 = DIRECTION ( 'NONE',  ( -4.456761796588769661E-31, -1.000000000000000000, -1.276467311168695512E-16 ) ) ;
#132 = VERTEX_POINT ( 'NONE', #330 ) ;
#133 = CYLINDRICAL_SURFACE ( 'NONE', #234, 0.9999999999999991118 ) ;
#134 = DIRECTION ( 'NONE',  ( -3.491481338843133355E-15, 1.276467311168695266E-16, -1.000000000000000000 ) ) ;
#135 = LINE ( 'NONE', #242, #127 ) ;
#136 = CC_DESIGN_PERSON_AND_ORGANIZATION_ASSIGNMENT ( #82, #140, ( #223 ) ) ;
#137 = DIRECTION ( 'NONE',  ( 0.000000000000000000, -1.000000000000000000, 0.000000000000000000 ) ) ;
#138 = AXIS2_PLACEMENT_3D ( 'NONE', #55, #258, #67 ) ;
#139 = MECHANICAL_CONTEXT ( 'NONE', #101, 'mechanical' ) ;
#140 = PERSON_AND_ORGANIZATION_ROLE ( 'design_owner' ) ;
#141 = EDGE_CURVE ( 'NONE', #323, #34, #216, .T. ) ;
#142 = CIRCLE ( 'NONE', #229, 0.9999999999999991118 ) ;
#143 = EDGE_LOOP ( 'NONE', ( #18, #172, #352, #29 ) ) ;
#144 = FACE_OUTER_BOUND ( 'NONE', #49, .T. ) ;
#145 = DIRECTION ( 'NONE',  ( 4.275831445896959482E-31, 1.000000000000000000, 1.224646799147353207E-16 ) ) ;
#146 = PLANE ( 'NONE',  #306 ) ;
#147 = AXIS2_PLACEMENT_3D ( 'NONE', #168, #195, #219 ) ;
#148 = EDGE_LOOP ( 'NONE', ( #308, #289, #112, #211 ) ) ;
#149 = CARTESIAN_POINT ( 'NONE',  ( 7.798442004173311359E-14, -1.500000000000005773, 37.69999999999999574 ) ) ;
#150 = VECTOR ( 'NONE', #182, 1000.000000000000114 ) ;
#151 = DIRECTION ( 'NONE',  ( 3.491481338843133355E-15, -1.276467311168695266E-16, 1.000000000000000000 ) ) ;
#152 = PRODUCT_DEFINITION_FORMATION_WITH_SPECIFIED_SOURCE ( 'ANY', '', #223, .NOT_KNOWN. ) ;
#153 = DIRECTION ( 'NONE',  ( -4.275831445896958607E-31, -1.000000000000000000, -1.224646799147353207E-16 ) ) ;
#154 =( NAMED_UNIT ( * ) SI_UNIT ( $, .STERADIAN. ) SOLID_ANGLE_UNIT ( ) );
#155 = VECTOR ( 'NONE', #260, 1000.000000000000000 ) ;
#156 = CARTESIAN_POINT ( 'NONE',  ( -4.275834835672753814E-31, 1.499760971635154123E-32, -1.224647770017727823E-16 ) ) ;
#157 = DIRECTION ( 'NONE',  ( -3.491481338843133355E-15, 1.224646799147353207E-16, -1.000000000000000000 ) ) ;
#158 = DIRECTION ( 'NONE',  ( -3.552713678800500298E-14, -1.000000000000000000, 0.000000000000000000 ) ) ;
#159 = CIRCLE ( 'NONE', #117, 1.500000000000001110 ) ;
#160 = DIRECTION ( 'NONE',  ( 3.491481338843133355E-15, -1.276467311168695266E-16, 1.000000000000000000 ) ) ;
#161 = PERSON_AND_ORGANIZATION_ROLE ( 'creator' ) ;
#162 = EDGE_CURVE ( 'NONE', #235, #194, #105, .T. ) ;
#163 = CONICAL_SURFACE ( 'NONE', #147, 1.200000000000001066, 0.7853981633974457255 ) ;
#164 = COORDINATED_UNIVERSAL_TIME_OFFSET ( 1, 0, .AHEAD. ) ;
#165 = VECTOR ( 'NONE', #70, 1000.000000000000000 ) ;
#166 = ORIENTED_EDGE ( 'NONE', *, *, #53, .T. ) ;
#167 = DATE_AND_TIME ( #214, #357 ) ;
#168 = CARTESIAN_POINT ( 'NONE',  ( 1.326762908760390423E-13, -4.653657836759941941E-15, 38.00000000000000000 ) ) ;
#169 = APPROVAL_STATUS ( 'not_yet_approved' ) ;
#170 = FACE_OUTER_BOUND ( 'NONE', #310, .T. ) ;
#171 = ORIENTED_EDGE ( 'NONE', *, *, #53, .F. ) ;
#172 = ORIENTED_EDGE ( 'NONE', *, *, #103, .T. ) ;
#173 = CARTESIAN_POINT ( 'NONE',  ( 8.851168027022571692E-15, 0.9999999999999991118, -5.817072295950234096E-16 ) ) ;
#174 = ADVANCED_FACE ( 'NONE', ( #339 ), #256, .T. ) ;
#175 = DIRECTION ( 'NONE',  ( -4.456761796588769661E-31, -1.000000000000000000, -1.276467311168695512E-16 ) ) ;
#176 = DIRECTION ( 'NONE',  ( 0.000000000000000000, -1.000000000000000000, 0.000000000000000000 ) ) ;
#177 = ORIENTED_EDGE ( 'NONE', *, *, #210, .F. ) ;
#178 = DIRECTION ( 'NONE',  ( 0.000000000000000000, -1.000000000000000000, 0.000000000000000000 ) ) ;
#179 = EDGE_CURVE ( 'NONE', #286, #235, #159, .T. ) ;
#180 = ORIENTED_EDGE ( 'NONE', *, *, #303, .F. ) ;
#181 = PERSON_AND_ORGANIZATION ( #221, #247 ) ;
#182 = DIRECTION ( 'NONE',  ( 3.372511997194914833E-15, -0.2588190451025215166, 0.9659258262890679791 ) ) ;
#183 = FACE_OUTER_BOUND ( 'NONE', #1, .T. ) ;
#184 = EDGE_CURVE ( 'NONE', #203, #85, #206, .T. ) ;
#185 = CIRCLE ( 'NONE', #47, 1.200000000000001066 ) ;
#186 = EDGE_CURVE ( 'NONE', #283, #348, #191, .T. ) ;
#187 = CYLINDRICAL_SURFACE ( 'NONE', #46, 0.9999999999999991118 ) ;
#188 = ORIENTED_EDGE ( 'NONE', *, *, #90, .T. ) ;
#189 = AXIS2_PLACEMENT_3D ( 'NONE', #72, #314, #200 ) ;
#190 = CIRCLE ( 'NONE', #8, 1.499999999999998002 ) ;
#191 = LINE ( 'NONE', #263, #165 ) ;
#192 = LINE ( 'NONE', #37, #97 ) ;
#193 = MANIFOLD_SOLID_BREP ( 'Corps-Déplacer/Copier1[1]', #285 ) ;
#194 = VERTEX_POINT ( 'NONE', #36 ) ;
#195 = DIRECTION ( 'NONE',  ( -3.491481338843133355E-15, 1.224646799147353207E-16, -1.000000000000000000 ) ) ;
#196 = EDGE_CURVE ( 'NONE', #85, #34, #110, .T. ) ;
#197 = COORDINATED_UNIVERSAL_TIME_OFFSET ( 1, 0, .AHEAD. ) ;
#198 = DIRECTION ( 'NONE',  ( -4.456761796588771413E-31, -1.000000000000000000, -1.276467311168695512E-16 ) ) ;
#199 = AXIS2_PLACEMENT_3D ( 'NONE', #319, #151, #264 ) ;
#200 = DIRECTION ( 'NONE',  ( 0.000000000000000000, 1.000000000000000000, 0.000000000000000000 ) ) ;
#201 = CARTESIAN_POINT ( 'NONE',  ( 1.745740669421566678E-14, 1.124819836996388553E-32, 5.000000000000000000 ) ) ;
#202 = ADVANCED_FACE ( 'NONE', ( #14 ), #125, .T. ) ;
#203 = VERTEX_POINT ( 'NONE', #173 ) ;
#204 = CARTESIAN_POINT ( 'NONE',  ( 7.780072302186125069E-14, 1.499999999999997113, 6.866025403784427716 ) ) ;
#205 = CARTESIAN_POINT ( 'NONE',  ( 1.326762908760390423E-13, 1.199999999999996403, 38.00000000000000000 ) ) ;
#206 = LINE ( 'NONE', #251, #155 ) ;
#207 = CIRCLE ( 'NONE', #199, 0.9999999999999993339 ) ;
#208 = DIRECTION ( 'NONE',  ( -2.468850131082271655E-15, 0.7071067811865457964, -0.7071067811865492381 ) ) ;
#209 = CARTESIAN_POINT ( 'NONE',  ( 0.000000000000000000, 0.000000000000000000, 0.000000000000000000 ) ) ;
#210 = EDGE_CURVE ( 'NONE', #252, #132, #32, .T. ) ;
#211 = ORIENTED_EDGE ( 'NONE', *, *, #268, .F. ) ;
#212 = CARTESIAN_POINT ( 'NONE',  ( -2.476696116459930772E-30, 6.709805186089075782E-32, -7.093539607118619240E-16 ) ) ;
#213 = FACE_OUTER_BOUND ( 'NONE', #68, .T. ) ;
#214 = CALENDAR_DATE ( 2023, 31, 3 ) ;
#215 = ORIENTED_EDGE ( 'NONE', *, *, #162, .T. ) ;
#216 = LINE ( 'NONE', #50, #106 ) ;
#217 = PERSON_AND_ORGANIZATION_ROLE ( 'classification_officer' ) ;
#218 =( GEOMETRIC_REPRESENTATION_CONTEXT ( 3 ) GLOBAL_UNCERTAINTY_ASSIGNED_CONTEXT ( ( #89 ) ) GLOBAL_UNIT_ASSIGNED_CONTEXT ( ( #299, #239, #154 ) ) REPRESENTATION_CONTEXT ( 'NONE', 'WORKASPACE' ) );
#219 = DIRECTION ( 'NONE',  ( 0.000000000000000000, 1.000000000000000000, 0.000000000000000000 ) ) ;
#220 = CLOSED_SHELL ( 'NONE', ( #71, #243, #356, #298 ) ) ;
#221 = PERSON ( 'UNSPECIFIED', 'UNSPECIFIED', 'UNSPECIFIED', ('UNSPECIFIED'), ('UNSPECIFIED'), ('UNSPECIFIED') ) ;
#222 = CYLINDRICAL_SURFACE ( 'NONE', #236, 1.499999999999998002 ) ;
#223 = PRODUCT ( '372686', '372686', '', ( #139 ) ) ;
#224 = CALENDAR_DATE ( 2023, 31, 3 ) ;
#225 = DIRECTION ( 'NONE',  ( -3.491481338843133355E-15, 1.224646799147353207E-16, -1.000000000000000000 ) ) ;
#226 = CC_DESIGN_SECURITY_CLASSIFICATION ( #108, ( #152 ) ) ;
#227 = COORDINATED_UNIVERSAL_TIME_OFFSET ( 1, 0, .AHEAD. ) ;
#228 = CARTESIAN_POINT ( 'NONE',  ( 1.745740669421566678E-14, -6.382336555843476821E-16, 5.000000000000000000 ) ) ;
#229 = AXIS2_PLACEMENT_3D ( 'NONE', #41, #84, #198 ) ;
#230 = CARTESIAN_POINT ( 'NONE',  ( 0.000000000000000000, 0.000000000000000000, 0.000000000000000000 ) ) ;
#231 = CARTESIAN_POINT ( 'NONE',  ( 1.326762908760390423E-13, 8.998558695971084067E-33, 38.00000000000000000 ) ) ;
#232 = ADVANCED_FACE ( 'NONE', ( #170 ), #146, .F. ) ;
#233 = AXIS2_PLACEMENT_3D ( 'NONE', #201, #129, #153 ) ;
#234 = AXIS2_PLACEMENT_3D ( 'NONE', #104, #240, #131 ) ;
#235 = VERTEX_POINT ( 'NONE', #149 ) ;
#236 = AXIS2_PLACEMENT_3D ( 'NONE', #230, #94, #145 ) ;
#237 = ADVANCED_FACE ( 'NONE', ( #11 ), #25, .T. ) ;
#238 = EDGE_LOOP ( 'NONE', ( #115, #259, #77, #111 ) ) ;
#239 =( NAMED_UNIT ( * ) PLANE_ANGLE_UNIT ( ) SI_UNIT ( $, .RADIAN. ) );
#240 = DIRECTION ( 'NONE',  ( 3.491481338843133355E-15, -1.276467311168695266E-16, 1.000000000000000000 ) ) ;
#241 = CARTESIAN_POINT ( 'NONE',  ( 1.836970198721021059E-16, -1.499999999999998002, -1.836970198721033632E-16 ) ) ;
#242 = CARTESIAN_POINT ( 'NONE',  ( 1.326762908760390423E-13, 1.199999999999996403, 38.00000000000000000 ) ) ;
#243 = ADVANCED_FACE ( 'NONE', ( #45 ), #351, .T. ) ;
#244 = AXIS2_PLACEMENT_3D ( 'NONE', #61, #316, #12 ) ;
#245 = CC_DESIGN_PERSON_AND_ORGANIZATION_ASSIGNMENT ( #284, #92, ( #317 ) ) ;
#246 = ORIENTED_EDGE ( 'NONE', *, *, #141, .F. ) ;
#247 = ORGANIZATION ( 'UNSPECIFIED', 'UNSPECIFIED', '' ) ;
#248 = DIRECTION ( 'NONE',  ( -4.456761796588771413E-31, -1.000000000000000000, -1.276467311168695512E-16 ) ) ;
#249 = AXIS2_PLACEMENT_3D ( 'NONE', #116, #88, #253 ) ;
#250 = FACE_OUTER_BOUND ( 'NONE', #20, .T. ) ;
#251 = CARTESIAN_POINT ( 'NONE',  ( 1.224646799147350002E-16, 0.9999999999999991118, -5.605293924377505371E-17 ) ) ;
#252 = VERTEX_POINT ( 'NONE', #205 ) ;
#253 = DIRECTION ( 'NONE',  ( 0.000000000000000000, -1.000000000000000000, 0.000000000000000000 ) ) ;
#254 = ORIENTED_EDGE ( 'NONE', *, *, #103, .F. ) ;
#255 = DATE_AND_TIME ( #224, #290 ) ;
#256 = CONICAL_SURFACE ( 'NONE', #138, 5.999999999999999112, 0.2617993877991501850 ) ;
#257 = ADVANCED_FACE ( 'NONE', ( #183 ), #291, .F. ) ;
#259 = ORIENTED_EDGE ( 'NONE', *, *, #321, .T. ) ;
#258 = DIRECTION ( 'NONE',  ( 3.491481338843133355E-15, -1.276467311168695266E-16, 1.000000000000000000 ) ) ;
#260 = DIRECTION ( 'NONE',  ( 3.491481338843133355E-15, -1.276467311168695266E-16, 1.000000000000000000 ) ) ;
#261 = ORIENTED_EDGE ( 'NONE', *, *, #179, .T. ) ;
#262 = FACE_OUTER_BOUND ( 'NONE', #87, .T. ) ;
#263 = CARTESIAN_POINT ( 'NONE',  ( 8.334412352490978553E-14, 5.999999999999996447, 23.66025403784433223 ) ) ;
#264 = DIRECTION ( 'NONE',  ( 0.000000000000000000, -1.000000000000000000, 0.000000000000000000 ) ) ;
#265 = LOCAL_TIME ( 8, 31, 39.00000000000000000, #197 ) ;
#266 = DIRECTION ( 'NONE',  ( 3.491481338843133355E-15, -1.224646799147353207E-16, 1.000000000000000000 ) ) ;
#267 = DIRECTION ( 'NONE',  ( 0.000000000000000000, 1.000000000000000000, 0.000000000000000000 ) ) ;
#268 = EDGE_CURVE ( 'NONE', #58, #194, #42, .T. ) ;
#269 = LOCAL_TIME ( 8, 31, 39.00000000000000000, #227 ) ;
#270 = CARTESIAN_POINT ( 'NONE',  ( 1.745740669421566678E-14, -6.382336555843476821E-16, 5.000000000000000000 ) ) ;
#271 = CARTESIAN_POINT ( 'NONE',  ( 2.397259956933621926E-14, -8.764256985584662583E-16, 6.866025403784427716 ) ) ;
#272 = COORDINATED_UNIVERSAL_TIME_OFFSET ( 1, 0, .AHEAD. ) ;
#273 = DIRECTION ( 'NONE',  ( -3.491481338843133355E-15, 1.224646799147353207E-16, -1.000000000000000000 ) ) ;
#274 = CC_DESIGN_APPROVAL ( #123, ( #152 ) ) ;
#275 = AXIS2_PLACEMENT_3D ( 'NONE', #73, #124, #178 ) ;
#276 = ORIENTED_EDGE ( 'NONE', *, *, #303, .T. ) ;
#277 = CALENDAR_DATE ( 2023, 31, 3 ) ;
#278 = APPROVAL_ROLE ( '' ) ;
#279 = ORIENTED_EDGE ( 'NONE', *, *, #196, .T. ) ;
#280 = CARTESIAN_POINT ( 'NONE',  ( 8.851168027022566959E-15, 0.9999999999999986677, 5.000000000000000000 ) ) ;
#281 = EDGE_CURVE ( 'NONE', #34, #85, #207, .T. ) ;
#282 = DIRECTION ( 'NONE',  ( 0.000000000000000000, 1.000000000000000000, 0.000000000000000000 ) ) ;
#283 = VERTEX_POINT ( 'NONE', #19 ) ;
#284 = PERSON_AND_ORGANIZATION ( #221, #247 ) ;
#285 = CLOSED_SHELL ( 'NONE', ( #237, #24, #2, #202, #33, #232, #174, #257 ) ) ;
#286 = VERTEX_POINT ( 'NONE', #130 ) ;
#287 = CARTESIAN_POINT ( 'NONE',  ( 1.326762908760390423E-13, -4.653657836759941941E-15, 38.00000000000000000 ) ) ;
#288 = CC_DESIGN_PERSON_AND_ORGANIZATION_ASSIGNMENT ( #3, #217, ( #108 ) ) ;
#289 = ORIENTED_EDGE ( 'NONE', *, *, #186, .T. ) ;
#290 = LOCAL_TIME ( 8, 31, 39.00000000000000000, #102 ) ;
#291 = PLANE ( 'NONE',  #86 ) ;
#292 = CIRCLE ( 'NONE', #249, 0.9999999999999993339 ) ;
#293 = APPROVAL_DATE_TIME ( #255, #54 ) ;
#294 = EDGE_CURVE ( 'NONE', #348, #194, #79, .T. ) ;
#295 = CARTESIAN_POINT ( 'NONE',  ( 1.745740669421566678E-14, 1.124819836996388553E-32, 5.000000000000000000 ) ) ;
#296 = ORIENTED_EDGE ( 'NONE', *, *, #121, .T. ) ;
#297 = AXIS2_PLACEMENT_3D ( 'NONE', #361, #134, #158 ) ;
#298 = ADVANCED_FACE ( 'NONE', ( #213 ), #52, .F. ) ;
#299 =( LENGTH_UNIT ( ) NAMED_UNIT ( * ) SI_UNIT ( .MILLI., .METRE. ) );
#300 = DIRECTION ( 'NONE',  ( -4.275831445896958607E-31, -1.000000000000000000, -1.224646799147353207E-16 ) ) ;
#301 = CARTESIAN_POINT ( 'NONE',  ( 1.316288464743861212E-13, -4.616918432785521081E-15, 37.69999999999999574 ) ) ;
#302 = APPROVAL_DATE_TIME ( #167, #123 ) ;
#303 = EDGE_CURVE ( 'NONE', #252, #286, #135, .T. ) ;
#304 = DIRECTION ( 'NONE',  ( 0.000000000000000000, 1.000000000000000000, 0.000000000000000000 ) ) ;
#305 = PERSON_AND_ORGANIZATION ( #221, #247 ) ;
#306 = AXIS2_PLACEMENT_3D ( 'NONE', #231, #225, #93 ) ;
#307 = DIRECTION ( 'NONE',  ( 3.491481338843133355E-15, -1.276467311168695266E-16, 1.000000000000000000 ) ) ;
#308 = ORIENTED_EDGE ( 'NONE', *, *, #99, .T. ) ;
#309 = APPROVAL_ROLE ( '' ) ;
#310 = EDGE_LOOP ( 'NONE', ( #177, #62 ) ) ;
#311 = DIRECTION ( 'NONE',  ( -3.491481338843133355E-15, 1.224646799147353207E-16, -1.000000000000000000 ) ) ;
#312 = CC_DESIGN_APPROVAL ( #21, ( #317 ) ) ;
#313 = CALENDAR_DATE ( 2023, 31, 3 ) ;
#314 = DIRECTION ( 'NONE',  ( -3.491481338843133355E-15, 1.224646799147353207E-16, -1.000000000000000000 ) ) ;
#315 = ORIENTED_EDGE ( 'NONE', *, *, #196, .F. ) ;
#316 = DIRECTION ( 'NONE',  ( -3.491481338843133355E-15, 1.224646799147353207E-16, -1.000000000000000000 ) ) ;
#317 = PRODUCT_DEFINITION ( 'UNKNOWN', '', #152, #95 ) ;
#318 = DIRECTION ( 'NONE',  ( -3.491481338843133355E-15, 1.224646799147353207E-16, -1.000000000000000000 ) ) ;
#319 = CARTESIAN_POINT ( 'NONE',  ( 1.745740669421566678E-14, -6.382336555843476821E-16, 5.000000000000000000 ) ) ;
#320 = MANIFOLD_SOLID_BREP ( 'Corps-Déplacer/Copier1[2]', #220 ) ;
#321 = EDGE_CURVE ( 'NONE', #283, #58, #57, .T. ) ;
#322 = APPLICATION_CONTEXT ( 'configuration controlled 3d designs of mechanical parts and assemblies' ) ;
#323 = VERTEX_POINT ( 'NONE', #359 ) ;
#324 = CIRCLE ( 'NONE', #66, 0.9999999999999991118 ) ;
#325 = CC_DESIGN_PERSON_AND_ORGANIZATION_ASSIGNMENT ( #305, #161, ( #152 ) ) ;
#326 = DIRECTION ( 'NONE',  ( 0.000000000000000000, 0.000000000000000000, 1.000000000000000000 ) ) ;
#327 = CARTESIAN_POINT ( 'NONE',  ( 1.316288464743861212E-13, -4.616918432785521081E-15, 37.69999999999999574 ) ) ;
#328 = CC_DESIGN_APPROVAL ( #54, ( #108 ) ) ;
#329 = EDGE_CURVE ( 'NONE', #194, #348, #190, .T. ) ;
#330 = CARTESIAN_POINT ( 'NONE',  ( 1.323178959930974653E-13, -1.200000000000005507, 38.00000000000000000 ) ) ;
#331 = EDGE_LOOP ( 'NONE', ( #362, #340, #349, #315 ) ) ;
#332 = DIRECTION ( 'NONE',  ( 3.491481338843133355E-15, -1.276467311168695266E-16, 1.000000000000000000 ) ) ;
#333 = AXIS2_PLACEMENT_3D ( 'NONE', #209, #326, #80 ) ;
#334 = CARTESIAN_POINT ( 'NONE',  ( 1.745740669421566678E-14, -1.000000000000000000, 5.000000000000000000 ) ) ;
#335 = ORIENTED_EDGE ( 'NONE', *, *, #321, .F. ) ;
#336 = DATE_AND_TIME ( #347, #269 ) ;
#337 = CC_DESIGN_DATE_AND_TIME_ASSIGNMENT ( #113, #98, ( #108 ) ) ;
#338 = CONICAL_SURFACE ( 'NONE', #189, 1.200000000000001066, 0.7853981633974457255 ) ;
#339 = FACE_OUTER_BOUND ( 'NONE', #238, .T. ) ;
#340 = ORIENTED_EDGE ( 'NONE', *, *, #15, .T. ) ;
#341 = AXIS2_PLACEMENT_3D ( 'NONE', #270, #160, #137 ) ;
#342 = DIRECTION ( 'NONE',  ( -2.382254525458722992E-15, -0.7071067811865455743, -0.7071067811865493491 ) ) ;
#343 = PERSON_AND_ORGANIZATION ( #221, #247 ) ;
#344 = DIRECTION ( 'NONE',  ( 4.275831445896959482E-31, 1.000000000000000000, 1.224646799147353207E-16 ) ) ;
#345 = ORIENTED_EDGE ( 'NONE', *, *, #15, .F. ) ;
#346 = CARTESIAN_POINT ( 'NONE',  ( -6.413839710158237013E-31, 0.000000000000000000, -1.836996703606440502E-16 ) ) ;
#347 = CALENDAR_DATE ( 2023, 31, 3 ) ;
#348 = VERTEX_POINT ( 'NONE', #204 ) ;
#349 = ORIENTED_EDGE ( 'NONE', *, *, #141, .T. ) ;
#350 = CIRCLE ( 'NONE', #44, 1.500000000000001110 ) ;
#351 = PLANE ( 'NONE',  #233 ) ;
#352 = ORIENTED_EDGE ( 'NONE', *, *, #96, .T. ) ;
#353 = APPROVAL_ROLE ( '' ) ;
#354 = VECTOR ( 'NONE', #342, 1000.000000000000114 ) ;
#355 = ORIENTED_EDGE ( 'NONE', *, *, #294, .F. ) ;
#356 = ADVANCED_FACE ( 'NONE', ( #48 ), #133, .T. ) ;
#357 = LOCAL_TIME ( 8, 31, 39.00000000000000000, #272 ) ;
#358 = AXIS2_PLACEMENT_3D ( 'NONE', #228, #119, #176 ) ;
#359 = CARTESIAN_POINT ( 'NONE',  ( -2.922372296118807387E-30, -0.9999999999999991118, -8.370006918287313027E-16 ) ) ;
#360 = DIRECTION ( 'NONE',  ( -3.491481338843133355E-15, 1.224646799147353207E-16, -1.000000000000000000 ) ) ;
#361 = CARTESIAN_POINT ( 'NONE',  ( 2.397259956933621926E-14, -8.764256985584662583E-16, 6.866025403784427716 ) ) ;
#362 = ORIENTED_EDGE ( 'NONE', *, *, #184, .F. ) ;
#363 = APPROVAL_PERSON_ORGANIZATION ( #181, #54, #353 ) ;
ENDSEC;
END-ISO-10303-21;
