ISO-10303-21;
HEADER;
FILE_DESCRIPTION (( 'STEP AP203' ),
    '1' );
FILE_NAME ('372685.step',
    '2023-03-31T06:31:39',
    ( '' ),
    ( '' ),
    'SwSTEP 2.0',
    'SolidWorks 2022',
    '' );
FILE_SCHEMA (( 'CONFIG_CONTROL_DESIGN' ));
ENDSEC;

DATA;
#1 = DIRECTION ( 'NONE',  ( 3.404208188709233130E-15, 0.2588190451025213501, 0.9659258262890680902 ) ) ;
#2 = CARTESIAN_POINT ( 'NONE',  ( 0.000000000000000000, 0.000000000000000000, 0.000000000000000000 ) ) ;
#3 = EDGE_CURVE ( 'NONE', #224, #173, #39, .T. ) ;
#4 = ORIENTED_EDGE ( 'NONE', *, *, #221, .F. ) ;
#5 = AXIS2_PLACEMENT_3D ( 'NONE', #187, #136, #306 ) ;
#6 = ORIENTED_EDGE ( 'NONE', *, *, #44, .T. ) ;
#7 = AXIS2_PLACEMENT_3D ( 'NONE', #100, #47, #161 ) ;
#8 = ORIENTED_EDGE ( 'NONE', *, *, #44, .F. ) ;
#9 = AXIS2_PLACEMENT_3D ( 'NONE', #342, #58, #35 ) ;
#10 = ORIENTED_EDGE ( 'NONE', *, *, #145, .F. ) ;
#11 = CARTESIAN_POINT ( 'NONE',  ( 1.047444401652940007E-13, -3.673940397442059178E-15, 30.00000000000000000 ) ) ;
#12 = PERSON_AND_ORGANIZATION ( #361, #223 ) ;
#13 = ADVANCED_FACE ( 'NONE', ( #184 ), #19, .T. ) ;
#14 = APPROVAL_DATE_TIME ( #95, #106 ) ;
#15 = EDGE_LOOP ( 'NONE', ( #307, #286, #257, #176 ) ) ;
#16 = CARTESIAN_POINT ( 'NONE',  ( -4.275765177426567402E-31, 1.499736538811390194E-32, -1.224627819103079735E-16 ) ) ;
#17 = APPROVAL_STATUS ( 'not_yet_approved' ) ;
#18 = APPROVAL_ROLE ( '' ) ;
#19 = CONICAL_SURFACE ( 'NONE', #5, 5.999999999999999112, 0.2617993877991501850 ) ;
#20 = AXIS2_PLACEMENT_3D ( 'NONE', #291, #350, #179 ) ;
#21 = LINE ( 'NONE', #190, #60 ) ;
#22 = CC_DESIGN_PERSON_AND_ORGANIZATION_ASSIGNMENT ( #300, #90, ( #246 ) ) ;
#23 = FACE_OUTER_BOUND ( 'NONE', #169, .T. ) ;
#24 = DIRECTION ( 'NONE',  ( 3.491481338843133355E-15, -1.276467311168695266E-16, 1.000000000000000000 ) ) ;
#25 = DIRECTION ( 'NONE',  ( 3.491481338843133355E-15, -1.276467311168695266E-16, 1.000000000000000000 ) ) ;
#26 = SHAPE_DEFINITION_REPRESENTATION ( #177, #266 ) ;
#27 = CIRCLE ( 'NONE', #61, 1.499999999999999334 ) ;
#28 = DIRECTION ( 'NONE',  ( -4.456761796588771413E-31, -1.000000000000000000, -1.276467311168695512E-16 ) ) ;
#29 = CC_DESIGN_PERSON_AND_ORGANIZATION_ASSIGNMENT ( #333, #69, ( #162 ) ) ;
#30 = ORIENTED_EDGE ( 'NONE', *, *, #166, .T. ) ;
#31 = VERTEX_POINT ( 'NONE', #334 ) ;
#32 = EDGE_LOOP ( 'NONE', ( #251, #154, #294, #180 ) ) ;
#33 = ORIENTED_EDGE ( 'NONE', *, *, #230, .F. ) ;
#34 = DIRECTION ( 'NONE',  ( 3.491481338843133355E-15, -1.276467311168695266E-16, 1.000000000000000000 ) ) ;
#35 = DIRECTION ( 'NONE',  ( 0.000000000000000000, 1.000000000000000000, 0.000000000000000000 ) ) ;
#36 = AXIS2_PLACEMENT_3D ( 'NONE', #84, #314, #53 ) ;
#37 = EDGE_CURVE ( 'NONE', #345, #173, #328, .T. ) ;
#38 = LOCAL_TIME ( 8, 31, 39.00000000000000000, #205 ) ;
#39 = CIRCLE ( 'NONE', #125, 0.9999999999999993339 ) ;
#40 = DIRECTION ( 'NONE',  ( 3.491481338843133355E-15, -1.276467311168695266E-16, 1.000000000000000000 ) ) ;
#41 = CALENDAR_DATE ( 2023, 31, 3 ) ;
#42 = CARTESIAN_POINT ( 'NONE',  ( 6.401849468636061804E-14, -1.500000000000003109, 29.69999999999999574 ) ) ;
#43 = CC_DESIGN_APPROVAL ( #106, ( #162 ) ) ;
#44 = EDGE_CURVE ( 'NONE', #76, #31, #21, .T. ) ;
#45 = VECTOR ( 'NONE', #70, 1000.000000000000000 ) ;
#46 = CARTESIAN_POINT ( 'NONE',  ( 1.745740669421566678E-14, -6.382336555843476821E-16, 5.000000000000000000 ) ) ;
#47 = DIRECTION ( 'NONE',  ( 3.491481338843133355E-15, -1.276467311168695266E-16, 1.000000000000000000 ) ) ;
#48 = EDGE_CURVE ( 'NONE', #345, #260, #233, .T. ) ;
#49 = CONICAL_SURFACE ( 'NONE', #9, 1.199999999999999289, 0.7853981633974457255 ) ;
#50 = DIRECTION ( 'NONE',  ( -3.491481338843133355E-15, 1.224646799147353207E-16, -1.000000000000000000 ) ) ;
#51 = ORIENTED_EDGE ( 'NONE', *, *, #59, .F. ) ;
#52 = VERTEX_POINT ( 'NONE', #42 ) ;
#53 = DIRECTION ( 'NONE',  ( -4.275831445896958607E-31, -1.000000000000000000, -1.224646799147353207E-16 ) ) ;
#54 = CC_DESIGN_PERSON_AND_ORGANIZATION_ASSIGNMENT ( #189, #354, ( #149 ) ) ;
#55 = AXIS2_PLACEMENT_3D ( 'NONE', #16, #357, #119 ) ;
#56 = FACE_OUTER_BOUND ( 'NONE', #107, .T. ) ;
#57 = VERTEX_POINT ( 'NONE', #332 ) ;
#58 = DIRECTION ( 'NONE',  ( -3.491481338843133355E-15, 1.224646799147353207E-16, -1.000000000000000000 ) ) ;
#59 = EDGE_CURVE ( 'NONE', #57, #165, #348, .T. ) ;
#60 = VECTOR ( 'NONE', #65, 1000.000000000000114 ) ;
#61 = AXIS2_PLACEMENT_3D ( 'NONE', #329, #296, #204 ) ;
#62 =( NAMED_UNIT ( * ) SI_UNIT ( $, .STERADIAN. ) SOLID_ANGLE_UNIT ( ) );
#63 = CC_DESIGN_APPROVAL ( #325, ( #246 ) ) ;
#64 = VECTOR ( 'NONE', #1, 1000.000000000000000 ) ;
#65 = DIRECTION ( 'NONE',  ( 3.372511997194914833E-15, -0.2588190451025215166, 0.9659258262890679791 ) ) ;
#66 = PLANE ( 'NONE',  #101 ) ;
#67 = LINE ( 'NONE', #131, #45 ) ;
#68 = EDGE_CURVE ( 'NONE', #31, #140, #287, .T. ) ;
#69 = PERSON_AND_ORGANIZATION_ROLE ( 'design_supplier' ) ;
#70 = DIRECTION ( 'NONE',  ( -3.491481338843133355E-15, 1.224646799147353207E-16, -1.000000000000000000 ) ) ;
#71 = DIRECTION ( 'NONE',  ( 0.000000000000000000, -1.000000000000000000, 0.000000000000000000 ) ) ;
#72 = DATE_TIME_ROLE ( 'creation_date' ) ;
#73 = AXIS2_PLACEMENT_3D ( 'NONE', #152, #268, #299 ) ;
#74 = CARTESIAN_POINT ( 'NONE',  ( 1.745740669421566678E-14, -1.000000000000000000, 5.000000000000000000 ) ) ;
#75 = ADVANCED_FACE ( 'NONE', ( #271 ), #129, .F. ) ;
#76 = VERTEX_POINT ( 'NONE', #74 ) ;
#77 = CARTESIAN_POINT ( 'NONE',  ( 1.047444401652940007E-13, 1.199999999999995515, 30.00000000000000000 ) ) ;
#78 = MANIFOLD_SOLID_BREP ( 'Corps-Déplacer/Copier1[2]', #141 ) ;
#79 = CYLINDRICAL_SURFACE ( 'NONE', #164, 1.499999999999996891 ) ;
#80 = CARTESIAN_POINT ( 'NONE',  ( 2.397259956933620664E-14, -8.764256985584658638E-16, 6.866025403784424164 ) ) ;
#81 = EDGE_LOOP ( 'NONE', ( #235, #250, #319, #305 ) ) ;
#82 = CC_DESIGN_PERSON_AND_ORGANIZATION_ASSIGNMENT ( #157, #214, ( #162 ) ) ;
#83 = EDGE_LOOP ( 'NONE', ( #104, #315 ) ) ;
#84 = CARTESIAN_POINT ( 'NONE',  ( 1.745740669421566678E-14, 1.124819836996388416E-32, 5.000000000000000000 ) ) ;
#85 = ORIENTED_EDGE ( 'NONE', *, *, #182, .F. ) ;
#86 = AXIS2_PLACEMENT_3D ( 'NONE', #237, #232, #91 ) ;
#87 = ADVANCED_FACE ( 'NONE', ( #23 ), #245, .T. ) ;
#88 = APPROVAL_PERSON_ORGANIZATION ( #267, #106, #236 ) ;
#89 = VECTOR ( 'NONE', #193, 1000.000000000000000 ) ;
#90 = PERSON_AND_ORGANIZATION_ROLE ( 'classification_officer' ) ;
#91 = DIRECTION ( 'NONE',  ( -4.456761796588769661E-31, -1.000000000000000000, -1.276467311168695512E-16 ) ) ;
#92 = COORDINATED_UNIVERSAL_TIME_OFFSET ( 1, 0, .AHEAD. ) ;
#93 = FACE_OUTER_BOUND ( 'NONE', #183, .T. ) ;
#94 = ORIENTED_EDGE ( 'NONE', *, *, #249, .F. ) ;
#95 = DATE_AND_TIME ( #117, #186 ) ;
#96 = ADVANCED_FACE ( 'NONE', ( #276 ), #79, .T. ) ;
#97 = DIRECTION ( 'NONE',  ( 3.491481338843133355E-15, -1.276467311168695266E-16, 1.000000000000000000 ) ) ;
#98 = APPLICATION_PROTOCOL_DEFINITION ( 'international standard', 'config_control_design', 1994, #172 ) ;
#99 = FACE_OUTER_BOUND ( 'NONE', #109, .T. ) ;
#100 = CARTESIAN_POINT ( 'NONE',  ( -6.413839710158237013E-31, 0.000000000000000000, -1.836996703606440502E-16 ) ) ;
#101 = AXIS2_PLACEMENT_3D ( 'NONE', #356, #185, #113 ) ;
#102 = CARTESIAN_POINT ( 'NONE',  ( 1.745740669421566678E-14, -1.000000000000000000, 5.000000000000000000 ) ) ;
#103 = APPROVAL_PERSON_ORGANIZATION ( #120, #325, #310 ) ;
#104 = ORIENTED_EDGE ( 'NONE', *, *, #242, .T. ) ;
#105 = CIRCLE ( 'NONE', #316, 1.199999999999999289 ) ;
#106 = APPROVAL ( #17, 'UNSPECIFIED' ) ;
#107 = EDGE_LOOP ( 'NONE', ( #252, #234, #196, #85 ) ) ;
#108 = ADVANCED_FACE ( 'NONE', ( #56 ), #49, .T. ) ;
#109 = EDGE_LOOP ( 'NONE', ( #191, #303, #227, #94 ) ) ;
#110 = FACE_OUTER_BOUND ( 'NONE', #32, .T. ) ;
#111 = CONICAL_SURFACE ( 'NONE', #156, 5.999999999999999112, 0.2617993877991501850 ) ;
#112 = PRODUCT ( '372685', '372685', '', ( #263 ) ) ;
#113 = DIRECTION ( 'NONE',  ( -4.275831445896958607E-31, -1.000000000000000000, -1.224646799147353207E-16 ) ) ;
#114 = CC_DESIGN_PERSON_AND_ORGANIZATION_ASSIGNMENT ( #198, #295, ( #112 ) ) ;
#115 = DIRECTION ( 'NONE',  ( 0.000000000000000000, -1.000000000000000000, 0.000000000000000000 ) ) ;
#116 = ORIENTED_EDGE ( 'NONE', *, *, #48, .F. ) ;
#117 = CALENDAR_DATE ( 2023, 31, 3 ) ;
#118 = DIRECTION ( 'NONE',  ( -4.456761796588771413E-31, -1.000000000000000000, -1.276467311168695512E-16 ) ) ;
#119 = DIRECTION ( 'NONE',  ( -4.275831445896958607E-31, -1.000000000000000000, -1.224646799147353207E-16 ) ) ;
#120 = PERSON_AND_ORGANIZATION ( #361, #223 ) ;
#121 = DIRECTION ( 'NONE',  ( 0.000000000000000000, -1.000000000000000000, 0.000000000000000000 ) ) ;
#122 = EDGE_CURVE ( 'NONE', #140, #31, #290, .T. ) ;
#123 = COORDINATED_UNIVERSAL_TIME_OFFSET ( 1, 0, .AHEAD. ) ;
#124 = DIRECTION ( 'NONE',  ( 3.491481338843133355E-15, -1.276467311168695266E-16, 1.000000000000000000 ) ) ;
#125 = AXIS2_PLACEMENT_3D ( 'NONE', #213, #97, #133 ) ;
#126 = PLANE ( 'NONE',  #55 ) ;
#127 = COORDINATED_UNIVERSAL_TIME_OFFSET ( 1, 0, .AHEAD. ) ;
#128 = FACE_OUTER_BOUND ( 'NONE', #15, .T. ) ;
#129 = PLANE ( 'NONE',  #174 ) ;
#130 = DATE_AND_TIME ( #41, #253 ) ;
#131 = CARTESIAN_POINT ( 'NONE',  ( 1.836970198721019827E-16, -1.499999999999996891, -1.836970198721032399E-16 ) ) ;
#132 = CARTESIAN_POINT ( 'NONE',  ( 1.047444401652940007E-13, 8.998558695971084067E-33, 30.00000000000000000 ) ) ;
#133 = DIRECTION ( 'NONE',  ( 0.000000000000000000, -1.000000000000000000, 0.000000000000000000 ) ) ;
#134 = CARTESIAN_POINT ( 'NONE',  ( 1.036969957636410417E-13, 1.499999999999995781, 29.69999999999999574 ) ) ;
#135 = CONICAL_SURFACE ( 'NONE', #194, 1.199999999999999289, 0.7853981633974457255 ) ;
#136 = DIRECTION ( 'NONE',  ( 3.491481338843133355E-15, -1.276467311168695266E-16, 1.000000000000000000 ) ) ;
#137 = COORDINATED_UNIVERSAL_TIME_OFFSET ( 1, 0, .AHEAD. ) ;
#138 = ORIENTED_EDGE ( 'NONE', *, *, #68, .T. ) ;
#139 = EDGE_CURVE ( 'NONE', #165, #57, #105, .T. ) ;
#140 = VERTEX_POINT ( 'NONE', #171 ) ;
#141 = CLOSED_SHELL ( 'NONE', ( #87, #353, #270, #217 ) ) ;
#142 = APPLICATION_PROTOCOL_DEFINITION ( 'international standard', 'config_control_design', 1994, #321 ) ;
#143 = AXIS2_PLACEMENT_3D ( 'NONE', #211, #34, #118 ) ;
#144 =( NAMED_UNIT ( * ) PLANE_ANGLE_UNIT ( ) SI_UNIT ( $, .RADIAN. ) );
#145 = EDGE_CURVE ( 'NONE', #202, #76, #363, .T. ) ;
#146 = CYLINDRICAL_SURFACE ( 'NONE', #86, 0.9999999999999991118 ) ;
#147 = VECTOR ( 'NONE', #225, 1000.000000000000000 ) ;
#148 = VERTEX_POINT ( 'NONE', #134 ) ;
#149 = PRODUCT_DEFINITION ( 'UNKNOWN', '', #162, #201 ) ;
#150 = FACE_OUTER_BOUND ( 'NONE', #313, .T. ) ;
#151 = APPROVAL_DATE_TIME ( #130, #178 ) ;
#152 = CARTESIAN_POINT ( 'NONE',  ( 1.047444401652940007E-13, -3.673940397442059178E-15, 30.00000000000000000 ) ) ;
#153 = DIRECTION ( 'NONE',  ( -3.491481338843133355E-15, 1.276467311168695266E-16, -1.000000000000000000 ) ) ;
#154 = ORIENTED_EDGE ( 'NONE', *, *, #230, .T. ) ;
#155 = DIRECTION ( 'NONE',  ( -2.382254525458722992E-15, -0.7071067811865455743, -0.7071067811865493491 ) ) ;
#156 = AXIS2_PLACEMENT_3D ( 'NONE', #269, #298, #359 ) ;
#157 = PERSON_AND_ORGANIZATION ( #361, #223 ) ;
#158 = DIRECTION ( 'NONE',  ( 4.275831445896958607E-31, 1.000000000000000000, 1.224646799147353454E-16 ) ) ;
#159 = CARTESIAN_POINT ( 'NONE',  ( -2.476696116459930772E-30, 6.709805186089075782E-32, -7.093539607118619240E-16 ) ) ;
#160 = CARTESIAN_POINT ( 'NONE',  ( 1.048913977811916904E-13, -1.200000000000002842, 30.00000000000000000 ) ) ;
#161 = DIRECTION ( 'NONE',  ( -4.456761796588769661E-31, -1.000000000000000000, -1.276467311168695512E-16 ) ) ;
#162 = PRODUCT_DEFINITION_FORMATION_WITH_SPECIFIED_SOURCE ( 'ANY', '', #112, .NOT_KNOWN. ) ;
#163 = EDGE_LOOP ( 'NONE', ( #51, #175 ) ) ;
#164 = AXIS2_PLACEMENT_3D ( 'NONE', #2, #301, #158 ) ;
#165 = VERTEX_POINT ( 'NONE', #220 ) ;
#166 = EDGE_CURVE ( 'NONE', #202, #140, #279, .T. ) ;
#167 = APPROVAL_DATE_TIME ( #312, #325 ) ;
#168 = CARTESIAN_POINT ( 'NONE',  ( 6.413747168845424773E-31, 1.499999999999996891, 1.836970198721026236E-16 ) ) ;
#169 = EDGE_LOOP ( 'NONE', ( #229, #274, #317, #226 ) ) ;
#170 = CC_DESIGN_SECURITY_CLASSIFICATION ( #246, ( #162 ) ) ;
#171 = CARTESIAN_POINT ( 'NONE',  ( 6.383479766648866678E-14, 1.499999999999996225, 6.866025403784424164 ) ) ;
#172 = APPLICATION_CONTEXT ( 'configuration controlled 3d designs of mechanical parts and assemblies' ) ;
#173 = VERTEX_POINT ( 'NONE', #102 ) ;
#174 = AXIS2_PLACEMENT_3D ( 'NONE', #132, #243, #358 ) ;
#175 = ORIENTED_EDGE ( 'NONE', *, *, #139, .F. ) ;
#176 = ORIENTED_EDGE ( 'NONE', *, *, #68, .F. ) ;
#177 = PRODUCT_DEFINITION_SHAPE ( 'NONE', 'NONE',  #149 ) ;
#178 = APPROVAL ( #265, 'UNSPECIFIED' ) ;
#179 = DIRECTION ( 'NONE',  ( 1.000000000000000000, 0.000000000000000000, 0.000000000000000000 ) ) ;
#180 = ORIENTED_EDGE ( 'NONE', *, *, #3, .F. ) ;
#181 = DATE_AND_TIME ( #209, #38 ) ;
#182 = EDGE_CURVE ( 'NONE', #57, #148, #338, .T. ) ;
#183 = EDGE_LOOP ( 'NONE', ( #4, #10 ) ) ;
#184 = FACE_OUTER_BOUND ( 'NONE', #341, .T. ) ;
#185 = DIRECTION ( 'NONE',  ( 3.491481338843133355E-15, -1.224646799147353207E-16, 1.000000000000000000 ) ) ;
#186 = LOCAL_TIME ( 8, 31, 39.00000000000000000, #123 ) ;
#187 = CARTESIAN_POINT ( 'NONE',  ( 8.260933544542137464E-14, -3.020154085325541628E-15, 23.66025403784433223 ) ) ;
#188 = EDGE_CURVE ( 'NONE', #165, #52, #309, .T. ) ;
#189 = PERSON_AND_ORGANIZATION ( #361, #223 ) ;
#190 = CARTESIAN_POINT ( 'NONE',  ( 8.260933544542137464E-14, -6.000000000000001776, 23.66025403784433223 ) ) ;
#191 = ORIENTED_EDGE ( 'NONE', *, *, #188, .F. ) ;
#192 = DIRECTION ( 'NONE',  ( -3.491481338843133355E-15, 1.224646799147353207E-16, -1.000000000000000000 ) ) ;
#193 = DIRECTION ( 'NONE',  ( -2.468850131082271655E-15, 0.7071067811865457964, -0.7071067811865492381 ) ) ;
#194 = AXIS2_PLACEMENT_3D ( 'NONE', #339, #50, #280 ) ;
#195 = ORIENTED_EDGE ( 'NONE', *, *, #145, .T. ) ;
#196 = ORIENTED_EDGE ( 'NONE', *, *, #288, .F. ) ;
#197 = CARTESIAN_POINT ( 'NONE',  ( -2.922372296118807387E-30, -0.9999999999999991118, -8.370006918287313027E-16 ) ) ;
#198 = PERSON_AND_ORGANIZATION ( #361, #223 ) ;
#199 = AXIS2_PLACEMENT_3D ( 'NONE', #247, #192, #241 ) ;
#200 = EDGE_LOOP ( 'NONE', ( #116, #33 ) ) ;
#201 = DESIGN_CONTEXT ( 'detailed design', #172, 'design' ) ;
#202 = VERTEX_POINT ( 'NONE', #273 ) ;
#203 = ADVANCED_FACE ( 'NONE', ( #150 ), #111, .T. ) ;
#204 = DIRECTION ( 'NONE',  ( 0.000000000000000000, 1.000000000000000000, 0.000000000000000000 ) ) ;
#205 = COORDINATED_UNIVERSAL_TIME_OFFSET ( 1, 0, .AHEAD. ) ;
#206 = CARTESIAN_POINT ( 'NONE',  ( 1.036969957636410417E-13, -3.637200993467639107E-15, 29.69999999999999574 ) ) ;
#207 = LOCAL_TIME ( 8, 31, 39.00000000000000000, #127 ) ;
#208 = ORIENTED_EDGE ( 'NONE', *, *, #221, .T. ) ;
#209 = CALENDAR_DATE ( 2023, 31, 3 ) ;
#210 = AXIS2_PLACEMENT_3D ( 'NONE', #80, #258, #320 ) ;
#211 = CARTESIAN_POINT ( 'NONE',  ( -2.476696116459930772E-30, 6.709805186089075782E-32, -7.093539607118619240E-16 ) ) ;
#212 = LINE ( 'NONE', #215, #326 ) ;
#213 = CARTESIAN_POINT ( 'NONE',  ( 1.745740669421566678E-14, -6.382336555843476821E-16, 5.000000000000000000 ) ) ;
#214 = PERSON_AND_ORGANIZATION_ROLE ( 'creator' ) ;
#215 = CARTESIAN_POINT ( 'NONE',  ( 1.224646799147350002E-16, 0.9999999999999991118, -5.605293924377505371E-17 ) ) ;
#216 = DIRECTION ( 'NONE',  ( 3.491481338843133355E-15, -1.276467311168695266E-16, 1.000000000000000000 ) ) ;
#217 = ADVANCED_FACE ( 'NONE', ( #218 ), #126, .F. ) ;
#218 = FACE_OUTER_BOUND ( 'NONE', #200, .T. ) ;
#219 = SECURITY_CLASSIFICATION_LEVEL ( 'unclassified' ) ;
#220 = CARTESIAN_POINT ( 'NONE',  ( 1.043860452823524111E-13, -1.200000000000002842, 30.00000000000000000 ) ) ;
#221 = EDGE_CURVE ( 'NONE', #76, #202, #262, .T. ) ;
#222 = VECTOR ( 'NONE', #336, 1000.000000000000000 ) ;
#223 = ORGANIZATION ( 'UNSPECIFIED', 'UNSPECIFIED', '' ) ;
#224 = VERTEX_POINT ( 'NONE', #240 ) ;
#225 = DIRECTION ( 'NONE',  ( -3.491481338843133355E-15, 1.224646799147353207E-16, -1.000000000000000000 ) ) ;
#226 = ORIENTED_EDGE ( 'NONE', *, *, #37, .F. ) ;
#227 = ORIENTED_EDGE ( 'NONE', *, *, #182, .T. ) ;
#228 = DIRECTION ( 'NONE',  ( 0.000000000000000000, 1.000000000000000000, 0.000000000000000000 ) ) ;
#229 = ORIENTED_EDGE ( 'NONE', *, *, #48, .T. ) ;
#230 = EDGE_CURVE ( 'NONE', #260, #345, #308, .T. ) ;
#231 = LOCAL_TIME ( 8, 31, 39.00000000000000000, #137 ) ;
#232 = DIRECTION ( 'NONE',  ( 3.491481338843133355E-15, -1.276467311168695266E-16, 1.000000000000000000 ) ) ;
#233 = CIRCLE ( 'NONE', #352, 0.9999999999999991118 ) ;
#234 = ORIENTED_EDGE ( 'NONE', *, *, #188, .T. ) ;
#235 = ORIENTED_EDGE ( 'NONE', *, *, #288, .T. ) ;
#236 = APPROVAL_ROLE ( '' ) ;
#237 = CARTESIAN_POINT ( 'NONE',  ( -6.413839710158237013E-31, 0.000000000000000000, -1.836996703606440502E-16 ) ) ;
#238 = CARTESIAN_POINT ( 'NONE',  ( 1.745740669421566678E-14, -6.382336555843476821E-16, 5.000000000000000000 ) ) ;
#239 = APPROVAL_STATUS ( 'not_yet_approved' ) ;
#240 = CARTESIAN_POINT ( 'NONE',  ( 8.851168027022566959E-15, 0.9999999999999986677, 5.000000000000000000 ) ) ;
#241 = DIRECTION ( 'NONE',  ( 4.275831445896958607E-31, 1.000000000000000000, 1.224646799147353454E-16 ) ) ;
#242 = EDGE_CURVE ( 'NONE', #173, #224, #264, .T. ) ;
#243 = DIRECTION ( 'NONE',  ( -3.491481338843133355E-15, 1.224646799147353207E-16, -1.000000000000000000 ) ) ;
#244 = CALENDAR_DATE ( 2023, 31, 3 ) ;
#245 = CYLINDRICAL_SURFACE ( 'NONE', #7, 0.9999999999999991118 ) ;
#246 = SECURITY_CLASSIFICATION ( '', '', #219 ) ;
#247 = CARTESIAN_POINT ( 'NONE',  ( 0.000000000000000000, 0.000000000000000000, 0.000000000000000000 ) ) ;
#248 = AXIS2_PLACEMENT_3D ( 'NONE', #46, #24, #121 ) ;
#249 = EDGE_CURVE ( 'NONE', #52, #148, #27, .T. ) ;
#250 = ORIENTED_EDGE ( 'NONE', *, *, #318, .T. ) ;
#251 = ORIENTED_EDGE ( 'NONE', *, *, #311, .F. ) ;
#252 = ORIENTED_EDGE ( 'NONE', *, *, #59, .T. ) ;
#253 = LOCAL_TIME ( 8, 31, 39.00000000000000000, #92 ) ;
#254 = ADVANCED_FACE ( 'NONE', ( #93 ), #66, .F. ) ;
#255 = CARTESIAN_POINT ( 'NONE',  ( 1.745740669421566678E-14, -6.382336555843476821E-16, 5.000000000000000000 ) ) ;
#256 = ORIENTED_EDGE ( 'NONE', *, *, #166, .F. ) ;
#257 = ORIENTED_EDGE ( 'NONE', *, *, #351, .T. ) ;
#258 = DIRECTION ( 'NONE',  ( -3.491481338843133355E-15, 1.276467311168695266E-16, -1.000000000000000000 ) ) ;
#259 = CC_DESIGN_APPROVAL ( #178, ( #149 ) ) ;
#260 = VERTEX_POINT ( 'NONE', #261 ) ;
#261 = CARTESIAN_POINT ( 'NONE',  ( 8.851168027022571692E-15, 0.9999999999999991118, -5.817072295950234096E-16 ) ) ;
#262 = CIRCLE ( 'NONE', #248, 0.9999999999999993339 ) ;
#263 = MECHANICAL_CONTEXT ( 'NONE', #321, 'mechanical' ) ;
#264 = CIRCLE ( 'NONE', #293, 0.9999999999999993339 ) ;
#265 = APPROVAL_STATUS ( 'not_yet_approved' ) ;
#266 = ADVANCED_BREP_SHAPE_REPRESENTATION ( '372685', ( #324, #78, #20 ), #343 ) ;
#267 = PERSON_AND_ORGANIZATION ( #361, #223 ) ;
#268 = DIRECTION ( 'NONE',  ( -3.491481338843133355E-15, 1.224646799147353207E-16, -1.000000000000000000 ) ) ;
#269 = CARTESIAN_POINT ( 'NONE',  ( 8.260933544542137464E-14, -3.020154085325541628E-15, 23.66025403784433223 ) ) ;
#270 = ADVANCED_FACE ( 'NONE', ( #110 ), #146, .T. ) ;
#271 = FACE_OUTER_BOUND ( 'NONE', #163, .T. ) ;
#272 = APPROVAL_PERSON_ORGANIZATION ( #12, #178, #18 ) ;
#273 = CARTESIAN_POINT ( 'NONE',  ( 2.086808398166934775E-14, 0.9999999999999986677, 5.000000000000000000 ) ) ;
#274 = ORIENTED_EDGE ( 'NONE', *, *, #311, .T. ) ;
#275 = CALENDAR_DATE ( 2023, 31, 3 ) ;
#276 = FACE_OUTER_BOUND ( 'NONE', #81, .T. ) ;
#277 = CARTESIAN_POINT ( 'NONE',  ( -1.087060150674700229E-30, -0.9999999999999991118, -3.113464014775134782E-16 ) ) ;
#278 = CIRCLE ( 'NONE', #355, 1.499999999999999334 ) ;
#279 = LINE ( 'NONE', #337, #64 ) ;
#280 = DIRECTION ( 'NONE',  ( 0.000000000000000000, 1.000000000000000000, 0.000000000000000000 ) ) ;
#281 = DIRECTION ( 'NONE',  ( -3.491481338843133355E-15, 1.224646799147353207E-16, -1.000000000000000000 ) ) ;
#282 = UNCERTAINTY_MEASURE_WITH_UNIT (LENGTH_MEASURE( 1.000000000000000082E-05 ), #289, 'distance_accuracy_value', 'NONE');
#283 = ORIENTED_EDGE ( 'NONE', *, *, #122, .T. ) ;
#284 = PLANE ( 'NONE',  #36 ) ;
#285 = CC_DESIGN_DATE_AND_TIME_ASSIGNMENT ( #330, #72, ( #149 ) ) ;
#286 = ORIENTED_EDGE ( 'NONE', *, *, #249, .T. ) ;
#287 = CIRCLE ( 'NONE', #335, 1.499999999999996891 ) ;
#288 = EDGE_CURVE ( 'NONE', #148, #52, #278, .T. ) ;
#289 =( LENGTH_UNIT ( ) NAMED_UNIT ( * ) SI_UNIT ( .MILLI., .METRE. ) );
#290 = CIRCLE ( 'NONE', #210, 1.499999999999996891 ) ;
#291 = CARTESIAN_POINT ( 'NONE',  ( 0.000000000000000000, 0.000000000000000000, 0.000000000000000000 ) ) ;
#292 = DATE_TIME_ROLE ( 'classification_date' ) ;
#293 = AXIS2_PLACEMENT_3D ( 'NONE', #238, #40, #115 ) ;
#294 = ORIENTED_EDGE ( 'NONE', *, *, #37, .T. ) ;
#295 = PERSON_AND_ORGANIZATION_ROLE ( 'design_owner' ) ;
#296 = DIRECTION ( 'NONE',  ( -3.491481338843133355E-15, 1.224646799147353207E-16, -1.000000000000000000 ) ) ;
#297 = ADVANCED_FACE ( 'NONE', ( #128 ), #331, .T. ) ;
#298 = DIRECTION ( 'NONE',  ( 3.491481338843133355E-15, -1.276467311168695266E-16, 1.000000000000000000 ) ) ;
#299 = DIRECTION ( 'NONE',  ( 0.000000000000000000, 1.000000000000000000, 0.000000000000000000 ) ) ;
#300 = PERSON_AND_ORGANIZATION ( #361, #223 ) ;
#301 = DIRECTION ( 'NONE',  ( -3.491481338843133355E-15, 1.224646799147353207E-16, -1.000000000000000000 ) ) ;
#302 = CLOSED_SHELL ( 'NONE', ( #203, #108, #96, #297, #340, #75, #13, #254 ) ) ;
#303 = ORIENTED_EDGE ( 'NONE', *, *, #139, .T. ) ;
#304 = CARTESIAN_POINT ( 'NONE',  ( 2.397259956933620664E-14, -8.764256985584658638E-16, 6.866025403784424164 ) ) ;
#305 = ORIENTED_EDGE ( 'NONE', *, *, #351, .F. ) ;
#306 = DIRECTION ( 'NONE',  ( 0.000000000000000000, -1.000000000000000000, 0.000000000000000000 ) ) ;
#307 = ORIENTED_EDGE ( 'NONE', *, *, #318, .F. ) ;
#308 = CIRCLE ( 'NONE', #143, 0.9999999999999991118 ) ;
#309 = LINE ( 'NONE', #160, #349 ) ;
#310 = APPROVAL_ROLE ( '' ) ;
#311 = EDGE_CURVE ( 'NONE', #260, #224, #212, .T. ) ;
#312 = DATE_AND_TIME ( #275, #231 ) ;
#313 = EDGE_LOOP ( 'NONE', ( #208, #30, #283, #8 ) ) ;
#314 = DIRECTION ( 'NONE',  ( 3.491481338843133355E-15, -1.224646799147353207E-16, 1.000000000000000000 ) ) ;
#315 = ORIENTED_EDGE ( 'NONE', *, *, #3, .T. ) ;
#316 = AXIS2_PLACEMENT_3D ( 'NONE', #11, #281, #346 ) ;
#317 = ORIENTED_EDGE ( 'NONE', *, *, #242, .F. ) ;
#318 = EDGE_CURVE ( 'NONE', #52, #31, #67, .T. ) ;
#319 = ORIENTED_EDGE ( 'NONE', *, *, #122, .F. ) ;
#320 = DIRECTION ( 'NONE',  ( -2.664535259100375697E-14, -1.000000000000000000, 0.000000000000000000 ) ) ;
#321 = APPLICATION_CONTEXT ( 'configuration controlled 3d designs of mechanical parts and assemblies' ) ;
#322 = DIRECTION ( 'NONE',  ( -3.491481338843133355E-15, 1.224646799147353207E-16, -1.000000000000000000 ) ) ;
#323 = AXIS2_PLACEMENT_3D ( 'NONE', #255, #25, #360 ) ;
#324 = MANIFOLD_SOLID_BREP ( 'Corps-Déplacer/Copier1[1]', #302 ) ;
#325 = APPROVAL ( #239, 'UNSPECIFIED' ) ;
#326 = VECTOR ( 'NONE', #124, 1000.000000000000000 ) ;
#327 = CC_DESIGN_DATE_AND_TIME_ASSIGNMENT ( #181, #292, ( #246 ) ) ;
#328 = LINE ( 'NONE', #277, #222 ) ;
#329 = CARTESIAN_POINT ( 'NONE',  ( 1.036969957636410417E-13, -3.637200993467639107E-15, 29.69999999999999574 ) ) ;
#330 = DATE_AND_TIME ( #244, #207 ) ;
#331 = CYLINDRICAL_SURFACE ( 'NONE', #199, 1.499999999999996891 ) ;
#332 = CARTESIAN_POINT ( 'NONE',  ( 1.047444401652940007E-13, 1.199999999999995515, 30.00000000000000000 ) ) ;
#333 = PERSON_AND_ORGANIZATION ( #361, #223 ) ;
#334 = CARTESIAN_POINT ( 'NONE',  ( 6.401849468636073163E-14, -1.499999999999997780, 6.866025403784424164 ) ) ;
#335 = AXIS2_PLACEMENT_3D ( 'NONE', #304, #153, #71 ) ;
#336 = DIRECTION ( 'NONE',  ( 3.491481338843133355E-15, -1.276467311168695266E-16, 1.000000000000000000 ) ) ;
#337 = CARTESIAN_POINT ( 'NONE',  ( 8.334412352490978553E-14, 5.999999999999996447, 23.66025403784433223 ) ) ;
#338 = LINE ( 'NONE', #77, #89 ) ;
#339 = CARTESIAN_POINT ( 'NONE',  ( 1.047444401652940007E-13, -3.673940397442059178E-15, 30.00000000000000000 ) ) ;
#340 = ADVANCED_FACE ( 'NONE', ( #99 ), #135, .T. ) ;
#341 = EDGE_LOOP ( 'NONE', ( #256, #195, #6, #138 ) ) ;
#342 = CARTESIAN_POINT ( 'NONE',  ( 1.047444401652940007E-13, -3.673940397442059178E-15, 30.00000000000000000 ) ) ;
#343 =( GEOMETRIC_REPRESENTATION_CONTEXT ( 3 ) GLOBAL_UNCERTAINTY_ASSIGNED_CONTEXT ( ( #282 ) ) GLOBAL_UNIT_ASSIGNED_CONTEXT ( ( #289, #144, #62 ) ) REPRESENTATION_CONTEXT ( 'NONE', 'WORKASPACE' ) );
#344 = LINE ( 'NONE', #168, #147 ) ;
#345 = VERTEX_POINT ( 'NONE', #197 ) ;
#346 = DIRECTION ( 'NONE',  ( 0.000000000000000000, 1.000000000000000000, 0.000000000000000000 ) ) ;
#347 = FACE_OUTER_BOUND ( 'NONE', #83, .T. ) ;
#348 = CIRCLE ( 'NONE', #73, 1.199999999999999289 ) ;
#349 = VECTOR ( 'NONE', #155, 1000.000000000000114 ) ;
#350 = DIRECTION ( 'NONE',  ( 0.000000000000000000, 0.000000000000000000, 1.000000000000000000 ) ) ;
#351 = EDGE_CURVE ( 'NONE', #148, #140, #344, .T. ) ;
#352 = AXIS2_PLACEMENT_3D ( 'NONE', #159, #216, #28 ) ;
#353 = ADVANCED_FACE ( 'NONE', ( #347 ), #284, .T. ) ;
#354 = PERSON_AND_ORGANIZATION_ROLE ( 'creator' ) ;
#355 = AXIS2_PLACEMENT_3D ( 'NONE', #206, #322, #228 ) ;
#356 = CARTESIAN_POINT ( 'NONE',  ( 1.745740669421566678E-14, 1.124819836996388416E-32, 5.000000000000000000 ) ) ;
#357 = DIRECTION ( 'NONE',  ( 3.491481338843133355E-15, -1.224646799147353207E-16, 1.000000000000000000 ) ) ;
#358 = DIRECTION ( 'NONE',  ( 4.275831445896958607E-31, 1.000000000000000000, 1.224646799147353207E-16 ) ) ;
#359 = DIRECTION ( 'NONE',  ( 0.000000000000000000, -1.000000000000000000, 0.000000000000000000 ) ) ;
#360 = DIRECTION ( 'NONE',  ( 0.000000000000000000, -1.000000000000000000, 0.000000000000000000 ) ) ;
#361 = PERSON ( 'UNSPECIFIED', 'UNSPECIFIED', 'UNSPECIFIED', ('UNSPECIFIED'), ('UNSPECIFIED'), ('UNSPECIFIED') ) ;
#362 = PRODUCT_RELATED_PRODUCT_CATEGORY ( 'detail', '', ( #112 ) ) ;
#363 = CIRCLE ( 'NONE', #323, 0.9999999999999993339 ) ;
ENDSEC;
END-ISO-10303-21;
