ISO-10303-21;
HEADER;
FILE_DESCRIPTION (( 'STEP AP203' ),
    '1' );
FILE_NAME ('372684.step',
    '2023-03-31T06:31:38',
    ( '' ),
    ( '' ),
    'SwSTEP 2.0',
    'SolidWorks 2022',
    '' );
FILE_SCHEMA (( 'CONFIG_CONTROL_DESIGN' ));
ENDSEC;

DATA;
#1 = APPROVAL_ROLE ( '' ) ;
#2 = ADVANCED_FACE ( 'NONE', ( #32 ), #13, .T. ) ;
#3 = DIRECTION ( 'NONE',  ( 0.000000000000000000, -1.000000000000000000, 0.000000000000000000 ) ) ;
#4 = DIRECTION ( 'NONE',  ( -4.456761796588771413E-31, -1.000000000000000000, -1.276467311168695266E-16 ) ) ;
#5 = AXIS2_PLACEMENT_3D ( 'NONE', #30, #207, #189 ) ;
#6 = AXIS2_PLACEMENT_3D ( 'NONE', #307, #188, #280 ) ;
#7 = DIRECTION ( 'NONE',  ( -3.491481338843133355E-15, 1.224646799147353207E-16, -1.000000000000000000 ) ) ;
#8 = VERTEX_POINT ( 'NONE', #248 ) ;
#9 = APPLICATION_CONTEXT ( 'configuration controlled 3d designs of mechanical parts and assemblies' ) ;
#10 = ADVANCED_FACE ( 'NONE', ( #221 ), #128, .F. ) ;
#11 = CARTESIAN_POINT ( 'NONE',  ( 7.982202601608798732E-14, 5.749999999999997335, 22.66025403784433223 ) ) ;
#12 = CARTESIAN_POINT ( 'NONE',  ( 7.768378057121981503E-14, 1.499999999999996891, 6.799038105676641131 ) ) ;
#13 = PLANE ( 'NONE',  #340 ) ;
#14 = ORIENTED_EDGE ( 'NONE', *, *, #190, .F. ) ;
#15 = CYLINDRICAL_SURFACE ( 'NONE', #314, 0.7499999999999997780 ) ;
#16 = VECTOR ( 'NONE', #244, 1000.000000000000000 ) ;
#17 = CARTESIAN_POINT ( 'NONE',  ( 0.000000000000000000, 0.000000000000000000, 0.000000000000000000 ) ) ;
#18 = DIRECTION ( 'NONE',  ( -3.491481338843133355E-15, 1.224646799147353207E-16, -1.000000000000000000 ) ) ;
#19 = PERSON_AND_ORGANIZATION ( #227, #62 ) ;
#20 = CYLINDRICAL_SURFACE ( 'NONE', #346, 1.499999999999997780 ) ;
#21 = CALENDAR_DATE ( 2023, 31, 3 ) ;
#22 = EDGE_LOOP ( 'NONE', ( #149, #232 ) ) ;
#23 = CLOSED_SHELL ( 'NONE', ( #250, #57, #24, #195, #47, #10, #289, #311 ) ) ;
#24 = ADVANCED_FACE ( 'NONE', ( #46 ), #20, .T. ) ;
#25 = AXIS2_PLACEMENT_3D ( 'NONE', #166, #79, #3 ) ;
#26 = CARTESIAN_POINT ( 'NONE',  ( 1.396592535537253342E-14, -0.7500000000000003331, 4.000000000000000000 ) ) ;
#27 = DIRECTION ( 'NONE',  ( 4.275831445896959482E-31, 1.000000000000000000, 1.224646799147353207E-16 ) ) ;
#28 = APPROVAL_STATUS ( 'not_yet_approved' ) ;
#29 = CARTESIAN_POINT ( 'NONE',  ( -6.413839710158237013E-31, 0.000000000000000000, -1.836996703606440502E-16 ) ) ;
#30 = CARTESIAN_POINT ( 'NONE',  ( 1.326762908760390423E-13, -4.653657836759941941E-15, 38.00000000000000000 ) ) ;
#31 = EDGE_CURVE ( 'NONE', #51, #183, #295, .T. ) ;
#32 = FACE_OUTER_BOUND ( 'NONE', #323, .T. ) ;
#33 = CIRCLE ( 'NONE', #309, 1.200000000000001066 ) ;
#34 = FACE_OUTER_BOUND ( 'NONE', #126, .T. ) ;
#35 = CC_DESIGN_SECURITY_CLASSIFICATION ( #363, ( #80 ) ) ;
#36 = ORIENTED_EDGE ( 'NONE', *, *, #95, .T. ) ;
#37 = CARTESIAN_POINT ( 'NONE',  ( 0.000000000000000000, 0.000000000000000000, 0.000000000000000000 ) ) ;
#38 = CARTESIAN_POINT ( 'NONE',  ( 1.396592535537253342E-14, -5.105869244674781062E-16, 4.000000000000000000 ) ) ;
#39 = CIRCLE ( 'NONE', #292, 0.7499999999999997780 ) ;
#40 = CIRCLE ( 'NONE', #44, 1.500000000000001110 ) ;
#41 = FACE_OUTER_BOUND ( 'NONE', #335, .T. ) ;
#42 = CALENDAR_DATE ( 2023, 31, 3 ) ;
#43 = EDGE_LOOP ( 'NONE', ( #100, #109 ) ) ;
#44 = AXIS2_PLACEMENT_3D ( 'NONE', #226, #48, #287 ) ;
#45 = LINE ( 'NONE', #161, #205 ) ;
#46 = FACE_OUTER_BOUND ( 'NONE', #249, .T. ) ;
#47 = ADVANCED_FACE ( 'NONE', ( #360 ), #224, .T. ) ;
#48 = DIRECTION ( 'NONE',  ( -3.491481338843133355E-15, 1.224646799147353207E-16, -1.000000000000000000 ) ) ;
#49 = AXIS2_PLACEMENT_3D ( 'NONE', #246, #332, #70 ) ;
#50 = DIRECTION ( 'NONE',  ( 3.491481338843133355E-15, -1.276467311168695266E-16, 1.000000000000000000 ) ) ;
#51 = VERTEX_POINT ( 'NONE', #118 ) ;
#52 = CARTESIAN_POINT ( 'NONE',  ( 1.326762908760390423E-13, -4.653657836759941941E-15, 38.00000000000000000 ) ) ;
#53 = ADVANCED_BREP_SHAPE_REPRESENTATION ( '372684', ( #329, #75, #282 ), #159 ) ;
#54 = ORIENTED_EDGE ( 'NONE', *, *, #240, .T. ) ;
#55 = AXIS2_PLACEMENT_3D ( 'NONE', #325, #264, #322 ) ;
#56 = CIRCLE ( 'NONE', #274, 0.7499999999999997780 ) ;
#57 = ADVANCED_FACE ( 'NONE', ( #41 ), #165, .T. ) ;
#58 = ORIENTED_EDGE ( 'NONE', *, *, #277, .F. ) ;
#59 = ORIENTED_EDGE ( 'NONE', *, *, #89, .F. ) ;
#60 = CIRCLE ( 'NONE', #362, 1.499999999999997780 ) ;
#61 = LINE ( 'NONE', #11, #238 ) ;
#62 = ORGANIZATION ( 'UNSPECIFIED', 'UNSPECIFIED', '' ) ;
#63 = EDGE_CURVE ( 'NONE', #218, #270, #127, .T. ) ;
#64 = ORIENTED_EDGE ( 'NONE', *, *, #174, .F. ) ;
#65 = FACE_OUTER_BOUND ( 'NONE', #22, .T. ) ;
#66 = ORIENTED_EDGE ( 'NONE', *, *, #303, .T. ) ;
#67 = DIRECTION ( 'NONE',  ( 0.000000000000000000, 1.000000000000000000, 0.000000000000000000 ) ) ;
#68 = COORDINATED_UNIVERSAL_TIME_OFFSET ( 1, 0, .AHEAD. ) ;
#69 = LOCAL_TIME ( 8, 31, 38.00000000000000000, #278 ) ;
#70 = DIRECTION ( 'NONE',  ( 0.000000000000000000, -1.000000000000000000, 0.000000000000000000 ) ) ;
#71 = PERSON_AND_ORGANIZATION ( #227, #62 ) ;
#72 = ORIENTED_EDGE ( 'NONE', *, *, #108, .T. ) ;
#73 = ORIENTED_EDGE ( 'NONE', *, *, #354, .F. ) ;
#74 = CC_DESIGN_PERSON_AND_ORGANIZATION_ASSIGNMENT ( #148, #308, ( #80 ) ) ;
#75 = MANIFOLD_SOLID_BREP ( 'Corps-Déplacer/Copier1[2]', #330 ) ;
#76 = DATE_AND_TIME ( #304, #260 ) ;
#77 = ORIENTED_EDGE ( 'NONE', *, *, #190, .T. ) ;
#78 = CIRCLE ( 'NONE', #179, 0.7499999999999997780 ) ;
#79 = DIRECTION ( 'NONE',  ( 3.491481338843133355E-15, -1.276467311168695266E-16, 1.000000000000000000 ) ) ;
#80 = PRODUCT_DEFINITION_FORMATION_WITH_SPECIFIED_SOURCE ( 'ANY', '', #107, .NOT_KNOWN. ) ;
#81 = DIRECTION ( 'NONE',  ( 0.000000000000000000, -1.000000000000000000, 0.000000000000000000 ) ) ;
#82 = ORIENTED_EDGE ( 'NONE', *, *, #338, .F. ) ;
#83 = APPROVAL_STATUS ( 'not_yet_approved' ) ;
#84 = DESIGN_CONTEXT ( 'detailed design', #9, 'design' ) ;
#85 = EDGE_CURVE ( 'NONE', #8, #187, #305, .T. ) ;
#86 = DIRECTION ( 'NONE',  ( 0.000000000000000000, -1.000000000000000000, 0.000000000000000000 ) ) ;
#87 = AXIS2_PLACEMENT_3D ( 'NONE', #153, #351, #299 ) ;
#88 = CARTESIAN_POINT ( 'NONE',  ( 1.396592535537253342E-14, -0.7500000000000003331, 4.000000000000000000 ) ) ;
#89 = EDGE_CURVE ( 'NONE', #183, #115, #150, .T. ) ;
#90 = CC_DESIGN_APPROVAL ( #327, ( #133 ) ) ;
#91 = CARTESIAN_POINT ( 'NONE',  ( 7.074811187622318072E-15, 0.7499999999999997780, -5.817072295950171973E-16 ) ) ;
#92 = APPLICATION_PROTOCOL_DEFINITION ( 'international standard', 'config_control_design', 1994, #9 ) ;
#93 = DIRECTION ( 'NONE',  ( 3.372511997194914833E-15, -0.2588190451025215166, 0.9659258262890679791 ) ) ;
#94 = FACE_OUTER_BOUND ( 'NONE', #320, .T. ) ;
#95 = EDGE_CURVE ( 'NONE', #218, #187, #237, .T. ) ;
#96 = DIRECTION ( 'NONE',  ( -3.491481338843133355E-15, 1.224646799147353207E-16, -1.000000000000000000 ) ) ;
#97 = AXIS2_PLACEMENT_3D ( 'NONE', #37, #7, #269 ) ;
#98 = CONICAL_SURFACE ( 'NONE', #25, 5.750000000000000000, 0.2617993877991501850 ) ;
#99 = DATE_AND_TIME ( #21, #69 ) ;
#100 = ORIENTED_EDGE ( 'NONE', *, *, #233, .F. ) ;
#101 = DIRECTION ( 'NONE',  ( -3.491481338843133355E-15, 1.276467311168695266E-16, -1.000000000000000000 ) ) ;
#102 = ORIENTED_EDGE ( 'NONE', *, *, #31, .T. ) ;
#103 = CIRCLE ( 'NONE', #296, 1.499999999999997780 ) ;
#104 = COORDINATED_UNIVERSAL_TIME_OFFSET ( 1, 0, .AHEAD. ) ;
#105 = CARTESIAN_POINT ( 'NONE',  ( 1.899009277661702562E-14, 0.7499999999999992228, 4.000000000000000000 ) ) ;
#106 = DIRECTION ( 'NONE',  ( 0.000000000000000000, -1.000000000000000000, 0.000000000000000000 ) ) ;
#107 = PRODUCT ( '372684', '372684', '', ( #212 ) ) ;
#108 = EDGE_CURVE ( 'NONE', #130, #341, #110, .T. ) ;
#109 = ORIENTED_EDGE ( 'NONE', *, *, #178, .F. ) ;
#110 = LINE ( 'NONE', #235, #321 ) ;
#111 = CARTESIAN_POINT ( 'NONE',  ( 6.413747168845429152E-31, 1.499999999999997780, 1.836970198721027222E-16 ) ) ;
#112 = ORIENTED_EDGE ( 'NONE', *, *, #298, .F. ) ;
#113 = CARTESIAN_POINT ( 'NONE',  ( 9.184850993605115157E-17, 0.7499999999999997780, -8.796462202299225046E-17 ) ) ;
#114 = CARTESIAN_POINT ( 'NONE',  ( 1.328232484919367446E-13, -1.200000000000005507, 38.00000000000000000 ) ) ;
#115 = VERTEX_POINT ( 'NONE', #117 ) ;
#116 = APPROVAL ( #83, 'UNSPECIFIED' ) ;
#117 = CARTESIAN_POINT ( 'NONE',  ( 7.074811187622316494E-15, 0.7499999999999992228, 4.000000000000000000 ) ) ;
#118 = CARTESIAN_POINT ( 'NONE',  ( -2.699534206289369605E-30, -0.7499999999999997780, -7.731773262702966626E-16 ) ) ;
#119 = DIRECTION ( 'NONE',  ( 0.000000000000000000, 0.000000000000000000, 1.000000000000000000 ) ) ;
#120 = DIRECTION ( 'NONE',  ( 0.000000000000000000, 1.000000000000000000, 0.000000000000000000 ) ) ;
#121 = DIRECTION ( 'NONE',  ( -3.491481338843133355E-15, 1.224646799147353207E-16, -1.000000000000000000 ) ) ;
#122 = APPROVAL_ROLE ( '' ) ;
#123 = DIRECTION ( 'NONE',  ( -4.275831445896958607E-31, -1.000000000000000000, -1.224646799147353207E-16 ) ) ;
#124 = CC_DESIGN_DATE_AND_TIME_ASSIGNMENT ( #156, #276, ( #363 ) ) ;
#125 = PERSON_AND_ORGANIZATION_ROLE ( 'design_owner' ) ;
#126 = EDGE_LOOP ( 'NONE', ( #333, #140, #202, #64 ) ) ;
#127 = CIRCLE ( 'NONE', #49, 0.7499999999999997780 ) ;
#128 = PLANE ( 'NONE',  #139 ) ;
#129 = CONICAL_SURFACE ( 'NONE', #225, 5.750000000000000000, 0.2617993877991501850 ) ;
#130 = VERTEX_POINT ( 'NONE', #196 ) ;
#131 = ORIENTED_EDGE ( 'NONE', *, *, #178, .T. ) ;
#132 = ORIENTED_EDGE ( 'NONE', *, *, #146, .T. ) ;
#133 = PRODUCT_DEFINITION ( 'UNKNOWN', '', #80, #84 ) ;
#134 = APPROVAL_ROLE ( '' ) ;
#135 = CIRCLE ( 'NONE', #198, 1.200000000000001066 ) ;
#136 = APPLICATION_CONTEXT ( 'configuration controlled 3d designs of mechanical parts and assemblies' ) ;
#137 = DATE_AND_TIME ( #318, #268 ) ;
#138 = CYLINDRICAL_SURFACE ( 'NONE', #97, 1.499999999999997780 ) ;
#139 = AXIS2_PLACEMENT_3D ( 'NONE', #154, #121, #357 ) ;
#140 = ORIENTED_EDGE ( 'NONE', *, *, #277, .T. ) ;
#141 = CIRCLE ( 'NONE', #347, 1.500000000000001110 ) ;
#142 = PLANE ( 'NONE',  #6 ) ;
#143 = CARTESIAN_POINT ( 'NONE',  ( 7.786747759109184202E-14, -1.499999999999998668, 6.799038105676641131 ) ) ;
#144 = ORIENTED_EDGE ( 'NONE', *, *, #85, .T. ) ;
#145 = DIRECTION ( 'NONE',  ( 3.491481338843133355E-15, -1.276467311168695266E-16, 1.000000000000000000 ) ) ;
#146 = EDGE_CURVE ( 'NONE', #115, #273, #39, .T. ) ;
#147 = DIRECTION ( 'NONE',  ( 3.491481338843133355E-15, -1.276467311168695266E-16, 1.000000000000000000 ) ) ;
#148 = PERSON_AND_ORGANIZATION ( #227, #62 ) ;
#149 = ORIENTED_EDGE ( 'NONE', *, *, #31, .F. ) ;
#150 = LINE ( 'NONE', #113, #16 ) ;
#151 = VECTOR ( 'NONE', #18, 1000.000000000000000 ) ;
#152 = LOCAL_TIME ( 8, 31, 38.00000000000000000, #68 ) ;
#153 = CARTESIAN_POINT ( 'NONE',  ( -6.413839710158237013E-31, 0.000000000000000000, -1.836996703606440502E-16 ) ) ;
#154 = CARTESIAN_POINT ( 'NONE',  ( 1.326762908760390423E-13, 8.998558695971084067E-33, 38.00000000000000000 ) ) ;
#155 = PERSON_AND_ORGANIZATION ( #227, #62 ) ;
#156 = DATE_AND_TIME ( #42, #152 ) ;
#157 = EDGE_LOOP ( 'NONE', ( #171, #131, #72, #58 ) ) ;
#158 = DIRECTION ( 'NONE',  ( -4.456761796588768785E-31, -1.000000000000000000, -1.276467311168695266E-16 ) ) ;
#159 =( GEOMETRIC_REPRESENTATION_CONTEXT ( 3 ) GLOBAL_UNCERTAINTY_ASSIGNED_CONTEXT ( ( #231 ) ) GLOBAL_UNIT_ASSIGNED_CONTEXT ( ( #339, #222, #185 ) ) REPRESENTATION_CONTEXT ( 'NONE', 'WORKASPACE' ) );
#160 = APPROVAL_DATE_TIME ( #76, #327 ) ;
#161 = CARTESIAN_POINT ( 'NONE',  ( -9.756411057599815134E-31, -0.7499999999999997780, -2.794347186982961582E-16 ) ) ;
#162 = DIRECTION ( 'NONE',  ( -3.491481338843133355E-15, 1.224646799147353207E-16, -1.000000000000000000 ) ) ;
#163 = FACE_OUTER_BOUND ( 'NONE', #215, .T. ) ;
#164 = ADVANCED_FACE ( 'NONE', ( #65 ), #290, .F. ) ;
#165 = CONICAL_SURFACE ( 'NONE', #194, 1.200000000000001066, 0.7853981633974457255 ) ;
#166 = CARTESIAN_POINT ( 'NONE',  ( 7.911785410657825390E-14, -2.892507354208672546E-15, 22.66025403784433223 ) ) ;
#167 = APPROVAL_DATE_TIME ( #262, #116 ) ;
#168 = DIRECTION ( 'NONE',  ( -4.456761796588768785E-31, -1.000000000000000000, -1.276467311168695266E-16 ) ) ;
#169 = COORDINATED_UNIVERSAL_TIME_OFFSET ( 1, 0, .AHEAD. ) ;
#170 = DIRECTION ( 'NONE',  ( 3.491481338843133355E-15, -1.276467311168695266E-16, 1.000000000000000000 ) ) ;
#171 = ORIENTED_EDGE ( 'NONE', *, *, #200, .F. ) ;
#172 = EDGE_CURVE ( 'NONE', #341, #181, #275, .T. ) ;
#173 = EDGE_CURVE ( 'NONE', #270, #181, #61, .T. ) ;
#174 = EDGE_CURVE ( 'NONE', #187, #181, #60, .T. ) ;
#175 = ORIENTED_EDGE ( 'NONE', *, *, #146, .F. ) ;
#176 = FACE_OUTER_BOUND ( 'NONE', #242, .T. ) ;
#177 = DIRECTION ( 'NONE',  ( 3.491481338843133355E-15, -1.276467311168695266E-16, 1.000000000000000000 ) ) ;
#178 = EDGE_CURVE ( 'NONE', #345, #130, #135, .T. ) ;
#179 = AXIS2_PLACEMENT_3D ( 'NONE', #38, #170, #106 ) ;
#180 = DIRECTION ( 'NONE',  ( 0.000000000000000000, 1.000000000000000000, 0.000000000000000000 ) ) ;
#181 = VERTEX_POINT ( 'NONE', #12 ) ;
#182 = DIRECTION ( 'NONE',  ( -3.491481338843133355E-15, 1.276467311168695266E-16, -1.000000000000000000 ) ) ;
#183 = VERTEX_POINT ( 'NONE', #91 ) ;
#184 = CARTESIAN_POINT ( 'NONE',  ( 1.396592535537253342E-14, -5.105869244674781062E-16, 4.000000000000000000 ) ) ;
#185 =( NAMED_UNIT ( * ) SI_UNIT ( $, .STERADIAN. ) SOLID_ANGLE_UNIT ( ) );
#186 = AXIS2_PLACEMENT_3D ( 'NONE', #214, #279, #158 ) ;
#187 = VERTEX_POINT ( 'NONE', #143 ) ;
#188 = DIRECTION ( 'NONE',  ( 3.491481338843133355E-15, -1.224646799147353207E-16, 1.000000000000000000 ) ) ;
#189 = DIRECTION ( 'NONE',  ( 0.000000000000000000, 1.000000000000000000, 0.000000000000000000 ) ) ;
#190 = EDGE_CURVE ( 'NONE', #270, #218, #281, .T. ) ;
#191 = APPROVAL ( #28, 'UNSPECIFIED' ) ;
#192 = APPLICATION_PROTOCOL_DEFINITION ( 'international standard', 'config_control_design', 1994, #136 ) ;
#193 = ORIENTED_EDGE ( 'NONE', *, *, #233, .T. ) ;
#194 = AXIS2_PLACEMENT_3D ( 'NONE', #356, #96, #120 ) ;
#195 = ADVANCED_FACE ( 'NONE', ( #34 ), #138, .T. ) ;
#196 = CARTESIAN_POINT ( 'NONE',  ( 1.326762908760390423E-13, 1.199999999999996403, 38.00000000000000000 ) ) ;
#197 = EDGE_LOOP ( 'NONE', ( #256, #358, #291, #254 ) ) ;
#198 = AXIS2_PLACEMENT_3D ( 'NONE', #52, #353, #180 ) ;
#199 = APPROVAL_PERSON_ORGANIZATION ( #19, #116, #1 ) ;
#200 = EDGE_CURVE ( 'NONE', #345, #8, #301, .T. ) ;
#201 = SHAPE_DEFINITION_REPRESENTATION ( #245, #53 ) ;
#202 = ORIENTED_EDGE ( 'NONE', *, *, #172, .T. ) ;
#203 = CC_DESIGN_PERSON_AND_ORGANIZATION_ASSIGNMENT ( #302, #125, ( #107 ) ) ;
#204 = DIRECTION ( 'NONE',  ( -2.382254525458722992E-15, -0.7071067811865455743, -0.7071067811865493491 ) ) ;
#205 = VECTOR ( 'NONE', #285, 1000.000000000000000 ) ;
#206 = CARTESIAN_POINT ( 'NONE',  ( 1.326762908760390423E-13, -4.653657836759941941E-15, 38.00000000000000000 ) ) ;
#207 = DIRECTION ( 'NONE',  ( -3.491481338843133355E-15, 1.224646799147353207E-16, -1.000000000000000000 ) ) ;
#208 = CARTESIAN_POINT ( 'NONE',  ( 1.396592535537253342E-14, 1.124819836996388553E-32, 4.000000000000000000 ) ) ;
#209 = SECURITY_CLASSIFICATION_LEVEL ( 'unclassified' ) ;
#210 = APPROVAL_STATUS ( 'not_yet_approved' ) ;
#211 = CARTESIAN_POINT ( 'NONE',  ( 7.911785410657825390E-14, -5.750000000000002665, 22.66025403784433223 ) ) ;
#212 = MECHANICAL_CONTEXT ( 'NONE', #136, 'mechanical' ) ;
#213 = APPROVAL_PERSON_ORGANIZATION ( #286, #191, #134 ) ;
#214 = CARTESIAN_POINT ( 'NONE',  ( -2.365277071545212056E-30, 6.302462986968517098E-32, -6.774422779326445547E-16 ) ) ;
#215 = EDGE_LOOP ( 'NONE', ( #288, #77, #36, #219 ) ) ;
#216 = ORIENTED_EDGE ( 'NONE', *, *, #89, .T. ) ;
#217 = ADVANCED_FACE ( 'NONE', ( #94 ), #319, .T. ) ;
#218 = VERTEX_POINT ( 'NONE', #88 ) ;
#219 = ORIENTED_EDGE ( 'NONE', *, *, #174, .T. ) ;
#220 = DIRECTION ( 'NONE',  ( -3.552713678800500929E-14, -1.000000000000000000, 0.000000000000000000 ) ) ;
#221 = FACE_OUTER_BOUND ( 'NONE', #43, .T. ) ;
#222 =( NAMED_UNIT ( * ) PLANE_ANGLE_UNIT ( ) SI_UNIT ( $, .RADIAN. ) );
#223 = CARTESIAN_POINT ( 'NONE',  ( 1.316288464743861212E-13, -4.616918432785521081E-15, 37.69999999999999574 ) ) ;
#224 = CONICAL_SURFACE ( 'NONE', #5, 1.200000000000001066, 0.7853981633974457255 ) ;
#225 = AXIS2_PLACEMENT_3D ( 'NONE', #344, #147, #81 ) ;
#226 = CARTESIAN_POINT ( 'NONE',  ( 1.316288464743861212E-13, -4.616918432785521081E-15, 37.69999999999999574 ) ) ;
#227 = PERSON ( 'UNSPECIFIED', 'UNSPECIFIED', 'UNSPECIFIED', ('UNSPECIFIED'), ('UNSPECIFIED'), ('UNSPECIFIED') ) ;
#228 = VECTOR ( 'NONE', #93, 1000.000000000000114 ) ;
#229 = CC_DESIGN_APPROVAL ( #116, ( #363 ) ) ;
#230 = FACE_OUTER_BOUND ( 'NONE', #197, .T. ) ;
#231 = UNCERTAINTY_MEASURE_WITH_UNIT (LENGTH_MEASURE( 1.000000000000000082E-05 ), #339, 'distance_accuracy_value', 'NONE');
#232 = ORIENTED_EDGE ( 'NONE', *, *, #303, .F. ) ;
#233 = EDGE_CURVE ( 'NONE', #130, #345, #33, .T. ) ;
#234 = LOCAL_TIME ( 8, 31, 38.00000000000000000, #104 ) ;
#235 = CARTESIAN_POINT ( 'NONE',  ( 1.326762908760390423E-13, 1.199999999999996403, 38.00000000000000000 ) ) ;
#236 = PRODUCT_RELATED_PRODUCT_CATEGORY ( 'detail', '', ( #107 ) ) ;
#237 = LINE ( 'NONE', #211, #228 ) ;
#238 = VECTOR ( 'NONE', #297, 1000.000000000000000 ) ;
#239 = CARTESIAN_POINT ( 'NONE',  ( 2.373871466805336057E-14, -8.678749889286562170E-16, 6.799038105676641131 ) ) ;
#240 = EDGE_CURVE ( 'NONE', #273, #115, #78, .T. ) ;
#241 = PERSON_AND_ORGANIZATION_ROLE ( 'design_supplier' ) ;
#242 = EDGE_LOOP ( 'NONE', ( #350, #14 ) ) ;
#243 = DIRECTION ( 'NONE',  ( 1.000000000000000000, 0.000000000000000000, 0.000000000000000000 ) ) ;
#244 = DIRECTION ( 'NONE',  ( 3.491481338843133355E-15, -1.276467311168695266E-16, 1.000000000000000000 ) ) ;
#245 = PRODUCT_DEFINITION_SHAPE ( 'NONE', 'NONE',  #133 ) ;
#246 = CARTESIAN_POINT ( 'NONE',  ( 1.396592535537253342E-14, -5.105869244674781062E-16, 4.000000000000000000 ) ) ;
#247 = COORDINATED_UNIVERSAL_TIME_OFFSET ( 1, 0, .AHEAD. ) ;
#248 = CARTESIAN_POINT ( 'NONE',  ( 7.786747759109165269E-14, -1.500000000000005995, 37.69999999999999574 ) ) ;
#249 = EDGE_LOOP ( 'NONE', ( #348, #144, #82, #352 ) ) ;
#250 = ADVANCED_FACE ( 'NONE', ( #230 ), #129, .T. ) ;
#251 = APPROVAL_PERSON_ORGANIZATION ( #336, #327, #122 ) ;
#252 = PERSON_AND_ORGANIZATION_ROLE ( 'classification_officer' ) ;
#253 = ORIENTED_EDGE ( 'NONE', *, *, #354, .T. ) ;
#254 = ORIENTED_EDGE ( 'NONE', *, *, #95, .F. ) ;
#255 = CC_DESIGN_PERSON_AND_ORGANIZATION_ASSIGNMENT ( #272, #241, ( #80 ) ) ;
#256 = ORIENTED_EDGE ( 'NONE', *, *, #63, .T. ) ;
#257 = PERSON_AND_ORGANIZATION_ROLE ( 'creator' ) ;
#258 = EDGE_LOOP ( 'NONE', ( #59, #66, #253, #175 ) ) ;
#259 = AXIS2_PLACEMENT_3D ( 'NONE', #355, #145, #349 ) ;
#260 = LOCAL_TIME ( 8, 31, 38.00000000000000000, #247 ) ;
#261 = ADVANCED_FACE ( 'NONE', ( #271 ), #15, .T. ) ;
#262 = DATE_AND_TIME ( #263, #234 ) ;
#263 = CALENDAR_DATE ( 2023, 31, 3 ) ;
#264 = DIRECTION ( 'NONE',  ( 3.491481338843133355E-15, -1.224646799147353207E-16, 1.000000000000000000 ) ) ;
#265 = CC_DESIGN_DATE_AND_TIME_ASSIGNMENT ( #99, #334, ( #133 ) ) ;
#266 = CARTESIAN_POINT ( 'NONE',  ( 1.836970198721020813E-16, -1.499999999999997780, -1.836970198721033385E-16 ) ) ;
#267 = VECTOR ( 'NONE', #204, 1000.000000000000114 ) ;
#268 = LOCAL_TIME ( 8, 31, 38.00000000000000000, #169 ) ;
#269 = DIRECTION ( 'NONE',  ( 4.275831445896959482E-31, 1.000000000000000000, 1.224646799147353207E-16 ) ) ;
#270 = VERTEX_POINT ( 'NONE', #105 ) ;
#271 = FACE_OUTER_BOUND ( 'NONE', #258, .T. ) ;
#272 = PERSON_AND_ORGANIZATION ( #227, #62 ) ;
#273 = VERTEX_POINT ( 'NONE', #26 ) ;
#274 = AXIS2_PLACEMENT_3D ( 'NONE', #316, #50, #168 ) ;
#275 = LINE ( 'NONE', #111, #151 ) ;
#276 = DATE_TIME_ROLE ( 'classification_date' ) ;
#277 = EDGE_CURVE ( 'NONE', #8, #341, #141, .T. ) ;
#278 = COORDINATED_UNIVERSAL_TIME_OFFSET ( 1, 0, .AHEAD. ) ;
#279 = DIRECTION ( 'NONE',  ( 3.491481338843133355E-15, -1.276467311168695266E-16, 1.000000000000000000 ) ) ;
#280 = DIRECTION ( 'NONE',  ( -4.275831445896958607E-31, -1.000000000000000000, -1.224646799147353207E-16 ) ) ;
#281 = CIRCLE ( 'NONE', #259, 0.7499999999999997780 ) ;
#282 = AXIS2_PLACEMENT_3D ( 'NONE', #17, #119, #243 ) ;
#283 = DIRECTION ( 'NONE',  ( 3.491481338843133355E-15, -1.224646799147353207E-16, 1.000000000000000000 ) ) ;
#284 = DIRECTION ( 'NONE',  ( 3.491481338843133355E-15, -1.276467311168695266E-16, 1.000000000000000000 ) ) ;
#285 = DIRECTION ( 'NONE',  ( 3.491481338843133355E-15, -1.276467311168695266E-16, 1.000000000000000000 ) ) ;
#286 = PERSON_AND_ORGANIZATION ( #227, #62 ) ;
#287 = DIRECTION ( 'NONE',  ( 0.000000000000000000, 1.000000000000000000, 0.000000000000000000 ) ) ;
#288 = ORIENTED_EDGE ( 'NONE', *, *, #173, .F. ) ;
#289 = ADVANCED_FACE ( 'NONE', ( #163 ), #98, .T. ) ;
#290 = PLANE ( 'NONE',  #55 ) ;
#291 = ORIENTED_EDGE ( 'NONE', *, *, #338, .T. ) ;
#292 = AXIS2_PLACEMENT_3D ( 'NONE', #184, #177, #86 ) ;
#293 = ORIENTED_EDGE ( 'NONE', *, *, #108, .F. ) ;
#294 = DIRECTION ( 'NONE',  ( 0.000000000000000000, -1.000000000000000000, 0.000000000000000000 ) ) ;
#295 = CIRCLE ( 'NONE', #186, 0.7499999999999997780 ) ;
#296 = AXIS2_PLACEMENT_3D ( 'NONE', #359, #101, #220 ) ;
#297 = DIRECTION ( 'NONE',  ( 3.404208188709233130E-15, 0.2588190451025213501, 0.9659258262890680902 ) ) ;
#298 = EDGE_CURVE ( 'NONE', #341, #8, #40, .T. ) ;
#299 = DIRECTION ( 'NONE',  ( -4.456761796588771413E-31, -1.000000000000000000, -1.276467311168695266E-16 ) ) ;
#300 = ORIENTED_EDGE ( 'NONE', *, *, #240, .F. ) ;
#301 = LINE ( 'NONE', #114, #267 ) ;
#302 = PERSON_AND_ORGANIZATION ( #227, #62 ) ;
#303 = EDGE_CURVE ( 'NONE', #183, #51, #56, .T. ) ;
#304 = CALENDAR_DATE ( 2023, 31, 3 ) ;
#305 = LINE ( 'NONE', #266, #342 ) ;
#306 = CARTESIAN_POINT ( 'NONE',  ( 0.000000000000000000, 0.000000000000000000, 0.000000000000000000 ) ) ;
#307 = CARTESIAN_POINT ( 'NONE',  ( 1.396592535537253342E-14, 1.124819836996388553E-32, 4.000000000000000000 ) ) ;
#308 = PERSON_AND_ORGANIZATION_ROLE ( 'creator' ) ;
#309 = AXIS2_PLACEMENT_3D ( 'NONE', #206, #326, #67 ) ;
#310 = DIRECTION ( 'NONE',  ( -3.491481338843133355E-15, 1.224646799147353207E-16, -1.000000000000000000 ) ) ;
#311 = ADVANCED_FACE ( 'NONE', ( #176 ), #142, .F. ) ;
#312 = CARTESIAN_POINT ( 'NONE',  ( 1.323178959930974653E-13, -1.200000000000005507, 38.00000000000000000 ) ) ;
#313 = DIRECTION ( 'NONE',  ( 0.000000000000000000, 1.000000000000000000, 0.000000000000000000 ) ) ;
#314 = AXIS2_PLACEMENT_3D ( 'NONE', #29, #284, #4 ) ;
#315 = APPROVAL_DATE_TIME ( #137, #191 ) ;
#316 = CARTESIAN_POINT ( 'NONE',  ( -2.365277071545212056E-30, 6.302462986968517098E-32, -6.774422779326445547E-16 ) ) ;
#317 = CC_DESIGN_PERSON_AND_ORGANIZATION_ASSIGNMENT ( #155, #257, ( #133 ) ) ;
#318 = CALENDAR_DATE ( 2023, 31, 3 ) ;
#319 = CYLINDRICAL_SURFACE ( 'NONE', #87, 0.7499999999999997780 ) ;
#320 = EDGE_LOOP ( 'NONE', ( #102, #216, #300, #73 ) ) ;
#321 = VECTOR ( 'NONE', #328, 1000.000000000000000 ) ;
#322 = DIRECTION ( 'NONE',  ( -4.275831445896958607E-31, -1.000000000000000000, -1.224646799147353207E-16 ) ) ;
#323 = EDGE_LOOP ( 'NONE', ( #54, #132 ) ) ;
#324 = DIRECTION ( 'NONE',  ( -3.491481338843133355E-15, 1.224646799147353207E-16, -1.000000000000000000 ) ) ;
#325 = CARTESIAN_POINT ( 'NONE',  ( -4.275834835672753814E-31, 1.499760971635154123E-32, -1.224647770017727823E-16 ) ) ;
#326 = DIRECTION ( 'NONE',  ( -3.491481338843133355E-15, 1.224646799147353207E-16, -1.000000000000000000 ) ) ;
#327 = APPROVAL ( #210, 'UNSPECIFIED' ) ;
#328 = DIRECTION ( 'NONE',  ( -2.468850131082271655E-15, 0.7071067811865457964, -0.7071067811865492381 ) ) ;
#329 = MANIFOLD_SOLID_BREP ( 'Corps-Déplacer/Copier1[1]', #23 ) ;
#330 = CLOSED_SHELL ( 'NONE', ( #217, #2, #261, #164 ) ) ;
#331 = CC_DESIGN_APPROVAL ( #191, ( #80 ) ) ;
#332 = DIRECTION ( 'NONE',  ( 3.491481338843133355E-15, -1.276467311168695266E-16, 1.000000000000000000 ) ) ;
#333 = ORIENTED_EDGE ( 'NONE', *, *, #85, .F. ) ;
#334 = DATE_TIME_ROLE ( 'creation_date' ) ;
#335 = EDGE_LOOP ( 'NONE', ( #193, #343, #112, #293 ) ) ;
#336 = PERSON_AND_ORGANIZATION ( #227, #62 ) ;
#337 = CARTESIAN_POINT ( 'NONE',  ( 1.316288464743861212E-13, 1.499999999999996669, 37.69999999999999574 ) ) ;
#338 = EDGE_CURVE ( 'NONE', #181, #187, #103, .T. ) ;
#339 =( LENGTH_UNIT ( ) NAMED_UNIT ( * ) SI_UNIT ( .MILLI., .METRE. ) );
#340 = AXIS2_PLACEMENT_3D ( 'NONE', #208, #283, #123 ) ;
#341 = VERTEX_POINT ( 'NONE', #337 ) ;
#342 = VECTOR ( 'NONE', #324, 1000.000000000000000 ) ;
#343 = ORIENTED_EDGE ( 'NONE', *, *, #200, .T. ) ;
#344 = CARTESIAN_POINT ( 'NONE',  ( 7.911785410657825390E-14, -2.892507354208672546E-15, 22.66025403784433223 ) ) ;
#345 = VERTEX_POINT ( 'NONE', #312 ) ;
#346 = AXIS2_PLACEMENT_3D ( 'NONE', #306, #162, #27 ) ;
#347 = AXIS2_PLACEMENT_3D ( 'NONE', #223, #310, #313 ) ;
#348 = ORIENTED_EDGE ( 'NONE', *, *, #298, .T. ) ;
#349 = DIRECTION ( 'NONE',  ( 0.000000000000000000, -1.000000000000000000, 0.000000000000000000 ) ) ;
#350 = ORIENTED_EDGE ( 'NONE', *, *, #63, .F. ) ;
#351 = DIRECTION ( 'NONE',  ( 3.491481338843133355E-15, -1.276467311168695266E-16, 1.000000000000000000 ) ) ;
#352 = ORIENTED_EDGE ( 'NONE', *, *, #172, .F. ) ;
#353 = DIRECTION ( 'NONE',  ( -3.491481338843133355E-15, 1.224646799147353207E-16, -1.000000000000000000 ) ) ;
#354 = EDGE_CURVE ( 'NONE', #51, #273, #45, .T. ) ;
#355 = CARTESIAN_POINT ( 'NONE',  ( 1.396592535537253342E-14, -5.105869244674781062E-16, 4.000000000000000000 ) ) ;
#356 = CARTESIAN_POINT ( 'NONE',  ( 1.326762908760390423E-13, -4.653657836759941941E-15, 38.00000000000000000 ) ) ;
#357 = DIRECTION ( 'NONE',  ( 4.275831445896958607E-31, 1.000000000000000000, 1.224646799147353207E-16 ) ) ;
#358 = ORIENTED_EDGE ( 'NONE', *, *, #173, .T. ) ;
#359 = CARTESIAN_POINT ( 'NONE',  ( 2.373871466805336057E-14, -8.678749889286562170E-16, 6.799038105676641131 ) ) ;
#360 = FACE_OUTER_BOUND ( 'NONE', #157, .T. ) ;
#361 = CC_DESIGN_PERSON_AND_ORGANIZATION_ASSIGNMENT ( #71, #252, ( #363 ) ) ;
#362 = AXIS2_PLACEMENT_3D ( 'NONE', #239, #182, #294 ) ;
#363 = SECURITY_CLASSIFICATION ( '', '', #209 ) ;
ENDSEC;
END-ISO-10303-21;
