ISO-10303-21;
HEADER;
FILE_DESCRIPTION (( 'STEP AP203' ),
    '1' );
FILE_NAME ('372683.step',
    '2023-03-31T06:31:38',
    ( '' ),
    ( '' ),
    'SwSTEP 2.0',
    'SolidWorks 2022',
    '' );
FILE_SCHEMA (( 'CONFIG_CONTROL_DESIGN' ));
ENDSEC;

DATA;
#1 = EDGE_CURVE ( 'NONE', #265, #336, #193, .T. ) ;
#2 = ORIENTED_EDGE ( 'NONE', *, *, #91, .T. ) ;
#3 = ADVANCED_FACE ( 'NONE', ( #321 ), #112, .F. ) ;
#4 = DESIGN_CONTEXT ( 'detailed design', #287, 'design' ) ;
#5 = COORDINATED_UNIVERSAL_TIME_OFFSET ( 1, 0, .AHEAD. ) ;
#6 = AXIS2_PLACEMENT_3D ( 'NONE', #206, #104, #17 ) ;
#7 = VERTEX_POINT ( 'NONE', #210 ) ;
#8 = CARTESIAN_POINT ( 'NONE',  ( 1.047444401652940007E-13, 1.199999999999995515, 30.00000000000000000 ) ) ;
#9 = ADVANCED_FACE ( 'NONE', ( #107 ), #275, .T. ) ;
#10 = PLANE ( 'NONE',  #189 ) ;
#11 = ORIENTED_EDGE ( 'NONE', *, *, #91, .F. ) ;
#12 = DIRECTION ( 'NONE',  ( 3.491481338843133355E-15, -1.276467311168695266E-16, 1.000000000000000000 ) ) ;
#13 = DIRECTION ( 'NONE',  ( -3.491481338843133355E-15, 1.224646799147353207E-16, -1.000000000000000000 ) ) ;
#14 = CARTESIAN_POINT ( 'NONE',  ( 1.396592535537253342E-14, -0.7500000000000003331, 4.000000000000000000 ) ) ;
#15 = AXIS2_PLACEMENT_3D ( 'NONE', #176, #12, #288 ) ;
#16 = CALENDAR_DATE ( 2023, 31, 3 ) ;
#17 = DIRECTION ( 'NONE',  ( -4.456761796588768785E-31, -1.000000000000000000, -1.276467311168695266E-16 ) ) ;
#18 = CC_DESIGN_DATE_AND_TIME_ASSIGNMENT ( #222, #47, ( #84 ) ) ;
#19 = PERSON_AND_ORGANIZATION ( #242, #348 ) ;
#20 = DIRECTION ( 'NONE',  ( -4.275831445896958607E-31, -1.000000000000000000, -1.224646799147353207E-16 ) ) ;
#21 = APPROVAL_ROLE ( '' ) ;
#22 = AXIS2_PLACEMENT_3D ( 'NONE', #44, #207, #70 ) ;
#23 = EDGE_CURVE ( 'NONE', #305, #7, #121, .T. ) ;
#24 = APPROVAL_PERSON_ORGANIZATION ( #154, #224, #267 ) ;
#25 = EDGE_LOOP ( 'NONE', ( #132, #282 ) ) ;
#26 = CALENDAR_DATE ( 2023, 31, 3 ) ;
#27 = ORIENTED_EDGE ( 'NONE', *, *, #105, .F. ) ;
#28 = CARTESIAN_POINT ( 'NONE',  ( 1.396592535537253342E-14, 1.124819836996388553E-32, 4.000000000000000000 ) ) ;
#29 = CARTESIAN_POINT ( 'NONE',  ( 0.000000000000000000, 0.000000000000000000, 0.000000000000000000 ) ) ;
#30 = EDGE_LOOP ( 'NONE', ( #101, #318, #77, #309 ) ) ;
#31 = APPLICATION_CONTEXT ( 'configuration controlled 3d designs of mechanical parts and assemblies' ) ;
#32 = AXIS2_PLACEMENT_3D ( 'NONE', #168, #341, #347 ) ;
#33 = CIRCLE ( 'NONE', #136, 1.499999999999999334 ) ;
#34 = ORIENTED_EDGE ( 'NONE', *, *, #105, .T. ) ;
#35 = LINE ( 'NONE', #357, #108 ) ;
#36 = DIRECTION ( 'NONE',  ( 3.372511997194914833E-15, -0.2588190451025215166, 0.9659258262890679791 ) ) ;
#37 = ORIENTED_EDGE ( 'NONE', *, *, #197, .T. ) ;
#38 = DIRECTION ( 'NONE',  ( -4.456761796588771413E-31, -1.000000000000000000, -1.276467311168695266E-16 ) ) ;
#39 = CC_DESIGN_PERSON_AND_ORGANIZATION_ASSIGNMENT ( #76, #308, ( #363 ) ) ;
#40 = CARTESIAN_POINT ( 'NONE',  ( 1.396592535537253342E-14, -5.105869244674781062E-16, 4.000000000000000000 ) ) ;
#41 = CARTESIAN_POINT ( 'NONE',  ( 1.396592535537253342E-14, -0.7500000000000003331, 4.000000000000000000 ) ) ;
#42 = DIRECTION ( 'NONE',  ( -3.491481338843133355E-15, 1.224646799147353207E-16, -1.000000000000000000 ) ) ;
#43 = AXIS2_PLACEMENT_3D ( 'NONE', #29, #271, #52 ) ;
#44 = CARTESIAN_POINT ( 'NONE',  ( -6.413839710158237013E-31, 0.000000000000000000, -1.836996703606440502E-16 ) ) ;
#45 = PRODUCT ( '372683', '372683', '', ( #78 ) ) ;
#46 = ORIENTED_EDGE ( 'NONE', *, *, #177, .F. ) ;
#47 = DATE_TIME_ROLE ( 'creation_date' ) ;
#48 = CARTESIAN_POINT ( 'NONE',  ( 1.396592535537253342E-14, -5.105869244674781062E-16, 4.000000000000000000 ) ) ;
#49 = EDGE_CURVE ( 'NONE', #7, #305, #68, .T. ) ;
#50 = EDGE_LOOP ( 'NONE', ( #128, #343 ) ) ;
#51 = APPLICATION_PROTOCOL_DEFINITION ( 'international standard', 'config_control_design', 1994, #287 ) ;
#52 = DIRECTION ( 'NONE',  ( 1.000000000000000000, 0.000000000000000000, 0.000000000000000000 ) ) ;
#53 = DIRECTION ( 'NONE',  ( -2.468850131082271655E-15, 0.7071067811865457964, -0.7071067811865492381 ) ) ;
#54 = CARTESIAN_POINT ( 'NONE',  ( 1.396592535537253342E-14, -5.105869244674781062E-16, 4.000000000000000000 ) ) ;
#55 = VERTEX_POINT ( 'NONE', #124 ) ;
#56 = FACE_OUTER_BOUND ( 'NONE', #125, .T. ) ;
#57 = CC_DESIGN_PERSON_AND_ORGANIZATION_ASSIGNMENT ( #335, #246, ( #363 ) ) ;
#58 = ORIENTED_EDGE ( 'NONE', *, *, #264, .T. ) ;
#59 = EDGE_CURVE ( 'NONE', #184, #336, #217, .T. ) ;
#60 = CARTESIAN_POINT ( 'NONE',  ( 0.000000000000000000, 0.000000000000000000, 0.000000000000000000 ) ) ;
#61 = EDGE_LOOP ( 'NONE', ( #247, #58, #159, #46 ) ) ;
#62 = CARTESIAN_POINT ( 'NONE',  ( 1.899009277661701930E-14, 0.7499999999999992228, 4.000000000000000000 ) ) ;
#63 = AXIS2_PLACEMENT_3D ( 'NONE', #141, #93, #38 ) ;
#64 = FACE_OUTER_BOUND ( 'NONE', #73, .T. ) ;
#65 = LINE ( 'NONE', #208, #226 ) ;
#66 = DIRECTION ( 'NONE',  ( 3.491481338843133355E-15, -1.276467311168695266E-16, 1.000000000000000000 ) ) ;
#67 = DIRECTION ( 'NONE',  ( 3.491481338843133355E-15, -1.276467311168695266E-16, 1.000000000000000000 ) ) ;
#68 = CIRCLE ( 'NONE', #150, 1.499999999999996891 ) ;
#69 = VERTEX_POINT ( 'NONE', #72 ) ;
#70 = DIRECTION ( 'NONE',  ( -4.456761796588771413E-31, -1.000000000000000000, -1.276467311168695266E-16 ) ) ;
#71 = DIRECTION ( 'NONE',  ( -2.664535259100375697E-14, -1.000000000000000000, 0.000000000000000000 ) ) ;
#72 = CARTESIAN_POINT ( 'NONE',  ( -2.699534206289369605E-30, -0.7499999999999997780, -7.731773262702966626E-16 ) ) ;
#73 = EDGE_LOOP ( 'NONE', ( #11, #191 ) ) ;
#74 = CALENDAR_DATE ( 2023, 31, 3 ) ;
#75 = AXIS2_PLACEMENT_3D ( 'NONE', #40, #181, #320 ) ;
#76 = PERSON_AND_ORGANIZATION ( #242, #348 ) ;
#77 = ORIENTED_EDGE ( 'NONE', *, *, #177, .T. ) ;
#78 = MECHANICAL_CONTEXT ( 'NONE', #31, 'mechanical' ) ;
#79 = ADVANCED_FACE ( 'NONE', ( #277 ), #344, .F. ) ;
#80 = CIRCLE ( 'NONE', #290, 0.7499999999999997780 ) ;
#81 = LOCAL_TIME ( 8, 31, 38.00000000000000000, #209 ) ;
#82 = ORIENTED_EDGE ( 'NONE', *, *, #1, .F. ) ;
#83 = ORIENTED_EDGE ( 'NONE', *, *, #49, .F. ) ;
#84 = PRODUCT_DEFINITION ( 'UNKNOWN', '', #363, #4 ) ;
#85 = DIRECTION ( 'NONE',  ( 0.000000000000000000, -1.000000000000000000, 0.000000000000000000 ) ) ;
#86 = CARTESIAN_POINT ( 'NONE',  ( 1.047444401652940007E-13, 1.199999999999995515, 30.00000000000000000 ) ) ;
#87 = EDGE_CURVE ( 'NONE', #130, #265, #229, .T. ) ;
#88 = ORIENTED_EDGE ( 'NONE', *, *, #1, .T. ) ;
#89 = VECTOR ( 'NONE', #36, 1000.000000000000114 ) ;
#90 = DIRECTION ( 'NONE',  ( 0.000000000000000000, 1.000000000000000000, 0.000000000000000000 ) ) ;
#91 = EDGE_CURVE ( 'NONE', #130, #184, #212, .T. ) ;
#92 = DIRECTION ( 'NONE',  ( -4.275831445896958607E-31, -1.000000000000000000, -1.224646799147353207E-16 ) ) ;
#93 = DIRECTION ( 'NONE',  ( 3.491481338843133355E-15, -1.276467311168695266E-16, 1.000000000000000000 ) ) ;
#94 = ADVANCED_FACE ( 'NONE', ( #56 ), #259, .T. ) ;
#95 = DIRECTION ( 'NONE',  ( 0.000000000000000000, 1.000000000000000000, 0.000000000000000000 ) ) ;
#96 = AXIS2_PLACEMENT_3D ( 'NONE', #258, #66, #85 ) ;
#97 = COORDINATED_UNIVERSAL_TIME_OFFSET ( 1, 0, .AHEAD. ) ;
#98 = ORIENTED_EDGE ( 'NONE', *, *, #171, .F. ) ;
#99 = DATE_AND_TIME ( #359, #356 ) ;
#100 = DIRECTION ( 'NONE',  ( -3.491481338843133355E-15, 1.276467311168695266E-16, -1.000000000000000000 ) ) ;
#101 = ORIENTED_EDGE ( 'NONE', *, *, #264, .F. ) ;
#102 = APPROVAL_PERSON_ORGANIZATION ( #302, #328, #21 ) ;
#103 = CC_DESIGN_PERSON_AND_ORGANIZATION_ASSIGNMENT ( #19, #334, ( #291 ) ) ;
#104 = DIRECTION ( 'NONE',  ( 3.491481338843133355E-15, -1.276467311168695266E-16, 1.000000000000000000 ) ) ;
#105 = EDGE_CURVE ( 'NONE', #147, #7, #65, .T. ) ;
#106 = DIRECTION ( 'NONE',  ( -3.491481338843133355E-15, 1.224646799147353207E-16, -1.000000000000000000 ) ) ;
#107 = FACE_OUTER_BOUND ( 'NONE', #155, .T. ) ;
#108 = VECTOR ( 'NONE', #185, 1000.000000000000000 ) ;
#109 = CC_DESIGN_APPROVAL ( #224, ( #363 ) ) ;
#110 = DIRECTION ( 'NONE',  ( 4.275831445896958607E-31, 1.000000000000000000, 1.224646799147353207E-16 ) ) ;
#111 = LINE ( 'NONE', #261, #89 ) ;
#112 = PLANE ( 'NONE',  #149 ) ;
#113 = CARTESIAN_POINT ( 'NONE',  ( 1.036969957636410417E-13, 1.499999999999995781, 29.69999999999999574 ) ) ;
#114 = FACE_OUTER_BOUND ( 'NONE', #227, .T. ) ;
#115 = FACE_OUTER_BOUND ( 'NONE', #61, .T. ) ;
#116 = APPROVAL_DATE_TIME ( #239, #328 ) ;
#117 = CARTESIAN_POINT ( 'NONE',  ( 1.047444401652940007E-13, -3.673940397442059178E-15, 30.00000000000000000 ) ) ;
#118 = CARTESIAN_POINT ( 'NONE',  ( -9.756411057599815134E-31, -0.7499999999999997780, -2.794347186982961582E-16 ) ) ;
#119 = CARTESIAN_POINT ( 'NONE',  ( 1.043860452823524111E-13, -1.200000000000002842, 30.00000000000000000 ) ) ;
#120 = DIRECTION ( 'NONE',  ( 0.000000000000000000, 1.000000000000000000, 0.000000000000000000 ) ) ;
#121 = CIRCLE ( 'NONE', #249, 1.499999999999996891 ) ;
#122 = CARTESIAN_POINT ( 'NONE',  ( 1.036969957636410417E-13, -3.637200993467639107E-15, 29.69999999999999574 ) ) ;
#123 = CC_DESIGN_SECURITY_CLASSIFICATION ( #291, ( #363 ) ) ;
#124 = CARTESIAN_POINT ( 'NONE',  ( 7.074811187622318072E-15, 0.7499999999999997780, -5.817072295950171973E-16 ) ) ;
#125 = EDGE_LOOP ( 'NONE', ( #88, #274, #83, #315 ) ) ;
#126 = SHAPE_DEFINITION_REPRESENTATION ( #284, #331 ) ;
#127 = DIRECTION ( 'NONE',  ( -2.382254525458722992E-15, -0.7071067811865455743, -0.7071067811865493491 ) ) ;
#128 = ORIENTED_EDGE ( 'NONE', *, *, #307, .F. ) ;
#129 = EDGE_CURVE ( 'NONE', #254, #340, #195, .T. ) ;
#130 = VERTEX_POINT ( 'NONE', #8 ) ;
#131 = CLOSED_SHELL ( 'NONE', ( #230, #179, #279, #3 ) ) ;
#132 = ORIENTED_EDGE ( 'NONE', *, *, #197, .F. ) ;
#133 = CIRCLE ( 'NONE', #234, 0.7499999999999997780 ) ;
#134 = DIRECTION ( 'NONE',  ( 4.275831445896958607E-31, 1.000000000000000000, 1.224646799147353454E-16 ) ) ;
#135 = AXIS2_PLACEMENT_3D ( 'NONE', #255, #231, #120 ) ;
#136 = AXIS2_PLACEMENT_3D ( 'NONE', #122, #358, #152 ) ;
#137 = CC_DESIGN_APPROVAL ( #252, ( #84 ) ) ;
#138 = PERSON_AND_ORGANIZATION_ROLE ( 'creator' ) ;
#139 = CARTESIAN_POINT ( 'NONE',  ( 1.047444401652940007E-13, -3.673940397442059178E-15, 30.00000000000000000 ) ) ;
#140 = CARTESIAN_POINT ( 'NONE',  ( 0.000000000000000000, 0.000000000000000000, 0.000000000000000000 ) ) ;
#141 = CARTESIAN_POINT ( 'NONE',  ( -6.413839710158237013E-31, 0.000000000000000000, -1.836996703606440502E-16 ) ) ;
#142 =( NAMED_UNIT ( * ) SI_UNIT ( $, .STERADIAN. ) SOLID_ANGLE_UNIT ( ) );
#143 = DIRECTION ( 'NONE',  ( 3.404208188709233130E-15, 0.2588190451025213501, 0.9659258262890680902 ) ) ;
#144 = CARTESIAN_POINT ( 'NONE',  ( -4.275765177426567402E-31, 1.499736538811390194E-32, -1.224627819103079735E-16 ) ) ;
#145 = DIRECTION ( 'NONE',  ( 3.491481338843133355E-15, -1.276467311168695266E-16, 1.000000000000000000 ) ) ;
#146 = PLANE ( 'NONE',  #362 ) ;
#147 = VERTEX_POINT ( 'NONE', #62 ) ;
#148 = EDGE_LOOP ( 'NONE', ( #27, #215, #303, #153 ) ) ;
#149 = AXIS2_PLACEMENT_3D ( 'NONE', #144, #232, #92 ) ;
#150 = AXIS2_PLACEMENT_3D ( 'NONE', #332, #192, #71 ) ;
#151 = VECTOR ( 'NONE', #145, 1000.000000000000000 ) ;
#152 = DIRECTION ( 'NONE',  ( 0.000000000000000000, 1.000000000000000000, 0.000000000000000000 ) ) ;
#153 = ORIENTED_EDGE ( 'NONE', *, *, #23, .T. ) ;
#154 = PERSON_AND_ORGANIZATION ( #242, #348 ) ;
#155 = EDGE_LOOP ( 'NONE', ( #187, #301, #273, #345 ) ) ;
#156 = DIRECTION ( 'NONE',  ( 0.000000000000000000, -1.000000000000000000, 0.000000000000000000 ) ) ;
#157 = APPROVAL_DATE_TIME ( #306, #252 ) ;
#158 = CC_DESIGN_PERSON_AND_ORGANIZATION_ASSIGNMENT ( #175, #138, ( #84 ) ) ;
#159 = ORIENTED_EDGE ( 'NONE', *, *, #129, .F. ) ;
#160 = ORIENTED_EDGE ( 'NONE', *, *, #49, .T. ) ;
#161 = ADVANCED_FACE ( 'NONE', ( #114 ), #174, .T. ) ;
#162 = AXIS2_PLACEMENT_3D ( 'NONE', #60, #13, #134 ) ;
#163 = PERSON_AND_ORGANIZATION ( #242, #348 ) ;
#164 = EDGE_LOOP ( 'NONE', ( #333, #203 ) ) ;
#165 = EDGE_CURVE ( 'NONE', #55, #69, #339, .T. ) ;
#166 = APPROVAL_ROLE ( '' ) ;
#167 = CARTESIAN_POINT ( 'NONE',  ( 6.390155223571919500E-14, -1.500000000000003109, 29.69999999999999574 ) ) ;
#168 = CARTESIAN_POINT ( 'NONE',  ( 1.396592535537253342E-14, 1.124819836996388553E-32, 4.000000000000000000 ) ) ;
#169 = VECTOR ( 'NONE', #178, 1000.000000000000000 ) ;
#170 = CIRCLE ( 'NONE', #304, 0.7499999999999997780 ) ;
#171 = EDGE_CURVE ( 'NONE', #268, #305, #111, .T. ) ;
#172 = ORIENTED_EDGE ( 'NONE', *, *, #59, .T. ) ;
#173 = CARTESIAN_POINT ( 'NONE',  ( 1.036969957636410417E-13, -3.637200993467639107E-15, 29.69999999999999574 ) ) ;
#174 = CYLINDRICAL_SURFACE ( 'NONE', #323, 1.499999999999996891 ) ;
#175 = PERSON_AND_ORGANIZATION ( #242, #348 ) ;
#176 = CARTESIAN_POINT ( 'NONE',  ( 7.911785410657825390E-14, -2.892507354208672546E-15, 22.66025403784433223 ) ) ;
#177 = EDGE_CURVE ( 'NONE', #69, #254, #180, .T. ) ;
#178 = DIRECTION ( 'NONE',  ( -3.491481338843133355E-15, 1.224646799147353207E-16, -1.000000000000000000 ) ) ;
#179 = ADVANCED_FACE ( 'NONE', ( #270 ), #146, .T. ) ;
#180 = LINE ( 'NONE', #118, #283 ) ;
#181 = DIRECTION ( 'NONE',  ( 3.491481338843133355E-15, -1.276467311168695266E-16, 1.000000000000000000 ) ) ;
#182 = DIRECTION ( 'NONE',  ( -3.491481338843133355E-15, 1.224646799147353207E-16, -1.000000000000000000 ) ) ;
#183 = COORDINATED_UNIVERSAL_TIME_OFFSET ( 1, 0, .AHEAD. ) ;
#184 = VERTEX_POINT ( 'NONE', #119 ) ;
#185 = DIRECTION ( 'NONE',  ( -3.491481338843133355E-15, 1.224646799147353207E-16, -1.000000000000000000 ) ) ;
#186 = EDGE_CURVE ( 'NONE', #340, #254, #170, .T. ) ;
#187 = ORIENTED_EDGE ( 'NONE', *, *, #59, .F. ) ;
#188 = VECTOR ( 'NONE', #127, 1000.000000000000114 ) ;
#189 = AXIS2_PLACEMENT_3D ( 'NONE', #263, #42, #110 ) ;
#190 = DATE_TIME_ROLE ( 'classification_date' ) ;
#191 = ORIENTED_EDGE ( 'NONE', *, *, #236, .F. ) ;
#192 = DIRECTION ( 'NONE',  ( -3.491481338843133355E-15, 1.276467311168695266E-16, -1.000000000000000000 ) ) ;
#193 = CIRCLE ( 'NONE', #225, 1.499999999999999334 ) ;
#194 = MANIFOLD_SOLID_BREP ( 'Corps-Déplacer/Copier1[1]', #289 ) ;
#195 = CIRCLE ( 'NONE', #75, 0.7499999999999997780 ) ;
#196 = LOCAL_TIME ( 8, 31, 38.00000000000000000, #97 ) ;
#197 = EDGE_CURVE ( 'NONE', #268, #147, #80, .T. ) ;
#198 =( LENGTH_UNIT ( ) NAMED_UNIT ( * ) SI_UNIT ( .MILLI., .METRE. ) );
#199 = DIRECTION ( 'NONE',  ( -3.491481338843133355E-15, 1.224646799147353207E-16, -1.000000000000000000 ) ) ;
#200 = AXIS2_PLACEMENT_3D ( 'NONE', #117, #238, #95 ) ;
#201 = SECURITY_CLASSIFICATION_LEVEL ( 'unclassified' ) ;
#202 = LOCAL_TIME ( 8, 31, 38.00000000000000000, #5 ) ;
#203 = ORIENTED_EDGE ( 'NONE', *, *, #186, .T. ) ;
#204 = DIRECTION ( 'NONE',  ( 3.491481338843133355E-15, -1.276467311168695266E-16, 1.000000000000000000 ) ) ;
#205 = EDGE_CURVE ( 'NONE', #336, #265, #33, .T. ) ;
#206 = CARTESIAN_POINT ( 'NONE',  ( -2.365277071545212056E-30, 6.302462986968517098E-32, -6.774422779326445547E-16 ) ) ;
#207 = DIRECTION ( 'NONE',  ( 3.491481338843133355E-15, -1.276467311168695266E-16, 1.000000000000000000 ) ) ;
#208 = CARTESIAN_POINT ( 'NONE',  ( 7.982202601608798732E-14, 5.749999999999997335, 22.66025403784433223 ) ) ;
#209 = COORDINATED_UNIVERSAL_TIME_OFFSET ( 1, 0, .AHEAD. ) ;
#210 = CARTESIAN_POINT ( 'NONE',  ( 6.371785521584724374E-14, 1.499999999999996225, 6.799038105676637578 ) ) ;
#211 = DATE_AND_TIME ( #16, #81 ) ;
#212 = CIRCLE ( 'NONE', #352, 1.199999999999999289 ) ;
#213 = DIRECTION ( 'NONE',  ( 0.000000000000000000, -1.000000000000000000, 0.000000000000000000 ) ) ;
#214 = CARTESIAN_POINT ( 'NONE',  ( 2.373871466805334795E-14, -8.678749889286558226E-16, 6.799038105676637578 ) ) ;
#215 = ORIENTED_EDGE ( 'NONE', *, *, #312, .T. ) ;
#216 = EDGE_CURVE ( 'NONE', #265, #7, #35, .T. ) ;
#217 = LINE ( 'NONE', #243, #188 ) ;
#218 = CALENDAR_DATE ( 2023, 31, 3 ) ;
#219 = ORIENTED_EDGE ( 'NONE', *, *, #296, .F. ) ;
#220 = CARTESIAN_POINT ( 'NONE',  ( 1.396592535537253342E-14, -5.105869244674781062E-16, 4.000000000000000000 ) ) ;
#221 = PERSON_AND_ORGANIZATION ( #242, #348 ) ;
#222 = DATE_AND_TIME ( #218, #269 ) ;
#223 = CIRCLE ( 'NONE', #6, 0.7499999999999997780 ) ;
#224 = APPROVAL ( #300, 'UNSPECIFIED' ) ;
#225 = AXIS2_PLACEMENT_3D ( 'NONE', #173, #233, #237 ) ;
#226 = VECTOR ( 'NONE', #143, 1000.000000000000000 ) ;
#227 = EDGE_LOOP ( 'NONE', ( #219, #245, #253, #317 ) ) ;
#228 = CYLINDRICAL_SURFACE ( 'NONE', #63, 0.7499999999999997780 ) ;
#229 = LINE ( 'NONE', #86, #326 ) ;
#230 = ADVANCED_FACE ( 'NONE', ( #115 ), #298, .T. ) ;
#231 = DIRECTION ( 'NONE',  ( -3.491481338843133355E-15, 1.224646799147353207E-16, -1.000000000000000000 ) ) ;
#232 = DIRECTION ( 'NONE',  ( 3.491481338843133355E-15, -1.224646799147353207E-16, 1.000000000000000000 ) ) ;
#233 = DIRECTION ( 'NONE',  ( -3.491481338843133355E-15, 1.224646799147353207E-16, -1.000000000000000000 ) ) ;
#234 = AXIS2_PLACEMENT_3D ( 'NONE', #54, #67, #346 ) ;
#235 = LINE ( 'NONE', #351, #151 ) ;
#236 = EDGE_CURVE ( 'NONE', #184, #130, #256, .T. ) ;
#237 = DIRECTION ( 'NONE',  ( 0.000000000000000000, 1.000000000000000000, 0.000000000000000000 ) ) ;
#238 = DIRECTION ( 'NONE',  ( -3.491481338843133355E-15, 1.224646799147353207E-16, -1.000000000000000000 ) ) ;
#239 = DATE_AND_TIME ( #74, #196 ) ;
#240 = DIRECTION ( 'NONE',  ( 3.491481338843133355E-15, -1.276467311168695266E-16, 1.000000000000000000 ) ) ;
#241 = ADVANCED_FACE ( 'NONE', ( #330 ), #342, .T. ) ;
#242 = PERSON ( 'UNSPECIFIED', 'UNSPECIFIED', 'UNSPECIFIED', ('UNSPECIFIED'), ('UNSPECIFIED'), ('UNSPECIFIED') ) ;
#243 = CARTESIAN_POINT ( 'NONE',  ( 1.048913977811916904E-13, -1.200000000000002842, 30.00000000000000000 ) ) ;
#244 = CC_DESIGN_DATE_AND_TIME_ASSIGNMENT ( #211, #190, ( #291 ) ) ;
#245 = ORIENTED_EDGE ( 'NONE', *, *, #205, .T. ) ;
#246 = PERSON_AND_ORGANIZATION_ROLE ( 'creator' ) ;
#247 = ORIENTED_EDGE ( 'NONE', *, *, #307, .T. ) ;
#248 = DIRECTION ( 'NONE',  ( 0.000000000000000000, -1.000000000000000000, 0.000000000000000000 ) ) ;
#249 = AXIS2_PLACEMENT_3D ( 'NONE', #214, #100, #248 ) ;
#250 = ORIENTED_EDGE ( 'NONE', *, *, #87, .F. ) ;
#251 = AXIS2_PLACEMENT_3D ( 'NONE', #294, #204, #286 ) ;
#252 = APPROVAL ( #276, 'UNSPECIFIED' ) ;
#253 = ORIENTED_EDGE ( 'NONE', *, *, #216, .T. ) ;
#254 = VERTEX_POINT ( 'NONE', #14 ) ;
#255 = CARTESIAN_POINT ( 'NONE',  ( 1.047444401652940007E-13, -3.673940397442059178E-15, 30.00000000000000000 ) ) ;
#256 = CIRCLE ( 'NONE', #200, 1.199999999999999289 ) ;
#257 = CC_DESIGN_APPROVAL ( #328, ( #291 ) ) ;
#258 = CARTESIAN_POINT ( 'NONE',  ( 7.911785410657825390E-14, -2.892507354208672546E-15, 22.66025403784433223 ) ) ;
#259 = CYLINDRICAL_SURFACE ( 'NONE', #162, 1.499999999999996891 ) ;
#260 = APPLICATION_PROTOCOL_DEFINITION ( 'international standard', 'config_control_design', 1994, #31 ) ;
#261 = CARTESIAN_POINT ( 'NONE',  ( 7.911785410657825390E-14, -5.750000000000002665, 22.66025403784433223 ) ) ;
#262 = CONICAL_SURFACE ( 'NONE', #327, 1.199999999999999289, 0.7853981633974457255 ) ;
#263 = CARTESIAN_POINT ( 'NONE',  ( 1.047444401652940007E-13, 8.998558695971084067E-33, 30.00000000000000000 ) ) ;
#264 = EDGE_CURVE ( 'NONE', #55, #340, #235, .T. ) ;
#265 = VERTEX_POINT ( 'NONE', #113 ) ;
#266 = DIRECTION ( 'NONE',  ( 3.491481338843133355E-15, -1.276467311168695266E-16, 1.000000000000000000 ) ) ;
#267 = APPROVAL_ROLE ( '' ) ;
#268 = VERTEX_POINT ( 'NONE', #41 ) ;
#269 = LOCAL_TIME ( 8, 31, 38.00000000000000000, #183 ) ;
#270 = FACE_OUTER_BOUND ( 'NONE', #164, .T. ) ;
#271 = DIRECTION ( 'NONE',  ( 0.000000000000000000, 0.000000000000000000, 1.000000000000000000 ) ) ;
#272 = APPROVAL_DATE_TIME ( #99, #224 ) ;
#273 = ORIENTED_EDGE ( 'NONE', *, *, #87, .T. ) ;
#274 = ORIENTED_EDGE ( 'NONE', *, *, #296, .T. ) ;
#275 = CONICAL_SURFACE ( 'NONE', #135, 1.199999999999999289, 0.7853981633974457255 ) ;
#276 = APPROVAL_STATUS ( 'not_yet_approved' ) ;
#277 = FACE_OUTER_BOUND ( 'NONE', #25, .T. ) ;
#278 = UNCERTAINTY_MEASURE_WITH_UNIT (LENGTH_MEASURE( 1.000000000000000082E-05 ), #198, 'distance_accuracy_value', 'NONE');
#279 = ADVANCED_FACE ( 'NONE', ( #354 ), #228, .T. ) ;
#280 = FACE_OUTER_BOUND ( 'NONE', #329, .T. ) ;
#281 = CARTESIAN_POINT ( 'NONE',  ( 1.047444401652940007E-13, -3.673940397442059178E-15, 30.00000000000000000 ) ) ;
#282 = ORIENTED_EDGE ( 'NONE', *, *, #312, .F. ) ;
#283 = VECTOR ( 'NONE', #266, 1000.000000000000000 ) ;
#284 = PRODUCT_DEFINITION_SHAPE ( 'NONE', 'NONE',  #84 ) ;
#285 = CC_DESIGN_PERSON_AND_ORGANIZATION_ASSIGNMENT ( #221, #310, ( #45 ) ) ;
#286 = DIRECTION ( 'NONE',  ( -4.456761796588768785E-31, -1.000000000000000000, -1.276467311168695266E-16 ) ) ;
#287 = APPLICATION_CONTEXT ( 'configuration controlled 3d designs of mechanical parts and assemblies' ) ;
#288 = DIRECTION ( 'NONE',  ( 0.000000000000000000, -1.000000000000000000, 0.000000000000000000 ) ) ;
#289 = CLOSED_SHELL ( 'NONE', ( #353, #337, #94, #161, #9, #293, #241, #79 ) ) ;
#290 = AXIS2_PLACEMENT_3D ( 'NONE', #48, #299, #156 ) ;
#291 = SECURITY_CLASSIFICATION ( '', '', #201 ) ;
#292 = CARTESIAN_POINT ( 'NONE',  ( 6.390155223571929598E-14, -1.499999999999997780, 6.799038105676637578 ) ) ;
#293 = ADVANCED_FACE ( 'NONE', ( #64 ), #10, .F. ) ;
#294 = CARTESIAN_POINT ( 'NONE',  ( -2.365277071545212056E-30, 6.302462986968517098E-32, -6.774422779326445547E-16 ) ) ;
#295 = CONICAL_SURFACE ( 'NONE', #96, 5.750000000000000000, 0.2617993877991501850 ) ;
#296 = EDGE_CURVE ( 'NONE', #336, #305, #350, .T. ) ;
#297 = APPROVAL_STATUS ( 'not_yet_approved' ) ;
#298 = CYLINDRICAL_SURFACE ( 'NONE', #22, 0.7499999999999997780 ) ;
#299 = DIRECTION ( 'NONE',  ( 3.491481338843133355E-15, -1.276467311168695266E-16, 1.000000000000000000 ) ) ;
#300 = APPROVAL_STATUS ( 'not_yet_approved' ) ;
#301 = ORIENTED_EDGE ( 'NONE', *, *, #236, .T. ) ;
#302 = PERSON_AND_ORGANIZATION ( #242, #348 ) ;
#303 = ORIENTED_EDGE ( 'NONE', *, *, #171, .T. ) ;
#304 = AXIS2_PLACEMENT_3D ( 'NONE', #220, #240, #213 ) ;
#305 = VERTEX_POINT ( 'NONE', #292 ) ;
#306 = DATE_AND_TIME ( #26, #202 ) ;
#307 = EDGE_CURVE ( 'NONE', #69, #55, #223, .T. ) ;
#308 = PERSON_AND_ORGANIZATION_ROLE ( 'design_supplier' ) ;
#309 = ORIENTED_EDGE ( 'NONE', *, *, #186, .F. ) ;
#310 = PERSON_AND_ORGANIZATION_ROLE ( 'design_owner' ) ;
#311 = APPROVAL_PERSON_ORGANIZATION ( #163, #252, #166 ) ;
#312 = EDGE_CURVE ( 'NONE', #147, #268, #133, .T. ) ;
#313 = CARTESIAN_POINT ( 'NONE',  ( 1.836970198721019827E-16, -1.499999999999996891, -1.836970198721032399E-16 ) ) ;
#314 = DIRECTION ( 'NONE',  ( 0.000000000000000000, 1.000000000000000000, 0.000000000000000000 ) ) ;
#315 = ORIENTED_EDGE ( 'NONE', *, *, #216, .F. ) ;
#316 = PRODUCT_RELATED_PRODUCT_CATEGORY ( 'detail', '', ( #45 ) ) ;
#317 = ORIENTED_EDGE ( 'NONE', *, *, #23, .F. ) ;
#318 = ORIENTED_EDGE ( 'NONE', *, *, #165, .T. ) ;
#319 = MANIFOLD_SOLID_BREP ( 'Corps-Déplacer/Copier1[2]', #131 ) ;
#320 = DIRECTION ( 'NONE',  ( 0.000000000000000000, -1.000000000000000000, 0.000000000000000000 ) ) ;
#321 = FACE_OUTER_BOUND ( 'NONE', #50, .T. ) ;
#322 = FACE_OUTER_BOUND ( 'NONE', #360, .T. ) ;
#323 = AXIS2_PLACEMENT_3D ( 'NONE', #140, #106, #349 ) ;
#324 = CARTESIAN_POINT ( 'NONE',  ( 7.074811187622316494E-15, 0.7499999999999992228, 4.000000000000000000 ) ) ;
#325 =( NAMED_UNIT ( * ) PLANE_ANGLE_UNIT ( ) SI_UNIT ( $, .RADIAN. ) );
#326 = VECTOR ( 'NONE', #53, 1000.000000000000000 ) ;
#327 = AXIS2_PLACEMENT_3D ( 'NONE', #139, #182, #90 ) ;
#328 = APPROVAL ( #297, 'UNSPECIFIED' ) ;
#329 = EDGE_LOOP ( 'NONE', ( #37, #34, #160, #98 ) ) ;
#330 = FACE_OUTER_BOUND ( 'NONE', #148, .T. ) ;
#331 = ADVANCED_BREP_SHAPE_REPRESENTATION ( '372683', ( #194, #319, #43 ), #355 ) ;
#332 = CARTESIAN_POINT ( 'NONE',  ( 2.373871466805334795E-14, -8.678749889286558226E-16, 6.799038105676637578 ) ) ;
#333 = ORIENTED_EDGE ( 'NONE', *, *, #129, .T. ) ;
#334 = PERSON_AND_ORGANIZATION_ROLE ( 'classification_officer' ) ;
#335 = PERSON_AND_ORGANIZATION ( #242, #348 ) ;
#336 = VERTEX_POINT ( 'NONE', #167 ) ;
#337 = ADVANCED_FACE ( 'NONE', ( #322 ), #262, .T. ) ;
#338 = COORDINATED_UNIVERSAL_TIME_OFFSET ( 1, 0, .AHEAD. ) ;
#339 = CIRCLE ( 'NONE', #251, 0.7499999999999997780 ) ;
#340 = VERTEX_POINT ( 'NONE', #324 ) ;
#341 = DIRECTION ( 'NONE',  ( 3.491481338843133355E-15, -1.224646799147353207E-16, 1.000000000000000000 ) ) ;
#342 = CONICAL_SURFACE ( 'NONE', #15, 5.750000000000000000, 0.2617993877991501850 ) ;
#343 = ORIENTED_EDGE ( 'NONE', *, *, #165, .F. ) ;
#344 = PLANE ( 'NONE',  #32 ) ;
#345 = ORIENTED_EDGE ( 'NONE', *, *, #205, .F. ) ;
#346 = DIRECTION ( 'NONE',  ( 0.000000000000000000, -1.000000000000000000, 0.000000000000000000 ) ) ;
#347 = DIRECTION ( 'NONE',  ( -4.275831445896958607E-31, -1.000000000000000000, -1.224646799147353207E-16 ) ) ;
#348 = ORGANIZATION ( 'UNSPECIFIED', 'UNSPECIFIED', '' ) ;
#349 = DIRECTION ( 'NONE',  ( 4.275831445896958607E-31, 1.000000000000000000, 1.224646799147353454E-16 ) ) ;
#350 = LINE ( 'NONE', #313, #169 ) ;
#351 = CARTESIAN_POINT ( 'NONE',  ( 9.184850993605115157E-17, 0.7499999999999997780, -8.796462202299225046E-17 ) ) ;
#352 = AXIS2_PLACEMENT_3D ( 'NONE', #281, #199, #314 ) ;
#353 = ADVANCED_FACE ( 'NONE', ( #280 ), #295, .T. ) ;
#354 = FACE_OUTER_BOUND ( 'NONE', #30, .T. ) ;
#355 =( GEOMETRIC_REPRESENTATION_CONTEXT ( 3 ) GLOBAL_UNCERTAINTY_ASSIGNED_CONTEXT ( ( #278 ) ) GLOBAL_UNIT_ASSIGNED_CONTEXT ( ( #198, #325, #142 ) ) REPRESENTATION_CONTEXT ( 'NONE', 'WORKASPACE' ) );
#356 = LOCAL_TIME ( 8, 31, 38.00000000000000000, #338 ) ;
#357 = CARTESIAN_POINT ( 'NONE',  ( 6.413747168845424773E-31, 1.499999999999996891, 1.836970198721026236E-16 ) ) ;
#358 = DIRECTION ( 'NONE',  ( -3.491481338843133355E-15, 1.224646799147353207E-16, -1.000000000000000000 ) ) ;
#359 = CALENDAR_DATE ( 2023, 31, 3 ) ;
#360 = EDGE_LOOP ( 'NONE', ( #2, #172, #82, #250 ) ) ;
#361 = DIRECTION ( 'NONE',  ( 3.491481338843133355E-15, -1.224646799147353207E-16, 1.000000000000000000 ) ) ;
#362 = AXIS2_PLACEMENT_3D ( 'NONE', #28, #361, #20 ) ;
#363 = PRODUCT_DEFINITION_FORMATION_WITH_SPECIFIED_SOURCE ( 'ANY', '', #45, .NOT_KNOWN. ) ;
ENDSEC;
END-ISO-10303-21;
