ISO-10303-21;
HEADER;
FILE_DESCRIPTION (( 'STEP AP203' ),
    '1' );
FILE_NAME ('372682.step',
    '2023-03-31T06:31:37',
    ( '' ),
    ( '' ),
    'SwSTEP 2.0',
    'SolidWorks 2022',
    '' );
FILE_SCHEMA (( 'CONFIG_CONTROL_DESIGN' ));
ENDSEC;

DATA;
#1 = PERSON_AND_ORGANIZATION ( #337, #11 ) ;
#2 = ORIENTED_EDGE ( 'NONE', *, *, #303, .F. ) ;
#3 = ADVANCED_FACE ( 'NONE', ( #278 ), #207, .T. ) ;
#4 = ORIENTED_EDGE ( 'NONE', *, *, #122, .F. ) ;
#5 = DATE_TIME_ROLE ( 'classification_date' ) ;
#6 = AXIS2_PLACEMENT_3D ( 'NONE', #22, #169, #80 ) ;
#7 = FACE_OUTER_BOUND ( 'NONE', #271, .T. ) ;
#8 = DIRECTION ( 'NONE',  ( 1.000000000000000000, 0.000000000000000000, 0.000000000000000000 ) ) ;
#9 = DIRECTION ( 'NONE',  ( -2.468850131082271655E-15, 0.7071067811865457964, -0.7071067811865492381 ) ) ;
#10 = ORIENTED_EDGE ( 'NONE', *, *, #211, .T. ) ;
#11 = ORGANIZATION ( 'UNSPECIFIED', 'UNSPECIFIED', '' ) ;
#12 = EDGE_LOOP ( 'NONE', ( #126, #267 ) ) ;
#13 = ORIENTED_EDGE ( 'NONE', *, *, #161, .T. ) ;
#14 = ORIENTED_EDGE ( 'NONE', *, *, #64, .T. ) ;
#15 = CIRCLE ( 'NONE', #318, 0.4999999999999989453 ) ;
#16 = VECTOR ( 'NONE', #137, 1000.000000000000114 ) ;
#17 = DESIGN_CONTEXT ( 'detailed design', #197, 'design' ) ;
#18 = PRODUCT_DEFINITION ( 'UNKNOWN', '', #342, #17 ) ;
#19 = ORIENTED_EDGE ( 'NONE', *, *, #303, .T. ) ;
#20 = DIRECTION ( 'NONE',  ( -3.552713678800500929E-14, -1.000000000000000000, 0.000000000000000000 ) ) ;
#21 = ADVANCED_BREP_SHAPE_REPRESENTATION ( '372682', ( #29, #147, #102 ), #239 ) ;
#22 = CARTESIAN_POINT ( 'NONE',  ( 1.316288464743861212E-13, -4.616918432785521081E-15, 37.69999999999999574 ) ) ;
#23 = VECTOR ( 'NONE', #9, 1000.000000000000000 ) ;
#24 = DIRECTION ( 'NONE',  ( 0.000000000000000000, -1.000000000000000000, 0.000000000000000000 ) ) ;
#25 = ADVANCED_FACE ( 'NONE', ( #258 ), #285, .T. ) ;
#26 = DIRECTION ( 'NONE',  ( -4.456761796588769661E-31, -1.000000000000000000, -1.276467311168695512E-16 ) ) ;
#27 = CARTESIAN_POINT ( 'NONE',  ( 1.326762908760390423E-13, 8.998558695971084067E-33, 38.00000000000000000 ) ) ;
#28 = DIRECTION ( 'NONE',  ( 3.491481338843133355E-15, -1.276467311168695266E-16, 1.000000000000000000 ) ) ;
#29 = MANIFOLD_SOLID_BREP ( 'Corps-Déplacer/Copier1[1]', #222 ) ;
#30 = APPROVAL_DATE_TIME ( #182, #93 ) ;
#31 = DIRECTION ( 'NONE',  ( 0.000000000000000000, -1.000000000000000000, 0.000000000000000000 ) ) ;
#32 = APPROVAL ( #119, 'UNSPECIFIED' ) ;
#33 = APPLICATION_PROTOCOL_DEFINITION ( 'international standard', 'config_control_design', 1994, #138 ) ;
#34 = DIRECTION ( 'NONE',  ( 3.491481338843133355E-15, -1.224646799147353207E-16, 1.000000000000000000 ) ) ;
#35 = PERSON_AND_ORGANIZATION ( #337, #11 ) ;
#36 = CARTESIAN_POINT ( 'NONE',  ( 1.326762908760390423E-13, -4.653657836759941941E-15, 38.00000000000000000 ) ) ;
#37 = APPROVAL_DATE_TIME ( #88, #127 ) ;
#38 = CONICAL_SURFACE ( 'NONE', #333, 5.499999999999999112, 0.2617993877991502960 ) ;
#39 = DIRECTION ( 'NONE',  ( -4.275831445896958607E-31, -1.000000000000000000, -1.224646799147353207E-16 ) ) ;
#40 = CARTESIAN_POINT ( 'NONE',  ( 1.326762908760390423E-13, 1.199999999999996403, 38.00000000000000000 ) ) ;
#41 = EDGE_LOOP ( 'NONE', ( #174, #10, #19, #143 ) ) ;
#42 = EDGE_CURVE ( 'NONE', #71, #155, #45, .T. ) ;
#43 = VERTEX_POINT ( 'NONE', #112 ) ;
#44 = VERTEX_POINT ( 'NONE', #193 ) ;
#45 = CIRCLE ( 'NONE', #255, 0.4999999999999989453 ) ;
#46 = CIRCLE ( 'NONE', #301, 0.4999999999999991673 ) ;
#47 = LINE ( 'NONE', #160, #257 ) ;
#48 = PRODUCT_DEFINITION_SHAPE ( 'NONE', 'NONE',  #18 ) ;
#49 = CARTESIAN_POINT ( 'NONE',  ( -4.275834835672753814E-31, 1.499760971635154123E-32, -1.224647770017727823E-16 ) ) ;
#50 = DIRECTION ( 'NONE',  ( -4.456761796588769661E-31, -1.000000000000000000, -1.276467311168695512E-16 ) ) ;
#51 = ORIENTED_EDGE ( 'NONE', *, *, #341, .T. ) ;
#52 = DIRECTION ( 'NONE',  ( 0.000000000000000000, -1.000000000000000000, 0.000000000000000000 ) ) ;
#53 = ADVANCED_FACE ( 'NONE', ( #300 ), #145, .T. ) ;
#54 = DIRECTION ( 'NONE',  ( 0.000000000000000000, 1.000000000000000000, 0.000000000000000000 ) ) ;
#55 = DIRECTION ( 'NONE',  ( -3.491481338843133355E-15, 1.224646799147353207E-16, -1.000000000000000000 ) ) ;
#56 = ADVANCED_FACE ( 'NONE', ( #336 ), #229, .T. ) ;
#57 = DIRECTION ( 'NONE',  ( 3.491481338843133355E-15, -1.224646799147353207E-16, 1.000000000000000000 ) ) ;
#58 = AXIS2_PLACEMENT_3D ( 'NONE', #84, #237, #177 ) ;
#59 = EDGE_LOOP ( 'NONE', ( #246, #14, #270, #2 ) ) ;
#60 = PERSON_AND_ORGANIZATION_ROLE ( 'creator' ) ;
#61 = FACE_OUTER_BOUND ( 'NONE', #70, .T. ) ;
#62 = APPROVAL_ROLE ( '' ) ;
#63 = CARTESIAN_POINT ( 'NONE',  ( 1.711210157156468454E-14, 0.4999999999999985012, 3.000000000000000000 ) ) ;
#64 = EDGE_CURVE ( 'NONE', #124, #272, #47, .T. ) ;
#65 = CIRCLE ( 'NONE', #279, 1.200000000000001066 ) ;
#66 = COORDINATED_UNIVERSAL_TIME_OFFSET ( 1, 0, .AHEAD. ) ;
#67 = DIRECTION ( 'NONE',  ( -2.382254525458722992E-15, -0.7071067811865455743, -0.7071067811865493491 ) ) ;
#68 = ADVANCED_FACE ( 'NONE', ( #339 ), #200, .T. ) ;
#69 = CIRCLE ( 'NONE', #180, 1.499999999999997780 ) ;
#70 = EDGE_LOOP ( 'NONE', ( #312, #363 ) ) ;
#71 = VERTEX_POINT ( 'NONE', #100 ) ;
#72 = APPROVAL_PERSON_ORGANIZATION ( #148, #93, #321 ) ;
#73 = ORIENTED_EDGE ( 'NONE', *, *, #186, .T. ) ;
#74 = CARTESIAN_POINT ( 'NONE',  ( 7.756683812057837937E-14, 1.499999999999996891, 6.732050807568858986 ) ) ;
#75 = DIRECTION ( 'NONE',  ( -4.456761796588772289E-31, -1.000000000000000000, -1.276467311168694772E-16 ) ) ;
#76 = ADVANCED_FACE ( 'NONE', ( #357 ), #191, .F. ) ;
#77 = CARTESIAN_POINT ( 'NONE',  ( 5.298454348222072340E-15, 0.4999999999999991673, 2.449293598294513636E-16 ) ) ;
#78 = DIRECTION ( 'NONE',  ( -3.491481338843133355E-15, 1.224646799147353207E-16, -1.000000000000000000 ) ) ;
#79 = EDGE_CURVE ( 'NONE', #272, #130, #83, .T. ) ;
#80 = DIRECTION ( 'NONE',  ( 0.000000000000000000, 1.000000000000000000, 0.000000000000000000 ) ) ;
#81 = DIRECTION ( 'NONE',  ( 3.404208188709233130E-15, 0.2588190451025214611, 0.9659258262890680902 ) ) ;
#82 = CARTESIAN_POINT ( 'NONE',  ( -6.413839710158237013E-31, 0.000000000000000000, -1.836996703606440502E-16 ) ) ;
#83 = CIRCLE ( 'NONE', #97, 1.499999999999997780 ) ;
#84 = CARTESIAN_POINT ( 'NONE',  ( 1.326762908760390423E-13, -4.653657836759941941E-15, 38.00000000000000000 ) ) ;
#85 = PERSON_AND_ORGANIZATION ( #337, #11 ) ;
#86 = CARTESIAN_POINT ( 'NONE',  ( 1.316288464743861212E-13, -4.616918432785521081E-15, 37.69999999999999574 ) ) ;
#87 = CC_DESIGN_DATE_AND_TIME_ASSIGNMENT ( #228, #5, ( #296 ) ) ;
#88 = DATE_AND_TIME ( #289, #136 ) ;
#89 = LINE ( 'NONE', #319, #107 ) ;
#90 = CONICAL_SURFACE ( 'NONE', #58, 1.200000000000001066, 0.7853981633974457255 ) ;
#91 = CARTESIAN_POINT ( 'NONE',  ( 0.000000000000000000, 0.000000000000000000, 0.000000000000000000 ) ) ;
#92 = ORIENTED_EDGE ( 'NONE', *, *, #295, .F. ) ;
#93 = APPROVAL ( #173, 'UNSPECIFIED' ) ;
#94 = VERTEX_POINT ( 'NONE', #103 ) ;
#95 = SHAPE_DEFINITION_REPRESENTATION ( #48, #21 ) ;
#96 = ORIENTED_EDGE ( 'NONE', *, *, #315, .F. ) ;
#97 = AXIS2_PLACEMENT_3D ( 'NONE', #304, #164, #20 ) ;
#98 = EDGE_LOOP ( 'NONE', ( #96, #353, #13, #226 ) ) ;
#99 = ORIENTED_EDGE ( 'NONE', *, *, #42, .T. ) ;
#100 = CARTESIAN_POINT ( 'NONE',  ( 1.047444401652940007E-14, -0.4999999999999993339, 3.000000000000000000 ) ) ;
#101 = PRODUCT ( '372682', '372682', '', ( #263 ) ) ;
#102 = AXIS2_PLACEMENT_3D ( 'NONE', #91, #234, #8 ) ;
#103 = CARTESIAN_POINT ( 'NONE',  ( 7.775053514045022966E-14, -1.500000000000005995, 37.69999999999999574 ) ) ;
#104 = ADVANCED_FACE ( 'NONE', ( #61 ), #294, .F. ) ;
#105 = LINE ( 'NONE', #308, #322 ) ;
#106 = CARTESIAN_POINT ( 'NONE',  ( 7.562637276773507006E-14, -5.500000000000001776, 21.66025403784432157 ) ) ;
#107 = VECTOR ( 'NONE', #67, 1000.000000000000114 ) ;
#108 = LOCAL_TIME ( 8, 31, 37.00000000000000000, #111 ) ;
#109 = LINE ( 'NONE', #251, #181 ) ;
#110 = DIRECTION ( 'NONE',  ( -3.491481338843133355E-15, 1.224646799147353207E-16, -1.000000000000000000 ) ) ;
#111 = COORDINATED_UNIVERSAL_TIME_OFFSET ( 1, 0, .AHEAD. ) ;
#112 = CARTESIAN_POINT ( 'NONE',  ( 1.047444401652940007E-14, -0.4999999999999993339, 3.000000000000000000 ) ) ;
#113 = APPLICATION_PROTOCOL_DEFINITION ( 'international standard', 'config_control_design', 1994, #197 ) ;
#114 = ORIENTED_EDGE ( 'NONE', *, *, #168, .F. ) ;
#115 = LOCAL_TIME ( 8, 31, 37.00000000000000000, #230 ) ;
#116 = CC_DESIGN_APPROVAL ( #32, ( #342 ) ) ;
#117 = EDGE_CURVE ( 'NONE', #241, #94, #273, .T. ) ;
#118 = DIRECTION ( 'NONE',  ( 0.000000000000000000, 1.000000000000000000, 0.000000000000000000 ) ) ;
#119 = APPROVAL_STATUS ( 'not_yet_approved' ) ;
#120 = DIRECTION ( 'NONE',  ( 3.491481338843133355E-15, -1.276467311168695266E-16, 1.000000000000000000 ) ) ;
#121 = PERSON_AND_ORGANIZATION ( #337, #11 ) ;
#122 = EDGE_CURVE ( 'NONE', #325, #241, #183, .T. ) ;
#123 = AXIS2_PLACEMENT_3D ( 'NONE', #36, #203, #118 ) ;
#124 = VERTEX_POINT ( 'NONE', #63 ) ;
#125 = ORIENTED_EDGE ( 'NONE', *, *, #341, .F. ) ;
#126 = ORIENTED_EDGE ( 'NONE', *, *, #350, .F. ) ;
#127 = APPROVAL ( #204, 'UNSPECIFIED' ) ;
#128 = VECTOR ( 'NONE', #264, 1000.000000000000000 ) ;
#129 = ORIENTED_EDGE ( 'NONE', *, *, #315, .T. ) ;
#130 = VERTEX_POINT ( 'NONE', #152 ) ;
#131 = LINE ( 'NONE', #253, #172 ) ;
#132 = ADVANCED_FACE ( 'NONE', ( #346 ), #90, .T. ) ;
#133 = DIRECTION ( 'NONE',  ( 3.491481338843133355E-15, -1.276467311168695266E-16, 1.000000000000000000 ) ) ;
#134 = DIRECTION ( 'NONE',  ( 4.275831445896958607E-31, 1.000000000000000000, 1.224646799147353207E-16 ) ) ;
#135 = AXIS2_PLACEMENT_3D ( 'NONE', #86, #179, #287 ) ;
#136 = LOCAL_TIME ( 8, 31, 37.00000000000000000, #178 ) ;
#137 = DIRECTION ( 'NONE',  ( 3.372511997194914833E-15, -0.2588190451025216277, 0.9659258262890679791 ) ) ;
#138 = APPLICATION_CONTEXT ( 'configuration controlled 3d designs of mechanical parts and assemblies' ) ;
#139 = DIRECTION ( 'NONE',  ( -4.456761796588772289E-31, -1.000000000000000000, -1.276467311168694772E-16 ) ) ;
#140 = CARTESIAN_POINT ( 'NONE',  ( 7.562637276773507006E-14, -2.764860623091801885E-15, 21.66025403784432157 ) ) ;
#141 = DIRECTION ( 'NONE',  ( 3.491481338843133355E-15, -1.276467311168695266E-16, 1.000000000000000000 ) ) ;
#142 = CALENDAR_DATE ( 2023, 31, 3 ) ;
#143 = ORIENTED_EDGE ( 'NONE', *, *, #242, .T. ) ;
#144 = APPROVAL_ROLE ( '' ) ;
#145 = CYLINDRICAL_SURFACE ( 'NONE', #166, 1.499999999999997780 ) ;
#146 = ADVANCED_FACE ( 'NONE', ( #7 ), #212, .T. ) ;
#147 = MANIFOLD_SOLID_BREP ( 'Corps-Déplacer/Copier1[2]', #290 ) ;
#148 = PERSON_AND_ORGANIZATION ( #337, #11 ) ;
#149 = DIRECTION ( 'NONE',  ( -3.491481338843133355E-15, 1.224646799147353207E-16, -1.000000000000000000 ) ) ;
#150 = CIRCLE ( 'NONE', #351, 0.4999999999999989453 ) ;
#151 = CARTESIAN_POINT ( 'NONE',  ( -8.642220608452619216E-31, -0.4999999999999990563, -2.475230359190786903E-16 ) ) ;
#152 = CARTESIAN_POINT ( 'NONE',  ( 7.775053514045041899E-14, -1.499999999999998668, 6.732050807568858986 ) ) ;
#153 = ORIENTED_EDGE ( 'NONE', *, *, #117, .F. ) ;
#154 = LOCAL_TIME ( 8, 31, 37.00000000000000000, #66 ) ;
#155 = VERTEX_POINT ( 'NONE', #291 ) ;
#156 = CC_DESIGN_PERSON_AND_ORGANIZATION_ASSIGNMENT ( #1, #344, ( #296 ) ) ;
#157 = EDGE_LOOP ( 'NONE', ( #125, #114 ) ) ;
#158 = AXIS2_PLACEMENT_3D ( 'NONE', #171, #34, #283 ) ;
#159 = AXIS2_PLACEMENT_3D ( 'NONE', #266, #149, #235 ) ;
#160 = CARTESIAN_POINT ( 'NONE',  ( 7.629992850726612600E-14, 5.499999999999996447, 21.66025403784432157 ) ) ;
#161 = EDGE_CURVE ( 'NONE', #214, #71, #317, .T. ) ;
#162 = CARTESIAN_POINT ( 'NONE',  ( 0.000000000000000000, 0.000000000000000000, 0.000000000000000000 ) ) ;
#163 = CARTESIAN_POINT ( 'NONE',  ( 2.350482976677051766E-14, -8.593242792988465702E-16, 6.732050807568858986 ) ) ;
#164 = DIRECTION ( 'NONE',  ( -3.491481338843133355E-15, 1.276467311168695266E-16, -1.000000000000000000 ) ) ;
#165 = PLANE ( 'NONE',  #327 ) ;
#166 = AXIS2_PLACEMENT_3D ( 'NONE', #262, #110, #302 ) ;
#167 = DIRECTION ( 'NONE',  ( 3.491481338843133355E-15, -1.276467311168695266E-16, 1.000000000000000000 ) ) ;
#168 = EDGE_CURVE ( 'NONE', #44, #325, #245, .T. ) ;
#169 = DIRECTION ( 'NONE',  ( -3.491481338843133355E-15, 1.224646799147353207E-16, -1.000000000000000000 ) ) ;
#170 = CARTESIAN_POINT ( 'NONE',  ( 1.047444401652940007E-14, -3.829401933506085797E-16, 3.000000000000000000 ) ) ;
#171 = CARTESIAN_POINT ( 'NONE',  ( 1.047444401652940007E-14, 1.124819836996388553E-32, 3.000000000000000000 ) ) ;
#172 = VECTOR ( 'NONE', #359, 1000.000000000000000 ) ;
#173 = APPROVAL_STATUS ( 'not_yet_approved' ) ;
#174 = ORIENTED_EDGE ( 'NONE', *, *, #64, .F. ) ;
#175 = EDGE_CURVE ( 'NONE', #155, #71, #208, .T. ) ;
#176 = DATE_AND_TIME ( #316, #154 ) ;
#177 = DIRECTION ( 'NONE',  ( 0.000000000000000000, 1.000000000000000000, 0.000000000000000000 ) ) ;
#178 = COORDINATED_UNIVERSAL_TIME_OFFSET ( 1, 0, .AHEAD. ) ;
#179 = DIRECTION ( 'NONE',  ( -3.491481338843133355E-15, 1.224646799147353207E-16, -1.000000000000000000 ) ) ;
#180 = AXIS2_PLACEMENT_3D ( 'NONE', #163, #220, #329 ) ;
#181 = VECTOR ( 'NONE', #55, 1000.000000000000000 ) ;
#182 = DATE_AND_TIME ( #184, #269 ) ;
#183 = LINE ( 'NONE', #40, #23 ) ;
#184 = CALENDAR_DATE ( 2023, 31, 3 ) ;
#185 = APPROVAL_PERSON_ORGANIZATION ( #286, #32, #144 ) ;
#186 = EDGE_CURVE ( 'NONE', #44, #94, #89, .T. ) ;
#187 = ORIENTED_EDGE ( 'NONE', *, *, #122, .T. ) ;
#188 = EDGE_LOOP ( 'NONE', ( #218, #355, #213, #210 ) ) ;
#189 = ORIENTED_EDGE ( 'NONE', *, *, #268, .F. ) ;
#190 = EDGE_CURVE ( 'NONE', #43, #124, #15, .T. ) ;
#191 = PLANE ( 'NONE',  #217 ) ;
#192 = CARTESIAN_POINT ( 'NONE',  ( 1.047444401652940007E-14, -3.829401933506085797E-16, 3.000000000000000000 ) ) ;
#193 = CARTESIAN_POINT ( 'NONE',  ( 1.323178959930974653E-13, -1.200000000000005507, 38.00000000000000000 ) ) ;
#194 = CARTESIAN_POINT ( 'NONE',  ( 1.316288464743861212E-13, 1.499999999999996669, 37.69999999999999574 ) ) ;
#195 = DIRECTION ( 'NONE',  ( 3.491481338843133355E-15, -1.276467311168695266E-16, 1.000000000000000000 ) ) ;
#196 = AXIS2_PLACEMENT_3D ( 'NONE', #281, #167, #50 ) ;
#197 = APPLICATION_CONTEXT ( 'configuration controlled 3d designs of mechanical parts and assemblies' ) ;
#198 = CC_DESIGN_PERSON_AND_ORGANIZATION_ASSIGNMENT ( #35, #340, ( #342 ) ) ;
#199 = CYLINDRICAL_SURFACE ( 'NONE', #347, 0.4999999999999990563 ) ;
#200 = CYLINDRICAL_SURFACE ( 'NONE', #232, 0.4999999999999990563 ) ;
#201 = PERSON_AND_ORGANIZATION ( #337, #11 ) ;
#202 = AXIS2_PLACEMENT_3D ( 'NONE', #162, #343, #215 ) ;
#203 = DIRECTION ( 'NONE',  ( -3.491481338843133355E-15, 1.224646799147353207E-16, -1.000000000000000000 ) ) ;
#204 = APPROVAL_STATUS ( 'not_yet_approved' ) ;
#205 = DIRECTION ( 'NONE',  ( 3.491481338843133355E-15, -1.224646799147353207E-16, 1.000000000000000000 ) ) ;
#206 = CARTESIAN_POINT ( 'NONE',  ( 1.047444401652940007E-14, -3.829401933506085797E-16, 3.000000000000000000 ) ) ;
#207 = CONICAL_SURFACE ( 'NONE', #216, 5.499999999999999112, 0.2617993877991502960 ) ;
#208 = CIRCLE ( 'NONE', #292, 0.4999999999999989453 ) ;
#209 = ORIENTED_EDGE ( 'NONE', *, *, #186, .F. ) ;
#210 = ORIENTED_EDGE ( 'NONE', *, *, #242, .F. ) ;
#211 = EDGE_CURVE ( 'NONE', #124, #43, #150, .T. ) ;
#212 = CONICAL_SURFACE ( 'NONE', #123, 1.200000000000001066, 0.7853981633974457255 ) ;
#213 = ORIENTED_EDGE ( 'NONE', *, *, #295, .T. ) ;
#214 = VERTEX_POINT ( 'NONE', #305 ) ;
#215 = DIRECTION ( 'NONE',  ( 4.275831445896959482E-31, 1.000000000000000000, 1.224646799147353207E-16 ) ) ;
#216 = AXIS2_PLACEMENT_3D ( 'NONE', #231, #141, #31 ) ;
#217 = AXIS2_PLACEMENT_3D ( 'NONE', #49, #57, #275 ) ;
#218 = ORIENTED_EDGE ( 'NONE', *, *, #265, .F. ) ;
#219 = CARTESIAN_POINT ( 'NONE',  ( 1.326762908760390423E-13, 1.199999999999996403, 38.00000000000000000 ) ) ;
#220 = DIRECTION ( 'NONE',  ( -3.491481338843133355E-15, 1.276467311168695266E-16, -1.000000000000000000 ) ) ;
#221 = CC_DESIGN_DATE_AND_TIME_ASSIGNMENT ( #176, #293, ( #18 ) ) ;
#222 = CLOSED_SHELL ( 'NONE', ( #3, #146, #56, #53, #132, #277, #252, #104 ) ) ;
#223 = FACE_OUTER_BOUND ( 'NONE', #157, .T. ) ;
#224 = CIRCLE ( 'NONE', #6, 1.500000000000001110 ) ;
#225 = DIRECTION ( 'NONE',  ( -3.491481338843133355E-15, 1.224646799147353207E-16, -1.000000000000000000 ) ) ;
#226 = ORIENTED_EDGE ( 'NONE', *, *, #175, .F. ) ;
#227 = EDGE_CURVE ( 'NONE', #274, #214, #250, .T. ) ;
#228 = DATE_AND_TIME ( #338, #108 ) ;
#229 = CYLINDRICAL_SURFACE ( 'NONE', #202, 1.499999999999997780 ) ;
#230 = COORDINATED_UNIVERSAL_TIME_OFFSET ( 1, 0, .AHEAD. ) ;
#231 = CARTESIAN_POINT ( 'NONE',  ( 7.562637276773507006E-14, -2.764860623091801885E-15, 21.66025403784432157 ) ) ;
#232 = AXIS2_PLACEMENT_3D ( 'NONE', #82, #133, #75 ) ;
#233 = APPROVAL_PERSON_ORGANIZATION ( #85, #127, #62 ) ;
#234 = DIRECTION ( 'NONE',  ( 0.000000000000000000, 0.000000000000000000, 1.000000000000000000 ) ) ;
#235 = DIRECTION ( 'NONE',  ( 0.000000000000000000, 1.000000000000000000, 0.000000000000000000 ) ) ;
#236 = SECURITY_CLASSIFICATION_LEVEL ( 'unclassified' ) ;
#237 = DIRECTION ( 'NONE',  ( -3.491481338843133355E-15, 1.224646799147353207E-16, -1.000000000000000000 ) ) ;
#238 = PERSON_AND_ORGANIZATION_ROLE ( 'design_owner' ) ;
#239 =( GEOMETRIC_REPRESENTATION_CONTEXT ( 3 ) GLOBAL_UNCERTAINTY_ASSIGNED_CONTEXT ( ( #299 ) ) GLOBAL_UNIT_ASSIGNED_CONTEXT ( ( #358, #360, #331 ) ) REPRESENTATION_CONTEXT ( 'NONE', 'WORKASPACE' ) );
#240 = ORIENTED_EDGE ( 'NONE', *, *, #161, .F. ) ;
#241 = VERTEX_POINT ( 'NONE', #194 ) ;
#242 = EDGE_CURVE ( 'NONE', #130, #272, #69, .T. ) ;
#243 = ORIENTED_EDGE ( 'NONE', *, *, #168, .T. ) ;
#244 = ORIENTED_EDGE ( 'NONE', *, *, #265, .T. ) ;
#245 = CIRCLE ( 'NONE', #159, 1.200000000000001066 ) ;
#246 = ORIENTED_EDGE ( 'NONE', *, *, #190, .T. ) ;
#247 = ORIENTED_EDGE ( 'NONE', *, *, #42, .F. ) ;
#248 = CARTESIAN_POINT ( 'NONE',  ( 6.323281993499507860E-31, -4.656625058315083898E-32, 1.811059942710351879E-16 ) ) ;
#249 = EDGE_LOOP ( 'NONE', ( #297, #129, #247, #240 ) ) ;
#250 = CIRCLE ( 'NONE', #196, 0.4999999999999991673 ) ;
#251 = CARTESIAN_POINT ( 'NONE',  ( 6.413747168845429152E-31, 1.499999999999997780, 1.836970198721027222E-16 ) ) ;
#252 = ADVANCED_FACE ( 'NONE', ( #282 ), #38, .T. ) ;
#253 = CARTESIAN_POINT ( 'NONE',  ( 6.123233995736713034E-17, 0.4999999999999990563, -1.198763048022096321E-16 ) ) ;
#254 = LINE ( 'NONE', #106, #16 ) ;
#255 = AXIS2_PLACEMENT_3D ( 'NONE', #330, #28, #260 ) ;
#256 = DIRECTION ( 'NONE',  ( -3.491481338843133355E-15, 1.224646799147353207E-16, -1.000000000000000000 ) ) ;
#257 = VECTOR ( 'NONE', #81, 1000.000000000000000 ) ;
#258 = FACE_OUTER_BOUND ( 'NONE', #348, .T. ) ;
#259 = DATE_AND_TIME ( #142, #115 ) ;
#260 = DIRECTION ( 'NONE',  ( 0.000000000000000000, -1.000000000000000000, 0.000000000000000000 ) ) ;
#261 = PERSON_AND_ORGANIZATION_ROLE ( 'creator' ) ;
#262 = CARTESIAN_POINT ( 'NONE',  ( 0.000000000000000000, 0.000000000000000000, 0.000000000000000000 ) ) ;
#263 = MECHANICAL_CONTEXT ( 'NONE', #138, 'mechanical' ) ;
#264 = DIRECTION ( 'NONE',  ( 3.491481338843133355E-15, -1.276467311168695266E-16, 1.000000000000000000 ) ) ;
#265 = EDGE_CURVE ( 'NONE', #94, #130, #105, .T. ) ;
#266 = CARTESIAN_POINT ( 'NONE',  ( 1.326762908760390423E-13, -4.653657836759941941E-15, 38.00000000000000000 ) ) ;
#267 = ORIENTED_EDGE ( 'NONE', *, *, #227, .F. ) ;
#268 = EDGE_CURVE ( 'NONE', #94, #241, #224, .T. ) ;
#269 = LOCAL_TIME ( 8, 31, 37.00000000000000000, #313 ) ;
#270 = ORIENTED_EDGE ( 'NONE', *, *, #79, .T. ) ;
#271 = EDGE_LOOP ( 'NONE', ( #51, #73, #153, #4 ) ) ;
#272 = VERTEX_POINT ( 'NONE', #74 ) ;
#273 = CIRCLE ( 'NONE', #135, 1.500000000000001110 ) ;
#274 = VERTEX_POINT ( 'NONE', #77 ) ;
#275 = DIRECTION ( 'NONE',  ( -4.275831445896958607E-31, -1.000000000000000000, -1.224646799147353207E-16 ) ) ;
#276 = DIRECTION ( 'NONE',  ( 3.491481338843133355E-15, -1.276467311168695266E-16, 1.000000000000000000 ) ) ;
#277 = ADVANCED_FACE ( 'NONE', ( #223 ), #165, .F. ) ;
#278 = FACE_OUTER_BOUND ( 'NONE', #59, .T. ) ;
#279 = AXIS2_PLACEMENT_3D ( 'NONE', #307, #78, #54 ) ;
#280 = DIRECTION ( 'NONE',  ( 3.491481338843133355E-15, -1.276467311168695266E-16, 1.000000000000000000 ) ) ;
#281 = CARTESIAN_POINT ( 'NONE',  ( 6.323281993499507860E-31, -4.656625058315083898E-32, 1.811059942710351879E-16 ) ) ;
#282 = FACE_OUTER_BOUND ( 'NONE', #41, .T. ) ;
#283 = DIRECTION ( 'NONE',  ( -4.275831445896958607E-31, -1.000000000000000000, -1.224646799147353207E-16 ) ) ;
#284 = PERSON_AND_ORGANIZATION ( #337, #11 ) ;
#285 = PLANE ( 'NONE',  #158 ) ;
#286 = PERSON_AND_ORGANIZATION ( #337, #11 ) ;
#287 = DIRECTION ( 'NONE',  ( 0.000000000000000000, 1.000000000000000000, 0.000000000000000000 ) ) ;
#288 = CC_DESIGN_PERSON_AND_ORGANIZATION_ASSIGNMENT ( #284, #60, ( #18 ) ) ;
#289 = CALENDAR_DATE ( 2023, 31, 3 ) ;
#290 = CLOSED_SHELL ( 'NONE', ( #354, #25, #68, #76 ) ) ;
#291 = CARTESIAN_POINT ( 'NONE',  ( 5.298454348222068396E-15, 0.4999999999999985012, 3.000000000000000000 ) ) ;
#292 = AXIS2_PLACEMENT_3D ( 'NONE', #206, #120, #345 ) ;
#293 = DATE_TIME_ROLE ( 'creation_date' ) ;
#294 = PLANE ( 'NONE',  #306 ) ;
#295 = EDGE_CURVE ( 'NONE', #241, #272, #109, .T. ) ;
#296 = SECURITY_CLASSIFICATION ( '', '', #236 ) ;
#297 = ORIENTED_EDGE ( 'NONE', *, *, #350, .T. ) ;
#298 = EDGE_LOOP ( 'NONE', ( #352, #244, #309, #92 ) ) ;
#299 = UNCERTAINTY_MEASURE_WITH_UNIT (LENGTH_MEASURE( 1.000000000000000082E-05 ), #358, 'distance_accuracy_value', 'NONE');
#300 = FACE_OUTER_BOUND ( 'NONE', #188, .T. ) ;
#301 = AXIS2_PLACEMENT_3D ( 'NONE', #248, #280, #26 ) ;
#302 = DIRECTION ( 'NONE',  ( 4.275831445896959482E-31, 1.000000000000000000, 1.224646799147353207E-16 ) ) ;
#303 = EDGE_CURVE ( 'NONE', #43, #130, #254, .T. ) ;
#304 = CARTESIAN_POINT ( 'NONE',  ( 2.350482976677051766E-14, -8.593242792988465702E-16, 6.732050807568858986 ) ) ;
#305 = CARTESIAN_POINT ( 'NONE',  ( 4.094901095205126532E-31, -0.4999999999999991673, 1.172826287126005232E-16 ) ) ;
#306 = AXIS2_PLACEMENT_3D ( 'NONE', #314, #205, #39 ) ;
#307 = CARTESIAN_POINT ( 'NONE',  ( 1.326762908760390423E-13, -4.653657836759941941E-15, 38.00000000000000000 ) ) ;
#308 = CARTESIAN_POINT ( 'NONE',  ( 1.836970198721020813E-16, -1.499999999999997780, -1.836970198721033385E-16 ) ) ;
#309 = ORIENTED_EDGE ( 'NONE', *, *, #79, .F. ) ;
#310 = APPROVAL_DATE_TIME ( #259, #32 ) ;
#311 = CC_DESIGN_APPROVAL ( #93, ( #18 ) ) ;
#312 = ORIENTED_EDGE ( 'NONE', *, *, #190, .F. ) ;
#313 = COORDINATED_UNIVERSAL_TIME_OFFSET ( 1, 0, .AHEAD. ) ;
#314 = CARTESIAN_POINT ( 'NONE',  ( 1.047444401652940007E-14, 1.124819836996388553E-32, 3.000000000000000000 ) ) ;
#315 = EDGE_CURVE ( 'NONE', #274, #155, #131, .T. ) ;
#316 = CALENDAR_DATE ( 2023, 31, 3 ) ;
#317 = LINE ( 'NONE', #151, #128 ) ;
#318 = AXIS2_PLACEMENT_3D ( 'NONE', #192, #334, #332 ) ;
#319 = CARTESIAN_POINT ( 'NONE',  ( 1.328232484919367446E-13, -1.200000000000005507, 38.00000000000000000 ) ) ;
#320 = CC_DESIGN_APPROVAL ( #127, ( #296 ) ) ;
#321 = APPROVAL_ROLE ( '' ) ;
#322 = VECTOR ( 'NONE', #225, 1000.000000000000000 ) ;
#323 = CC_DESIGN_SECURITY_CLASSIFICATION ( #296, ( #342 ) ) ;
#324 = CC_DESIGN_PERSON_AND_ORGANIZATION_ASSIGNMENT ( #121, #238, ( #101 ) ) ;
#325 = VERTEX_POINT ( 'NONE', #219 ) ;
#326 = EDGE_LOOP ( 'NONE', ( #209, #243, #187, #189 ) ) ;
#327 = AXIS2_PLACEMENT_3D ( 'NONE', #27, #256, #134 ) ;
#328 = CC_DESIGN_PERSON_AND_ORGANIZATION_ASSIGNMENT ( #201, #261, ( #342 ) ) ;
#329 = DIRECTION ( 'NONE',  ( 0.000000000000000000, -1.000000000000000000, 0.000000000000000000 ) ) ;
#330 = CARTESIAN_POINT ( 'NONE',  ( 1.047444401652940007E-14, -3.829401933506085797E-16, 3.000000000000000000 ) ) ;
#331 =( NAMED_UNIT ( * ) SI_UNIT ( $, .STERADIAN. ) SOLID_ANGLE_UNIT ( ) );
#332 = DIRECTION ( 'NONE',  ( 0.000000000000000000, -1.000000000000000000, 0.000000000000000000 ) ) ;
#333 = AXIS2_PLACEMENT_3D ( 'NONE', #140, #276, #24 ) ;
#334 = DIRECTION ( 'NONE',  ( 3.491481338843133355E-15, -1.276467311168695266E-16, 1.000000000000000000 ) ) ;
#335 = DIRECTION ( 'NONE',  ( 3.491481338843133355E-15, -1.276467311168695266E-16, 1.000000000000000000 ) ) ;
#336 = FACE_OUTER_BOUND ( 'NONE', #298, .T. ) ;
#337 = PERSON ( 'UNSPECIFIED', 'UNSPECIFIED', 'UNSPECIFIED', ('UNSPECIFIED'), ('UNSPECIFIED'), ('UNSPECIFIED') ) ;
#338 = CALENDAR_DATE ( 2023, 31, 3 ) ;
#339 = FACE_OUTER_BOUND ( 'NONE', #98, .T. ) ;
#340 = PERSON_AND_ORGANIZATION_ROLE ( 'design_supplier' ) ;
#341 = EDGE_CURVE ( 'NONE', #325, #44, #65, .T. ) ;
#342 = PRODUCT_DEFINITION_FORMATION_WITH_SPECIFIED_SOURCE ( 'ANY', '', #101, .NOT_KNOWN. ) ;
#343 = DIRECTION ( 'NONE',  ( -3.491481338843133355E-15, 1.224646799147353207E-16, -1.000000000000000000 ) ) ;
#344 = PERSON_AND_ORGANIZATION_ROLE ( 'classification_officer' ) ;
#345 = DIRECTION ( 'NONE',  ( 0.000000000000000000, -1.000000000000000000, 0.000000000000000000 ) ) ;
#346 = FACE_OUTER_BOUND ( 'NONE', #326, .T. ) ;
#347 = AXIS2_PLACEMENT_3D ( 'NONE', #356, #335, #139 ) ;
#348 = EDGE_LOOP ( 'NONE', ( #99, #349 ) ) ;
#349 = ORIENTED_EDGE ( 'NONE', *, *, #175, .T. ) ;
#350 = EDGE_CURVE ( 'NONE', #214, #274, #46, .T. ) ;
#351 = AXIS2_PLACEMENT_3D ( 'NONE', #170, #195, #52 ) ;
#352 = ORIENTED_EDGE ( 'NONE', *, *, #117, .T. ) ;
#353 = ORIENTED_EDGE ( 'NONE', *, *, #227, .T. ) ;
#354 = ADVANCED_FACE ( 'NONE', ( #362 ), #199, .T. ) ;
#355 = ORIENTED_EDGE ( 'NONE', *, *, #268, .T. ) ;
#356 = CARTESIAN_POINT ( 'NONE',  ( -6.413839710158237013E-31, 0.000000000000000000, -1.836996703606440502E-16 ) ) ;
#357 = FACE_OUTER_BOUND ( 'NONE', #12, .T. ) ;
#358 =( LENGTH_UNIT ( ) NAMED_UNIT ( * ) SI_UNIT ( .MILLI., .METRE. ) );
#359 = DIRECTION ( 'NONE',  ( 3.491481338843133355E-15, -1.276467311168695266E-16, 1.000000000000000000 ) ) ;
#360 =( NAMED_UNIT ( * ) PLANE_ANGLE_UNIT ( ) SI_UNIT ( $, .RADIAN. ) );
#361 = PRODUCT_RELATED_PRODUCT_CATEGORY ( 'detail', '', ( #101 ) ) ;
#362 = FACE_OUTER_BOUND ( 'NONE', #249, .T. ) ;
#363 = ORIENTED_EDGE ( 'NONE', *, *, #211, .F. ) ;
ENDSEC;
END-ISO-10303-21;
