ISO-10303-21;
HEADER;
FILE_DESCRIPTION (( 'STEP AP203' ),
    '1' );
FILE_NAME ('372681.step',
    '2023-03-31T06:31:37',
    ( '' ),
    ( '' ),
    'SwSTEP 2.0',
    'SolidWorks 2022',
    '' );
FILE_SCHEMA (( 'CONFIG_CONTROL_DESIGN' ));
ENDSEC;

DATA;
#1 = COORDINATED_UNIVERSAL_TIME_OFFSET ( 1, 0, .AHEAD. ) ;
#2 = ADVANCED_FACE ( 'NONE', ( #126 ), #334, .F. ) ;
#3 = DATE_AND_TIME ( #35, #10 ) ;
#4 = APPROVAL_DATE_TIME ( #179, #42 ) ;
#5 = VECTOR ( 'NONE', #141, 1000.000000000000114 ) ;
#6 = AXIS2_PLACEMENT_3D ( 'NONE', #347, #99, #188 ) ;
#7 =( LENGTH_UNIT ( ) NAMED_UNIT ( * ) SI_UNIT ( .MILLI., .METRE. ) );
#8 = ORIENTED_EDGE ( 'NONE', *, *, #54, .F. ) ;
#9 = AXIS2_PLACEMENT_3D ( 'NONE', #150, #195, #360 ) ;
#10 = LOCAL_TIME ( 8, 31, 37.00000000000000000, #91 ) ;
#11 = PERSON_AND_ORGANIZATION_ROLE ( 'creator' ) ;
#12 = APPLICATION_CONTEXT ( 'configuration controlled 3d designs of mechanical parts and assemblies' ) ;
#13 = CARTESIAN_POINT ( 'NONE',  ( 1.047444401652940007E-14, -0.4999999999999993339, 3.000000000000000000 ) ) ;
#14 = ORIENTED_EDGE ( 'NONE', *, *, #321, .T. ) ;
#15 = SECURITY_CLASSIFICATION_LEVEL ( 'unclassified' ) ;
#16 = CARTESIAN_POINT ( 'NONE',  ( 2.350482976677050504E-14, -8.593242792988461758E-16, 6.732050807568855433 ) ) ;
#17 = CIRCLE ( 'NONE', #239, 0.4999999999999989453 ) ;
#18 = LOCAL_TIME ( 8, 31, 37.00000000000000000, #32 ) ;
#19 = CARTESIAN_POINT ( 'NONE',  ( 5.298454348222068396E-15, 0.4999999999999985012, 3.000000000000000000 ) ) ;
#20 = ADVANCED_FACE ( 'NONE', ( #250 ), #66, .T. ) ;
#21 = PERSON_AND_ORGANIZATION ( #362, #310 ) ;
#22 = FACE_OUTER_BOUND ( 'NONE', #203, .T. ) ;
#23 = DIRECTION ( 'NONE',  ( -3.491481338843133355E-15, 1.224646799147353207E-16, -1.000000000000000000 ) ) ;
#24 = VERTEX_POINT ( 'NONE', #324 ) ;
#25 = CYLINDRICAL_SURFACE ( 'NONE', #166, 1.499999999999996891 ) ;
#26 = CARTESIAN_POINT ( 'NONE',  ( 1.047444401652940007E-14, 1.124819836996388553E-32, 3.000000000000000000 ) ) ;
#27 = CIRCLE ( 'NONE', #51, 1.199999999999999289 ) ;
#28 = PERSON_AND_ORGANIZATION_ROLE ( 'creator' ) ;
#29 = ADVANCED_FACE ( 'NONE', ( #242 ), #249, .T. ) ;
#30 = ORIENTED_EDGE ( 'NONE', *, *, #333, .T. ) ;
#31 = CARTESIAN_POINT ( 'NONE',  ( 1.048913977811916904E-13, -1.200000000000002842, 30.00000000000000000 ) ) ;
#32 = COORDINATED_UNIVERSAL_TIME_OFFSET ( 1, 0, .AHEAD. ) ;
#33 = AXIS2_PLACEMENT_3D ( 'NONE', #121, #98, #158 ) ;
#34 = ADVANCED_FACE ( 'NONE', ( #217 ), #240, .F. ) ;
#35 = CALENDAR_DATE ( 2023, 31, 3 ) ;
#36 = CLOSED_SHELL ( 'NONE', ( #173, #233, #278, #327, #268, #2, #20, #194 ) ) ;
#37 = APPROVAL_PERSON_ORGANIZATION ( #358, #105, #207 ) ;
#38 = VERTEX_POINT ( 'NONE', #224 ) ;
#39 = VERTEX_POINT ( 'NONE', #135 ) ;
#40 = CONICAL_SURFACE ( 'NONE', #284, 5.499999999999999112, 0.2617993877991502960 ) ;
#41 = DIRECTION ( 'NONE',  ( 0.000000000000000000, 1.000000000000000000, 0.000000000000000000 ) ) ;
#42 = APPROVAL ( #316, 'UNSPECIFIED' ) ;
#43 = EDGE_LOOP ( 'NONE', ( #122, #305 ) ) ;
#44 = DIRECTION ( 'NONE',  ( -3.491481338843133355E-15, 1.224646799147353207E-16, -1.000000000000000000 ) ) ;
#45 = VECTOR ( 'NONE', #44, 1000.000000000000000 ) ;
#46 = EDGE_LOOP ( 'NONE', ( #177, #184, #290, #117 ) ) ;
#47 = DIRECTION ( 'NONE',  ( -4.456761796588769661E-31, -1.000000000000000000, -1.276467311168695512E-16 ) ) ;
#48 = PRODUCT_DEFINITION_SHAPE ( 'NONE', 'NONE',  #124 ) ;
#49 = CARTESIAN_POINT ( 'NONE',  ( 1.047444401652940007E-13, 1.199999999999995515, 30.00000000000000000 ) ) ;
#50 = EDGE_CURVE ( 'NONE', #214, #213, #238, .T. ) ;
#51 = AXIS2_PLACEMENT_3D ( 'NONE', #153, #155, #41 ) ;
#52 = CARTESIAN_POINT ( 'NONE',  ( 7.562637276773507006E-14, -2.764860623091801885E-15, 21.66025403784432157 ) ) ;
#53 = ORIENTED_EDGE ( 'NONE', *, *, #94, .T. ) ;
#54 = EDGE_CURVE ( 'NONE', #68, #191, #73, .T. ) ;
#55 = PERSON_AND_ORGANIZATION ( #362, #310 ) ;
#56 = AXIS2_PLACEMENT_3D ( 'NONE', #26, #216, #168 ) ;
#57 = CALENDAR_DATE ( 2023, 31, 3 ) ;
#58 = ORIENTED_EDGE ( 'NONE', *, *, #289, .T. ) ;
#59 = ORIENTED_EDGE ( 'NONE', *, *, #226, .F. ) ;
#60 = EDGE_CURVE ( 'NONE', #24, #38, #331, .T. ) ;
#61 = AXIS2_PLACEMENT_3D ( 'NONE', #271, #246, #215 ) ;
#62 = LOCAL_TIME ( 8, 31, 37.00000000000000000, #1 ) ;
#63 = VERTEX_POINT ( 'NONE', #317 ) ;
#64 = CC_DESIGN_PERSON_AND_ORGANIZATION_ASSIGNMENT ( #55, #28, ( #124 ) ) ;
#65 = ORIENTED_EDGE ( 'NONE', *, *, #161, .T. ) ;
#66 = CONICAL_SURFACE ( 'NONE', #148, 5.499999999999999112, 0.2617993877991502960 ) ;
#67 = DIRECTION ( 'NONE',  ( 0.000000000000000000, -1.000000000000000000, 0.000000000000000000 ) ) ;
#68 = VERTEX_POINT ( 'NONE', #283 ) ;
#69 = CYLINDRICAL_SURFACE ( 'NONE', #6, 1.499999999999996891 ) ;
#70 = DATE_AND_TIME ( #352, #142 ) ;
#71 = DIRECTION ( 'NONE',  ( 1.000000000000000000, 0.000000000000000000, 0.000000000000000000 ) ) ;
#72 = DIRECTION ( 'NONE',  ( 3.491481338843133355E-15, -1.276467311168695266E-16, 1.000000000000000000 ) ) ;
#73 = CIRCLE ( 'NONE', #244, 0.4999999999999991673 ) ;
#74 = AXIS2_PLACEMENT_3D ( 'NONE', #16, #326, #67 ) ;
#75 = DIRECTION ( 'NONE',  ( 4.275831445896958607E-31, 1.000000000000000000, 1.224646799147353207E-16 ) ) ;
#76 = DIRECTION ( 'NONE',  ( 0.000000000000000000, 1.000000000000000000, 0.000000000000000000 ) ) ;
#77 = DIRECTION ( 'NONE',  ( 3.491481338843133355E-15, -1.276467311168695266E-16, 1.000000000000000000 ) ) ;
#78 = CC_DESIGN_DATE_AND_TIME_ASSIGNMENT ( #70, #247, ( #146 ) ) ;
#79 = CARTESIAN_POINT ( 'NONE',  ( 1.047444401652940007E-14, -0.4999999999999993339, 3.000000000000000000 ) ) ;
#80 = MANIFOLD_SOLID_BREP ( 'Corps-Déplacer/Copier1[2]', #219 ) ;
#81 = CARTESIAN_POINT ( 'NONE',  ( 1.047444401652940007E-14, -3.829401933506085797E-16, 3.000000000000000000 ) ) ;
#82 = AXIS2_PLACEMENT_3D ( 'NONE', #259, #315, #143 ) ;
#83 = CARTESIAN_POINT ( 'NONE',  ( -6.413839710158237013E-31, 0.000000000000000000, -1.836996703606440502E-16 ) ) ;
#84 = LOCAL_TIME ( 8, 31, 37.00000000000000000, #172 ) ;
#85 = FACE_OUTER_BOUND ( 'NONE', #43, .T. ) ;
#86 = APPROVAL_ROLE ( '' ) ;
#87 = EDGE_CURVE ( 'NONE', #227, #24, #180, .T. ) ;
#88 = EDGE_CURVE ( 'NONE', #191, #68, #109, .T. ) ;
#89 = EDGE_LOOP ( 'NONE', ( #136, #8 ) ) ;
#90 = FACE_OUTER_BOUND ( 'NONE', #120, .T. ) ;
#91 = COORDINATED_UNIVERSAL_TIME_OFFSET ( 1, 0, .AHEAD. ) ;
#92 = DESIGN_CONTEXT ( 'detailed design', #12, 'design' ) ;
#93 = VECTOR ( 'NONE', #223, 1000.000000000000000 ) ;
#94 = EDGE_CURVE ( 'NONE', #38, #24, #174, .T. ) ;
#95 = CARTESIAN_POINT ( 'NONE',  ( 6.413747168845424773E-31, 1.499999999999996891, 1.836970198721026236E-16 ) ) ;
#96 = APPLICATION_PROTOCOL_DEFINITION ( 'international standard', 'config_control_design', 1994, #359 ) ;
#97 = FACE_OUTER_BOUND ( 'NONE', #46, .T. ) ;
#98 = DIRECTION ( 'NONE',  ( 3.491481338843133355E-15, -1.276467311168695266E-16, 1.000000000000000000 ) ) ;
#99 = DIRECTION ( 'NONE',  ( -3.491481338843133355E-15, 1.224646799147353207E-16, -1.000000000000000000 ) ) ;
#100 = DIRECTION ( 'NONE',  ( 3.404208188709233130E-15, 0.2588190451025214611, 0.9659258262890680902 ) ) ;
#101 = PRODUCT ( '372681', '372681', '', ( #322 ) ) ;
#102 = ORIENTED_EDGE ( 'NONE', *, *, #226, .T. ) ;
#103 = CONICAL_SURFACE ( 'NONE', #149, 1.199999999999999289, 0.7853981633974457255 ) ;
#104 = CARTESIAN_POINT ( 'NONE',  ( 2.350482976677050504E-14, -8.593242792988461758E-16, 6.732050807568855433 ) ) ;
#105 = APPROVAL ( #256, 'UNSPECIFIED' ) ;
#106 = DIRECTION ( 'NONE',  ( -2.468850131082271655E-15, 0.7071067811865457964, -0.7071067811865492381 ) ) ;
#107 = DIRECTION ( 'NONE',  ( 3.491481338843133355E-15, -1.276467311168695266E-16, 1.000000000000000000 ) ) ;
#108 = DIRECTION ( 'NONE',  ( 3.491481338843133355E-15, -1.276467311168695266E-16, 1.000000000000000000 ) ) ;
#109 = CIRCLE ( 'NONE', #291, 0.4999999999999991673 ) ;
#110 = AXIS2_PLACEMENT_3D ( 'NONE', #335, #302, #193 ) ;
#111 = APPROVAL_DATE_TIME ( #3, #105 ) ;
#112 = PERSON_AND_ORGANIZATION ( #362, #310 ) ;
#113 = VECTOR ( 'NONE', #297, 1000.000000000000000 ) ;
#114 = EDGE_CURVE ( 'NONE', #162, #361, #204, .T. ) ;
#115 =( NAMED_UNIT ( * ) SI_UNIT ( $, .STERADIAN. ) SOLID_ANGLE_UNIT ( ) );
#116 = EDGE_CURVE ( 'NONE', #68, #213, #164, .T. ) ;
#117 = ORIENTED_EDGE ( 'NONE', *, *, #349, .F. ) ;
#118 = DIRECTION ( 'NONE',  ( 0.000000000000000000, -1.000000000000000000, 0.000000000000000000 ) ) ;
#119 = ADVANCED_BREP_SHAPE_REPRESENTATION ( '372681', ( #329, #80, #351 ), #295 ) ;
#120 = EDGE_LOOP ( 'NONE', ( #270, #280 ) ) ;
#121 = CARTESIAN_POINT ( 'NONE',  ( -6.413839710158237013E-31, 0.000000000000000000, -1.836996703606440502E-16 ) ) ;
#122 = ORIENTED_EDGE ( 'NONE', *, *, #161, .F. ) ;
#123 = VECTOR ( 'NONE', #72, 1000.000000000000000 ) ;
#124 = PRODUCT_DEFINITION ( 'UNKNOWN', '', #182, #92 ) ;
#125 = CARTESIAN_POINT ( 'NONE',  ( 1.836970198721019827E-16, -1.499999999999996891, -1.836970198721032399E-16 ) ) ;
#126 = FACE_OUTER_BOUND ( 'NONE', #189, .T. ) ;
#127 = PERSON_AND_ORGANIZATION_ROLE ( 'design_supplier' ) ;
#128 = LINE ( 'NONE', #137, #93 ) ;
#129 = CARTESIAN_POINT ( 'NONE',  ( 1.047444401652940007E-13, 8.998558695971084067E-33, 30.00000000000000000 ) ) ;
#130 = ORIENTED_EDGE ( 'NONE', *, *, #154, .T. ) ;
#131 = CARTESIAN_POINT ( 'NONE',  ( 1.043860452823524111E-13, -1.200000000000002842, 30.00000000000000000 ) ) ;
#132 = EDGE_LOOP ( 'NONE', ( #209, #345, #30, #286 ) ) ;
#133 = CC_DESIGN_DATE_AND_TIME_ASSIGNMENT ( #229, #311, ( #124 ) ) ;
#134 = DIRECTION ( 'NONE',  ( 4.275831445896958607E-31, 1.000000000000000000, 1.224646799147353454E-16 ) ) ;
#135 = CARTESIAN_POINT ( 'NONE',  ( 1.047444401652940007E-13, 1.199999999999995515, 30.00000000000000000 ) ) ;
#136 = ORIENTED_EDGE ( 'NONE', *, *, #88, .F. ) ;
#137 = CARTESIAN_POINT ( 'NONE',  ( -8.642220608452619216E-31, -0.4999999999999990563, -2.475230359190786903E-16 ) ) ;
#138 = CARTESIAN_POINT ( 'NONE',  ( 6.323281993499507860E-31, -4.656625058315083898E-32, 1.811059942710351879E-16 ) ) ;
#139 = FACE_OUTER_BOUND ( 'NONE', #266, .T. ) ;
#140 = DIRECTION ( 'NONE',  ( -4.456761796588769661E-31, -1.000000000000000000, -1.276467311168695512E-16 ) ) ;
#141 = DIRECTION ( 'NONE',  ( -2.382254525458722992E-15, -0.7071067811865455743, -0.7071067811865493491 ) ) ;
#142 = LOCAL_TIME ( 8, 31, 37.00000000000000000, #348 ) ;
#143 = DIRECTION ( 'NONE',  ( 0.000000000000000000, 1.000000000000000000, 0.000000000000000000 ) ) ;
#144 = ADVANCED_FACE ( 'NONE', ( #90 ), #185, .T. ) ;
#145 = LINE ( 'NONE', #125, #113 ) ;
#146 = SECURITY_CLASSIFICATION ( '', '', #15 ) ;
#147 = ORIENTED_EDGE ( 'NONE', *, *, #114, .T. ) ;
#148 = AXIS2_PLACEMENT_3D ( 'NONE', #303, #267, #118 ) ;
#149 = AXIS2_PLACEMENT_3D ( 'NONE', #257, #251, #218 ) ;
#150 = CARTESIAN_POINT ( 'NONE',  ( 1.047444401652940007E-14, 1.124819836996388553E-32, 3.000000000000000000 ) ) ;
#151 = DIRECTION ( 'NONE',  ( -3.491481338843133355E-15, 1.276467311168695266E-16, -1.000000000000000000 ) ) ;
#152 = ORIENTED_EDGE ( 'NONE', *, *, #88, .T. ) ;
#153 = CARTESIAN_POINT ( 'NONE',  ( 1.047444401652940007E-13, -3.673940397442059178E-15, 30.00000000000000000 ) ) ;
#154 = EDGE_CURVE ( 'NONE', #361, #63, #258, .T. ) ;
#155 = DIRECTION ( 'NONE',  ( -3.491481338843133355E-15, 1.224646799147353207E-16, -1.000000000000000000 ) ) ;
#156 = DIRECTION ( 'NONE',  ( 3.491481338843133355E-15, -1.276467311168695266E-16, 1.000000000000000000 ) ) ;
#157 = EDGE_LOOP ( 'NONE', ( #53, #171, #314, #237 ) ) ;
#158 = DIRECTION ( 'NONE',  ( -4.456761796588772289E-31, -1.000000000000000000, -1.276467311168694772E-16 ) ) ;
#159 = AXIS2_PLACEMENT_3D ( 'NONE', #81, #77, #336 ) ;
#160 = CARTESIAN_POINT ( 'NONE',  ( 1.047444401652940007E-14, -3.829401933506085797E-16, 3.000000000000000000 ) ) ;
#161 = EDGE_CURVE ( 'NONE', #361, #162, #231, .T. ) ;
#162 = VERTEX_POINT ( 'NONE', #312 ) ;
#163 = CARTESIAN_POINT ( 'NONE',  ( 6.360091276520580809E-14, 1.499999999999996225, 6.732050807568855433 ) ) ;
#164 = LINE ( 'NONE', #254, #123 ) ;
#165 = AXIS2_PLACEMENT_3D ( 'NONE', #222, #255, #200 ) ;
#166 = AXIS2_PLACEMENT_3D ( 'NONE', #337, #308, #134 ) ;
#167 = ORIENTED_EDGE ( 'NONE', *, *, #342, .F. ) ;
#168 = DIRECTION ( 'NONE',  ( -4.275831445896958607E-31, -1.000000000000000000, -1.224646799147353207E-16 ) ) ;
#169 = EDGE_LOOP ( 'NONE', ( #59, #147, #130, #14 ) ) ;
#170 = DIRECTION ( 'NONE',  ( 3.491481338843133355E-15, -1.276467311168695266E-16, 1.000000000000000000 ) ) ;
#171 = ORIENTED_EDGE ( 'NONE', *, *, #353, .T. ) ;
#172 = COORDINATED_UNIVERSAL_TIME_OFFSET ( 1, 0, .AHEAD. ) ;
#173 = ADVANCED_FACE ( 'NONE', ( #338 ), #40, .T. ) ;
#174 = CIRCLE ( 'NONE', #260, 1.499999999999999334 ) ;
#175 = CC_DESIGN_APPROVAL ( #42, ( #182 ) ) ;
#176 = APPROVAL_ROLE ( '' ) ;
#177 = ORIENTED_EDGE ( 'NONE', *, *, #116, .F. ) ;
#178 = CC_DESIGN_PERSON_AND_ORGANIZATION_ASSIGNMENT ( #243, #187, ( #146 ) ) ;
#179 = DATE_AND_TIME ( #57, #84 ) ;
#180 = LINE ( 'NONE', #31, #5 ) ;
#181 = ORIENTED_EDGE ( 'NONE', *, *, #94, .F. ) ;
#182 = PRODUCT_DEFINITION_FORMATION_WITH_SPECIFIED_SOURCE ( 'ANY', '', #101, .NOT_KNOWN. ) ;
#183 = SHAPE_DEFINITION_REPRESENTATION ( #48, #119 ) ;
#184 = ORIENTED_EDGE ( 'NONE', *, *, #54, .T. ) ;
#185 = PLANE ( 'NONE',  #9 ) ;
#186 = PERSON_AND_ORGANIZATION ( #362, #310 ) ;
#187 = PERSON_AND_ORGANIZATION_ROLE ( 'classification_officer' ) ;
#188 = DIRECTION ( 'NONE',  ( 4.275831445896958607E-31, 1.000000000000000000, 1.224646799147353454E-16 ) ) ;
#189 = EDGE_LOOP ( 'NONE', ( #167, #343 ) ) ;
#190 = DIRECTION ( 'NONE',  ( 0.000000000000000000, -1.000000000000000000, 0.000000000000000000 ) ) ;
#191 = VERTEX_POINT ( 'NONE', #339 ) ;
#192 = PERSON_AND_ORGANIZATION_ROLE ( 'design_owner' ) ;
#193 = DIRECTION ( 'NONE',  ( 0.000000000000000000, 1.000000000000000000, 0.000000000000000000 ) ) ;
#194 = ADVANCED_FACE ( 'NONE', ( #85 ), #206, .F. ) ;
#195 = DIRECTION ( 'NONE',  ( 3.491481338843133355E-15, -1.224646799147353207E-16, 1.000000000000000000 ) ) ;
#196 = DIRECTION ( 'NONE',  ( -3.491481338843133355E-15, 1.224646799147353207E-16, -1.000000000000000000 ) ) ;
#197 = AXIS2_PLACEMENT_3D ( 'NONE', #104, #151, #299 ) ;
#198 = CC_DESIGN_PERSON_AND_ORGANIZATION_ASSIGNMENT ( #287, #192, ( #101 ) ) ;
#199 = DIRECTION ( 'NONE',  ( 3.491481338843133355E-15, -1.276467311168695266E-16, 1.000000000000000000 ) ) ;
#200 = DIRECTION ( 'NONE',  ( -4.275831445896958607E-31, -1.000000000000000000, -1.224646799147353207E-16 ) ) ;
#201 = AXIS2_PLACEMENT_3D ( 'NONE', #279, #107, #230 ) ;
#202 = CIRCLE ( 'NONE', #74, 1.499999999999996891 ) ;
#203 = EDGE_LOOP ( 'NONE', ( #357, #288, #309, #298 ) ) ;
#204 = CIRCLE ( 'NONE', #61, 0.4999999999999989453 ) ;
#205 = APPROVAL_PERSON_ORGANIZATION ( #112, #42, #176 ) ;
#206 = PLANE ( 'NONE',  #56 ) ;
#207 = APPROVAL_ROLE ( '' ) ;
#208 = UNCERTAINTY_MEASURE_WITH_UNIT (LENGTH_MEASURE( 1.000000000000000082E-05 ), #7, 'distance_accuracy_value', 'NONE');
#209 = ORIENTED_EDGE ( 'NONE', *, *, #353, .F. ) ;
#210 = PRODUCT_RELATED_PRODUCT_CATEGORY ( 'detail', '', ( #101 ) ) ;
#211 =( NAMED_UNIT ( * ) PLANE_ANGLE_UNIT ( ) SI_UNIT ( $, .RADIAN. ) );
#212 = VECTOR ( 'NONE', #100, 1000.000000000000000 ) ;
#213 = VERTEX_POINT ( 'NONE', #19 ) ;
#214 = VERTEX_POINT ( 'NONE', #79 ) ;
#215 = DIRECTION ( 'NONE',  ( 0.000000000000000000, -1.000000000000000000, 0.000000000000000000 ) ) ;
#216 = DIRECTION ( 'NONE',  ( 3.491481338843133355E-15, -1.224646799147353207E-16, 1.000000000000000000 ) ) ;
#217 = FACE_OUTER_BOUND ( 'NONE', #89, .T. ) ;
#218 = DIRECTION ( 'NONE',  ( 0.000000000000000000, 1.000000000000000000, 0.000000000000000000 ) ) ;
#219 = CLOSED_SHELL ( 'NONE', ( #29, #144, #236, #34 ) ) ;
#220 = CC_DESIGN_APPROVAL ( #105, ( #146 ) ) ;
#221 = EDGE_LOOP ( 'NONE', ( #65, #102, #58, #341 ) ) ;
#222 = CARTESIAN_POINT ( 'NONE',  ( -4.275765177426567402E-31, 1.499736538811390194E-32, -1.224627819103079735E-16 ) ) ;
#223 = DIRECTION ( 'NONE',  ( 3.491481338843133355E-15, -1.276467311168695266E-16, 1.000000000000000000 ) ) ;
#224 = CARTESIAN_POINT ( 'NONE',  ( 1.036969957636410417E-13, 1.499999999999995781, 29.69999999999999574 ) ) ;
#225 = DIRECTION ( 'NONE',  ( 3.372511997194914833E-15, -0.2588190451025216277, 0.9659258262890679791 ) ) ;
#226 = EDGE_CURVE ( 'NONE', #162, #277, #248, .T. ) ;
#227 = VERTEX_POINT ( 'NONE', #131 ) ;
#228 = CARTESIAN_POINT ( 'NONE',  ( 7.629992850726612600E-14, 5.499999999999996447, 21.66025403784432157 ) ) ;
#229 = DATE_AND_TIME ( #232, #18 ) ;
#230 = DIRECTION ( 'NONE',  ( 0.000000000000000000, -1.000000000000000000, 0.000000000000000000 ) ) ;
#231 = CIRCLE ( 'NONE', #201, 0.4999999999999989453 ) ;
#232 = CALENDAR_DATE ( 2023, 31, 3 ) ;
#233 = ADVANCED_FACE ( 'NONE', ( #139 ), #263, .T. ) ;
#234 = CIRCLE ( 'NONE', #320, 1.199999999999999289 ) ;
#235 = APPLICATION_PROTOCOL_DEFINITION ( 'international standard', 'config_control_design', 1994, #12 ) ;
#236 = ADVANCED_FACE ( 'NONE', ( #97 ), #300, .T. ) ;
#237 = ORIENTED_EDGE ( 'NONE', *, *, #333, .F. ) ;
#238 = CIRCLE ( 'NONE', #159, 0.4999999999999989453 ) ;
#239 = AXIS2_PLACEMENT_3D ( 'NONE', #160, #344, #190 ) ;
#240 = PLANE ( 'NONE',  #165 ) ;
#241 = CC_DESIGN_PERSON_AND_ORGANIZATION_ASSIGNMENT ( #21, #127, ( #182 ) ) ;
#242 = FACE_OUTER_BOUND ( 'NONE', #346, .T. ) ;
#243 = PERSON_AND_ORGANIZATION ( #362, #310 ) ;
#244 = AXIS2_PLACEMENT_3D ( 'NONE', #138, #108, #140 ) ;
#245 = CC_DESIGN_SECURITY_CLASSIFICATION ( #146, ( #182 ) ) ;
#246 = DIRECTION ( 'NONE',  ( 3.491481338843133355E-15, -1.276467311168695266E-16, 1.000000000000000000 ) ) ;
#247 = DATE_TIME_ROLE ( 'classification_date' ) ;
#248 = LINE ( 'NONE', #228, #212 ) ;
#249 = CYLINDRICAL_SURFACE ( 'NONE', #33, 0.4999999999999990563 ) ;
#250 = FACE_OUTER_BOUND ( 'NONE', #169, .T. ) ;
#251 = DIRECTION ( 'NONE',  ( -3.491481338843133355E-15, 1.224646799147353207E-16, -1.000000000000000000 ) ) ;
#252 = ORIENTED_EDGE ( 'NONE', *, *, #265, .F. ) ;
#253 = AXIS2_PLACEMENT_3D ( 'NONE', #129, #196, #75 ) ;
#254 = CARTESIAN_POINT ( 'NONE',  ( 6.123233995736713034E-17, 0.4999999999999990563, -1.198763048022096321E-16 ) ) ;
#255 = DIRECTION ( 'NONE',  ( 3.491481338843133355E-15, -1.224646799147353207E-16, 1.000000000000000000 ) ) ;
#256 = APPROVAL_STATUS ( 'not_yet_approved' ) ;
#257 = CARTESIAN_POINT ( 'NONE',  ( 1.047444401652940007E-13, -3.673940397442059178E-15, 30.00000000000000000 ) ) ;
#258 = LINE ( 'NONE', #306, #340 ) ;
#259 = CARTESIAN_POINT ( 'NONE',  ( 1.036969957636410417E-13, -3.637200993467639107E-15, 29.69999999999999574 ) ) ;
#260 = AXIS2_PLACEMENT_3D ( 'NONE', #275, #23, #76 ) ;
#261 = CC_DESIGN_APPROVAL ( #363, ( #124 ) ) ;
#262 = EDGE_CURVE ( 'NONE', #191, #214, #128, .T. ) ;
#263 = CONICAL_SURFACE ( 'NONE', #110, 1.199999999999999289, 0.7853981633974457255 ) ;
#264 = CARTESIAN_POINT ( 'NONE',  ( 0.000000000000000000, 0.000000000000000000, 0.000000000000000000 ) ) ;
#265 = EDGE_CURVE ( 'NONE', #39, #38, #274, .T. ) ;
#266 = EDGE_LOOP ( 'NONE', ( #272, #356, #181, #252 ) ) ;
#267 = DIRECTION ( 'NONE',  ( 3.491481338843133355E-15, -1.276467311168695266E-16, 1.000000000000000000 ) ) ;
#268 = ADVANCED_FACE ( 'NONE', ( #22 ), #103, .T. ) ;
#269 = APPROVAL_STATUS ( 'not_yet_approved' ) ;
#270 = ORIENTED_EDGE ( 'NONE', *, *, #50, .T. ) ;
#271 = CARTESIAN_POINT ( 'NONE',  ( 1.047444401652940007E-14, -3.829401933506085797E-16, 3.000000000000000000 ) ) ;
#272 = ORIENTED_EDGE ( 'NONE', *, *, #342, .T. ) ;
#273 = LINE ( 'NONE', #95, #45 ) ;
#274 = LINE ( 'NONE', #49, #325 ) ;
#275 = CARTESIAN_POINT ( 'NONE',  ( 1.036969957636410417E-13, -3.637200993467639107E-15, 29.69999999999999574 ) ) ;
#276 = FACE_OUTER_BOUND ( 'NONE', #157, .T. ) ;
#277 = VERTEX_POINT ( 'NONE', #163 ) ;
#278 = ADVANCED_FACE ( 'NONE', ( #276 ), #25, .T. ) ;
#279 = CARTESIAN_POINT ( 'NONE',  ( 1.047444401652940007E-14, -3.829401933506085797E-16, 3.000000000000000000 ) ) ;
#280 = ORIENTED_EDGE ( 'NONE', *, *, #349, .T. ) ;
#281 = CALENDAR_DATE ( 2023, 31, 3 ) ;
#282 = DIRECTION ( 'NONE',  ( 0.000000000000000000, -1.000000000000000000, 0.000000000000000000 ) ) ;
#283 = CARTESIAN_POINT ( 'NONE',  ( 5.298454348222072340E-15, 0.4999999999999991673, 2.449293598294513636E-16 ) ) ;
#284 = AXIS2_PLACEMENT_3D ( 'NONE', #52, #170, #282 ) ;
#285 = DATE_AND_TIME ( #281, #62 ) ;
#286 = ORIENTED_EDGE ( 'NONE', *, *, #321, .F. ) ;
#287 = PERSON_AND_ORGANIZATION ( #362, #310 ) ;
#288 = ORIENTED_EDGE ( 'NONE', *, *, #292, .T. ) ;
#289 = EDGE_CURVE ( 'NONE', #277, #63, #301, .T. ) ;
#290 = ORIENTED_EDGE ( 'NONE', *, *, #262, .T. ) ;
#291 = AXIS2_PLACEMENT_3D ( 'NONE', #307, #156, #47 ) ;
#292 = EDGE_CURVE ( 'NONE', #227, #39, #234, .T. ) ;
#293 = ORIENTED_EDGE ( 'NONE', *, *, #116, .T. ) ;
#294 = DIRECTION ( 'NONE',  ( 0.000000000000000000, 1.000000000000000000, 0.000000000000000000 ) ) ;
#295 =( GEOMETRIC_REPRESENTATION_CONTEXT ( 3 ) GLOBAL_UNCERTAINTY_ASSIGNED_CONTEXT ( ( #208 ) ) GLOBAL_UNIT_ASSIGNED_CONTEXT ( ( #7, #211, #115 ) ) REPRESENTATION_CONTEXT ( 'NONE', 'WORKASPACE' ) );
#296 = CARTESIAN_POINT ( 'NONE',  ( 1.047444401652940007E-13, -3.673940397442059178E-15, 30.00000000000000000 ) ) ;
#297 = DIRECTION ( 'NONE',  ( -3.491481338843133355E-15, 1.224646799147353207E-16, -1.000000000000000000 ) ) ;
#298 = ORIENTED_EDGE ( 'NONE', *, *, #60, .F. ) ;
#299 = DIRECTION ( 'NONE',  ( -2.664535259100375697E-14, -1.000000000000000000, 0.000000000000000000 ) ) ;
#300 = CYLINDRICAL_SURFACE ( 'NONE', #355, 0.4999999999999990563 ) ;
#301 = CIRCLE ( 'NONE', #197, 1.499999999999996891 ) ;
#302 = DIRECTION ( 'NONE',  ( -3.491481338843133355E-15, 1.224646799147353207E-16, -1.000000000000000000 ) ) ;
#303 = CARTESIAN_POINT ( 'NONE',  ( 7.562637276773507006E-14, -2.764860623091801885E-15, 21.66025403784432157 ) ) ;
#304 = CC_DESIGN_PERSON_AND_ORGANIZATION_ASSIGNMENT ( #330, #11, ( #182 ) ) ;
#305 = ORIENTED_EDGE ( 'NONE', *, *, #114, .F. ) ;
#306 = CARTESIAN_POINT ( 'NONE',  ( 7.562637276773507006E-14, -5.500000000000001776, 21.66025403784432157 ) ) ;
#307 = CARTESIAN_POINT ( 'NONE',  ( 6.323281993499507860E-31, -4.656625058315083898E-32, 1.811059942710351879E-16 ) ) ;
#308 = DIRECTION ( 'NONE',  ( -3.491481338843133355E-15, 1.224646799147353207E-16, -1.000000000000000000 ) ) ;
#309 = ORIENTED_EDGE ( 'NONE', *, *, #265, .T. ) ;
#310 = ORGANIZATION ( 'UNSPECIFIED', 'UNSPECIFIED', '' ) ;
#311 = DATE_TIME_ROLE ( 'creation_date' ) ;
#312 = CARTESIAN_POINT ( 'NONE',  ( 1.711210157156467823E-14, 0.4999999999999985012, 3.000000000000000000 ) ) ;
#313 = APPROVAL_DATE_TIME ( #285, #363 ) ;
#314 = ORIENTED_EDGE ( 'NONE', *, *, #289, .F. ) ;
#315 = DIRECTION ( 'NONE',  ( -3.491481338843133355E-15, 1.224646799147353207E-16, -1.000000000000000000 ) ) ;
#316 = APPROVAL_STATUS ( 'not_yet_approved' ) ;
#317 = CARTESIAN_POINT ( 'NONE',  ( 6.378460978507787294E-14, -1.499999999999997780, 6.732050807568855433 ) ) ;
#318 = DIRECTION ( 'NONE',  ( -3.491481338843133355E-15, 1.224646799147353207E-16, -1.000000000000000000 ) ) ;
#319 = ORIENTED_EDGE ( 'NONE', *, *, #50, .F. ) ;
#320 = AXIS2_PLACEMENT_3D ( 'NONE', #296, #318, #294 ) ;
#321 = EDGE_CURVE ( 'NONE', #63, #277, #202, .T. ) ;
#322 = MECHANICAL_CONTEXT ( 'NONE', #359, 'mechanical' ) ;
#323 = ORIENTED_EDGE ( 'NONE', *, *, #262, .F. ) ;
#324 = CARTESIAN_POINT ( 'NONE',  ( 6.378460978507775935E-14, -1.500000000000003109, 29.69999999999999574 ) ) ;
#325 = VECTOR ( 'NONE', #106, 1000.000000000000000 ) ;
#326 = DIRECTION ( 'NONE',  ( -3.491481338843133355E-15, 1.276467311168695266E-16, -1.000000000000000000 ) ) ;
#327 = ADVANCED_FACE ( 'NONE', ( #350 ), #69, .T. ) ;
#328 = DIRECTION ( 'NONE',  ( 0.000000000000000000, 0.000000000000000000, 1.000000000000000000 ) ) ;
#329 = MANIFOLD_SOLID_BREP ( 'Corps-Déplacer/Copier1[1]', #36 ) ;
#330 = PERSON_AND_ORGANIZATION ( #362, #310 ) ;
#331 = CIRCLE ( 'NONE', #82, 1.499999999999999334 ) ;
#332 = APPROVAL_PERSON_ORGANIZATION ( #186, #363, #86 ) ;
#333 = EDGE_CURVE ( 'NONE', #38, #277, #273, .T. ) ;
#334 = PLANE ( 'NONE',  #253 ) ;
#335 = CARTESIAN_POINT ( 'NONE',  ( 1.047444401652940007E-13, -3.673940397442059178E-15, 30.00000000000000000 ) ) ;
#336 = DIRECTION ( 'NONE',  ( 0.000000000000000000, -1.000000000000000000, 0.000000000000000000 ) ) ;
#337 = CARTESIAN_POINT ( 'NONE',  ( 0.000000000000000000, 0.000000000000000000, 0.000000000000000000 ) ) ;
#338 = FACE_OUTER_BOUND ( 'NONE', #221, .T. ) ;
#339 = CARTESIAN_POINT ( 'NONE',  ( 4.094901095205126532E-31, -0.4999999999999991673, 1.172826287126005232E-16 ) ) ;
#340 = VECTOR ( 'NONE', #225, 1000.000000000000114 ) ;
#341 = ORIENTED_EDGE ( 'NONE', *, *, #154, .F. ) ;
#342 = EDGE_CURVE ( 'NONE', #39, #227, #27, .T. ) ;
#343 = ORIENTED_EDGE ( 'NONE', *, *, #292, .F. ) ;
#344 = DIRECTION ( 'NONE',  ( 3.491481338843133355E-15, -1.276467311168695266E-16, 1.000000000000000000 ) ) ;
#345 = ORIENTED_EDGE ( 'NONE', *, *, #60, .T. ) ;
#346 = EDGE_LOOP ( 'NONE', ( #152, #293, #319, #323 ) ) ;
#347 = CARTESIAN_POINT ( 'NONE',  ( 0.000000000000000000, 0.000000000000000000, 0.000000000000000000 ) ) ;
#348 = COORDINATED_UNIVERSAL_TIME_OFFSET ( 1, 0, .AHEAD. ) ;
#349 = EDGE_CURVE ( 'NONE', #213, #214, #17, .T. ) ;
#350 = FACE_OUTER_BOUND ( 'NONE', #132, .T. ) ;
#351 = AXIS2_PLACEMENT_3D ( 'NONE', #264, #328, #71 ) ;
#352 = CALENDAR_DATE ( 2023, 31, 3 ) ;
#353 = EDGE_CURVE ( 'NONE', #24, #63, #145, .T. ) ;
#354 = DIRECTION ( 'NONE',  ( -4.456761796588772289E-31, -1.000000000000000000, -1.276467311168694772E-16 ) ) ;
#355 = AXIS2_PLACEMENT_3D ( 'NONE', #83, #199, #354 ) ;
#356 = ORIENTED_EDGE ( 'NONE', *, *, #87, .T. ) ;
#357 = ORIENTED_EDGE ( 'NONE', *, *, #87, .F. ) ;
#358 = PERSON_AND_ORGANIZATION ( #362, #310 ) ;
#359 = APPLICATION_CONTEXT ( 'configuration controlled 3d designs of mechanical parts and assemblies' ) ;
#360 = DIRECTION ( 'NONE',  ( -4.275831445896958607E-31, -1.000000000000000000, -1.224646799147353207E-16 ) ) ;
#361 = VERTEX_POINT ( 'NONE', #13 ) ;
#362 = PERSON ( 'UNSPECIFIED', 'UNSPECIFIED', 'UNSPECIFIED', ('UNSPECIFIED'), ('UNSPECIFIED'), ('UNSPECIFIED') ) ;
#363 = APPROVAL ( #269, 'UNSPECIFIED' ) ;
ENDSEC;
END-ISO-10303-21;
