ISO-10303-21;
HEADER;
FILE_DESCRIPTION (( 'STEP AP203' ),
    '1' );
FILE_NAME ('372680.step',
    '2021-12-08T09:33:41',
    ( '' ),
    ( '' ),
    'SwSTEP 2.0',
    'SolidWorks 2019',
    '' );
FILE_SCHEMA (( 'CONFIG_CONTROL_DESIGN' ));
ENDSEC;

DATA;
#1 = DIRECTION ( 'NONE',  ( 3.491481338843133355E-15, -1.224646799147353207E-16, 1.000000000000000000 ) ) ;
#2 = PLANE ( 'NONE',  #184 ) ;
#3 = AXIS2_PLACEMENT_3D ( 'NONE', #98, #171, #22 ) ;
#4 = DIRECTION ( 'NONE',  ( -4.275831445896958607E-31, -1.000000000000000000, -1.224646799147353207E-16 ) ) ;
#5 = EDGE_LOOP ( 'NONE', ( #79 ) ) ;
#6 = CC_DESIGN_PERSON_AND_ORGANIZATION_ASSIGNMENT ( #18, #202, ( #82 ) ) ;
#7 = PERSON_AND_ORGANIZATION ( #120, #196 ) ;
#8 = APPROVAL_PERSON_ORGANIZATION ( #92, #172, #70 ) ;
#9 = COORDINATED_UNIVERSAL_TIME_OFFSET ( 1, 0, .AHEAD. ) ;
#10 = ADVANCED_BREP_SHAPE_REPRESENTATION ( '372680', ( #165, #64, #57 ), #30 ) ;
#11 = CARTESIAN_POINT ( 'NONE',  ( 2.751287295008388832E-13, -9.650216777281142612E-15, 78.79999999999999716 ) ) ;
#12 = FACE_OUTER_BOUND ( 'NONE', #34, .T. ) ;
#13 = CARTESIAN_POINT ( 'NONE',  ( 1.047444401652940007E-13, -3.673940397442059178E-15, 30.00000000000000000 ) ) ;
#14 = COORDINATED_UNIVERSAL_TIME_OFFSET ( 1, 0, .AHEAD. ) ;
#15 = ADVANCED_FACE ( 'NONE', ( #139 ), #32, .F. ) ;
#16 = SHAPE_DEFINITION_REPRESENTATION ( #186, #10 ) ;
#17 = APPROVAL ( #123, 'UNSPECIFIED' ) ;
#18 = PERSON_AND_ORGANIZATION ( #120, #196 ) ;
#19 = CARTESIAN_POINT ( 'NONE',  ( 2.793185071074506684E-13, 4.799999999999991829, 80.00000000000000000 ) ) ;
#20 = CIRCLE ( 'NONE', #86, 5.999999999999994671 ) ;
#21 = APPLICATION_PROTOCOL_DEFINITION ( 'international standard', 'config_control_design', 1994, #26 ) ;
#22 = DIRECTION ( 'NONE',  ( -4.275831445896958607E-31, -1.000000000000000000, -1.224646799147353207E-16 ) ) ;
#23 = CARTESIAN_POINT ( 'NONE',  ( 0.0000000000000000000, 0.0000000000000000000, 0.0000000000000000000 ) ) ;
#24 = CIRCLE ( 'NONE', #201, 5.999999999999994671 ) ;
#25 = EDGE_LOOP ( 'NONE', ( #84 ) ) ;
#26 = APPLICATION_CONTEXT ( 'configuration controlled 3d designs of mechanical parts and assemblies' ) ;
#27 = APPROVAL_DATE_TIME ( #192, #200 ) ;
#28 = CARTESIAN_POINT ( 'NONE',  ( 0.0000000000000000000, 0.0000000000000000000, 0.0000000000000000000 ) ) ;
#29 = DATE_AND_TIME ( #83, #112 ) ;
#30 =( GEOMETRIC_REPRESENTATION_CONTEXT ( 3 ) GLOBAL_UNCERTAINTY_ASSIGNED_CONTEXT ( ( #136 ) ) GLOBAL_UNIT_ASSIGNED_CONTEXT ( ( #129, #187, #118 ) ) REPRESENTATION_CONTEXT ( 'NONE', 'WORKASPACE' ) );
#31 = DIRECTION ( 'NONE',  ( -3.491481338843133355E-15, 1.224646799147353207E-16, -1.000000000000000000 ) ) ;
#32 = PLANE ( 'NONE',  #3 ) ;
#33 = CARTESIAN_POINT ( 'NONE',  ( 1.047444401652940007E-13, 5.999999999999991118, 30.00000000000000000 ) ) ;
#34 = EDGE_LOOP ( 'NONE', ( #114 ) ) ;
#35 = APPROVAL_PERSON_ORGANIZATION ( #87, #17, #133 ) ;
#36 = ORIENTED_EDGE ( 'NONE', *, *, #127, .F. ) ;
#37 = PRODUCT ( '372680', '372680', '', ( #140 ) ) ;
#38 = ORIENTED_EDGE ( 'NONE', *, *, #194, .F. ) ;
#39 = ADVANCED_FACE ( 'NONE', ( #156 ), #113, .F. ) ;
#40 = ADVANCED_FACE ( 'NONE', ( #203 ), #2, .F. ) ;
#41 = DATE_AND_TIME ( #71, #199 ) ;
#42 = APPROVAL_STATUS ( 'not_yet_approved' ) ;
#43 = DIRECTION ( 'NONE',  ( 4.275831445896959482E-31, 1.000000000000000000, 1.224646799147353207E-16 ) ) ;
#44 = DIRECTION ( 'NONE',  ( 0.0000000000000000000, 1.000000000000000000, 0.0000000000000000000 ) ) ;
#45 = CC_DESIGN_DATE_AND_TIME_ASSIGNMENT ( #41, #150, ( #134 ) ) ;
#46 = VERTEX_POINT ( 'NONE', #19 ) ;
#47 = EDGE_LOOP ( 'NONE', ( #193 ) ) ;
#48 = ADVANCED_FACE ( 'NONE', ( #132 ), #131, .T. ) ;
#49 = CARTESIAN_POINT ( 'NONE',  ( 2.751287295008388832E-13, 5.999999999999991118, 78.79999999999999716 ) ) ;
#50 = DIRECTION ( 'NONE',  ( -3.491481338843133355E-15, 1.224646799147353207E-16, -1.000000000000000000 ) ) ;
#51 = PRODUCT_RELATED_PRODUCT_CATEGORY ( 'detail', '', ( #37 ) ) ;
#52 = VERTEX_POINT ( 'NONE', #152 ) ;
#53 = CARTESIAN_POINT ( 'NONE',  ( 1.047444401652940007E-13, 4.499279347985564065E-32, 30.00000000000000000 ) ) ;
#54 = COORDINATED_UNIVERSAL_TIME_OFFSET ( 1, 0, .AHEAD. ) ;
#55 = CC_DESIGN_SECURITY_CLASSIFICATION ( #134, ( #82 ) ) ;
#56 = PERSON_AND_ORGANIZATION_ROLE ( 'design_owner' ) ;
#57 = AXIS2_PLACEMENT_3D ( 'NONE', #23, #170, #97 ) ;
#58 = DIRECTION ( 'NONE',  ( -3.491481338843133355E-15, 1.224646799147353207E-16, -1.000000000000000000 ) ) ;
#59 = CYLINDRICAL_SURFACE ( 'NONE', #116, 5.999999999999992895 ) ;
#60 = CARTESIAN_POINT ( 'NONE',  ( 1.047444401652940007E-13, -3.673940397442059178E-15, 30.00000000000000000 ) ) ;
#61 = DIRECTION ( 'NONE',  ( -3.491481338843133355E-15, 1.224646799147353207E-16, -1.000000000000000000 ) ) ;
#62 = ORIENTED_EDGE ( 'NONE', *, *, #194, .T. ) ;
#63 = DIRECTION ( 'NONE',  ( -4.275831445896958607E-31, -1.000000000000000000, -1.224646799147353207E-16 ) ) ;
#64 = MANIFOLD_SOLID_BREP ( 'Corps-Déplacer/Copier1[2]', #109 ) ;
#65 = DIRECTION ( 'NONE',  ( 4.275831445896958607E-31, 1.000000000000000000, 1.224646799147353207E-16 ) ) ;
#66 = CC_DESIGN_APPROVAL ( #172, ( #134 ) ) ;
#67 = CALENDAR_DATE ( 2021, 8, 12 ) ;
#68 = PERSON_AND_ORGANIZATION_ROLE ( 'creator' ) ;
#69 = AXIS2_PLACEMENT_3D ( 'NONE', #11, #31, #149 ) ;
#70 = APPROVAL_ROLE ( '' ) ;
#71 = CALENDAR_DATE ( 2021, 8, 12 ) ;
#72 = COORDINATED_UNIVERSAL_TIME_OFFSET ( 1, 0, .AHEAD. ) ;
#73 = DIRECTION ( 'NONE',  ( 0.0000000000000000000, 1.000000000000000000, 0.0000000000000000000 ) ) ;
#74 = AXIS2_PLACEMENT_3D ( 'NONE', #28, #121, #88 ) ;
#75 = FACE_OUTER_BOUND ( 'NONE', #142, .T. ) ;
#76 = VERTEX_POINT ( 'NONE', #33 ) ;
#77 = AXIS2_PLACEMENT_3D ( 'NONE', #96, #147, #73 ) ;
#78 = CARTESIAN_POINT ( 'NONE',  ( -1.068961779941895936E-30, 3.749413200789030543E-32, -3.061628220805801239E-16 ) ) ;
#79 = ORIENTED_EDGE ( 'NONE', *, *, #177, .T. ) ;
#80 = ADVANCED_FACE ( 'NONE', ( #191, #130 ), #176, .T. ) ;
#81 = ORIENTED_EDGE ( 'NONE', *, *, #155, .F. ) ;
#82 = PRODUCT_DEFINITION_FORMATION_WITH_SPECIFIED_SOURCE ( 'ANY', '', #37, .NOT_KNOWN. ) ;
#83 = CALENDAR_DATE ( 2021, 8, 12 ) ;
#84 = ORIENTED_EDGE ( 'NONE', *, *, #85, .T. ) ;
#85 = EDGE_CURVE ( 'NONE', #110, #110, #161, .T. ) ;
#86 = AXIS2_PLACEMENT_3D ( 'NONE', #60, #181, #44 ) ;
#87 = PERSON_AND_ORGANIZATION ( #120, #196 ) ;
#88 = DIRECTION ( 'NONE',  ( 4.275831445896958607E-31, 1.000000000000000000, 1.224646799147353207E-16 ) ) ;
#89 = CC_DESIGN_DATE_AND_TIME_ASSIGNMENT ( #104, #162, ( #128 ) ) ;
#90 = CARTESIAN_POINT ( 'NONE',  ( -2.137923559883791872E-30, 7.498826401578061086E-32, -6.123256441611602477E-16 ) ) ;
#91 = DESIGN_CONTEXT ( 'detailed design', #115, 'design' ) ;
#92 = PERSON_AND_ORGANIZATION ( #120, #196 ) ;
#93 = APPROVAL_DATE_TIME ( #29, #17 ) ;
#94 = CIRCLE ( 'NONE', #69, 6.000000000000000888 ) ;
#95 = DIRECTION ( 'NONE',  ( -3.491481338843133355E-15, 1.224646799147353207E-16, -1.000000000000000000 ) ) ;
#96 = CARTESIAN_POINT ( 'NONE',  ( 2.793185071074506684E-13, -9.797174393178826052E-15, 80.00000000000000000 ) ) ;
#97 = DIRECTION ( 'NONE',  ( 1.000000000000000000, 0.0000000000000000000, 0.0000000000000000000 ) ) ;
#98 = CARTESIAN_POINT ( 'NONE',  ( 1.047444401652940007E-13, 4.499279347985564065E-32, 30.00000000000000000 ) ) ;
#99 = DIRECTION ( 'NONE',  ( 3.491481338843133355E-15, -1.224646799147353207E-16, 1.000000000000000000 ) ) ;
#100 = SECURITY_CLASSIFICATION_LEVEL ( 'unclassified' ) ;
#101 = EDGE_LOOP ( 'NONE', ( #62 ) ) ;
#102 = LOCAL_TIME ( 10, 33, 41.00000000000000000, #178 ) ;
#103 = CYLINDRICAL_SURFACE ( 'NONE', #74, 5.999999999999998224 ) ;
#104 = DATE_AND_TIME ( #67, #189 ) ;
#105 = ADVANCED_FACE ( 'NONE', ( #124, #12 ), #103, .T. ) ;
#106 = AXIS2_PLACEMENT_3D ( 'NONE', #90, #58, #43 ) ;
#107 = PERSON_AND_ORGANIZATION_ROLE ( 'classification_officer' ) ;
#108 = DIRECTION ( 'NONE',  ( 0.0000000000000000000, 1.000000000000000000, 0.0000000000000000000 ) ) ;
#109 = CLOSED_SHELL ( 'NONE', ( #39, #137, #48 ) ) ;
#110 = VERTEX_POINT ( 'NONE', #167 ) ;
#111 = APPROVAL_DATE_TIME ( #197, #172 ) ;
#112 = LOCAL_TIME ( 10, 33, 41.00000000000000000, #9 ) ;
#113 = PLANE ( 'NONE',  #126 ) ;
#114 = ORIENTED_EDGE ( 'NONE', *, *, #127, .T. ) ;
#115 = APPLICATION_CONTEXT ( 'configuration controlled 3d designs of mechanical parts and assemblies' ) ;
#116 = AXIS2_PLACEMENT_3D ( 'NONE', #179, #95, #198 ) ;
#117 = ORIENTED_EDGE ( 'NONE', *, *, #177, .F. ) ;
#118 =( NAMED_UNIT ( * ) SI_UNIT ( $, .STERADIAN. ) SOLID_ANGLE_UNIT ( ) );
#119 = EDGE_LOOP ( 'NONE', ( #38 ) ) ;
#120 = PERSON ( 'UNSPECIFIED', 'UNSPECIFIED', 'UNSPECIFIED', ('UNSPECIFIED'), ('UNSPECIFIED'), ('UNSPECIFIED') ) ;
#121 = DIRECTION ( 'NONE',  ( -3.491481338843133355E-15, 1.224646799147353207E-16, -1.000000000000000000 ) ) ;
#122 = CIRCLE ( 'NONE', #77, 4.800000000000001599 ) ;
#123 = APPROVAL_STATUS ( 'not_yet_approved' ) ;
#124 = FACE_OUTER_BOUND ( 'NONE', #141, .T. ) ;
#125 = CC_DESIGN_PERSON_AND_ORGANIZATION_ASSIGNMENT ( #135, #56, ( #37 ) ) ;
#126 = AXIS2_PLACEMENT_3D ( 'NONE', #78, #99, #4 ) ;
#127 = EDGE_CURVE ( 'NONE', #183, #183, #94, .T. ) ;
#128 = PRODUCT_DEFINITION ( 'UNKNOWN', '', #82, #91 ) ;
#129 =( LENGTH_UNIT ( ) NAMED_UNIT ( * ) SI_UNIT ( .MILLI., .METRE. ) );
#130 = FACE_BOUND ( 'NONE', #5, .T. ) ;
#131 = PLANE ( 'NONE',  #158 ) ;
#132 = FACE_OUTER_BOUND ( 'NONE', #119, .T. ) ;
#133 = APPROVAL_ROLE ( '' ) ;
#134 = SECURITY_CLASSIFICATION ( '', '', #100 ) ;
#135 = PERSON_AND_ORGANIZATION ( #120, #196 ) ;
#136 = UNCERTAINTY_MEASURE_WITH_UNIT (LENGTH_MEASURE( 1.000000000000000082E-05 ), #129, 'distance_accuracy_value', 'NONE');
#137 = ADVANCED_FACE ( 'NONE', ( #75, #151 ), #59, .T. ) ;
#138 = LOCAL_TIME ( 10, 33, 41.00000000000000000, #14 ) ;
#139 = FACE_OUTER_BOUND ( 'NONE', #47, .T. ) ;
#140 = MECHANICAL_CONTEXT ( 'NONE', #26, 'mechanical' ) ;
#141 = EDGE_LOOP ( 'NONE', ( #81 ) ) ;
#142 = EDGE_LOOP ( 'NONE', ( #174 ) ) ;
#143 = EDGE_LOOP ( 'NONE', ( #36 ) ) ;
#144 = PERSON_AND_ORGANIZATION ( #120, #196 ) ;
#145 = AXIS2_PLACEMENT_3D ( 'NONE', #188, #50, #175 ) ;
#146 = APPROVAL_STATUS ( 'not_yet_approved' ) ;
#147 = DIRECTION ( 'NONE',  ( -3.491481338843133355E-15, 1.224646799147353207E-16, -1.000000000000000000 ) ) ;
#148 = CC_DESIGN_PERSON_AND_ORGANIZATION_ASSIGNMENT ( #144, #68, ( #128 ) ) ;
#149 = DIRECTION ( 'NONE',  ( 0.0000000000000000000, 1.000000000000000000, 0.0000000000000000000 ) ) ;
#150 = DATE_TIME_ROLE ( 'classification_date' ) ;
#151 = FACE_OUTER_BOUND ( 'NONE', #101, .T. ) ;
#152 = CARTESIAN_POINT ( 'NONE',  ( 1.047444401652940007E-13, 5.999999999999991118, 30.00000000000000000 ) ) ;
#153 = CARTESIAN_POINT ( 'NONE',  ( 2.793185071074506684E-13, 3.599423478388445122E-32, 80.00000000000000000 ) ) ;
#154 = DIRECTION ( 'NONE',  ( -3.491481338843133355E-15, 1.224646799147353207E-16, -1.000000000000000000 ) ) ;
#155 = EDGE_CURVE ( 'NONE', #52, #52, #24, .T. ) ;
#156 = FACE_OUTER_BOUND ( 'NONE', #25, .T. ) ;
#157 = EDGE_LOOP ( 'NONE', ( #117 ) ) ;
#158 = AXIS2_PLACEMENT_3D ( 'NONE', #53, #1, #63 ) ;
#159 = PERSON_AND_ORGANIZATION ( #120, #196 ) ;
#160 = APPROVAL_ROLE ( '' ) ;
#161 = CIRCLE ( 'NONE', #106, 5.999999999999991118 ) ;
#162 = DATE_TIME_ROLE ( 'creation_date' ) ;
#163 = CALENDAR_DATE ( 2021, 8, 12 ) ;
#164 = CC_DESIGN_APPROVAL ( #17, ( #82 ) ) ;
#165 = MANIFOLD_SOLID_BREP ( 'Corps-Déplacer/Copier1[1]', #182 ) ;
#166 = CALENDAR_DATE ( 2021, 8, 12 ) ;
#167 = CARTESIAN_POINT ( 'NONE',  ( 4.275753076543797008E-31, 5.999999999999991118, 1.224624353272506412E-16 ) ) ;
#168 = APPROVAL_PERSON_ORGANIZATION ( #159, #200, #160 ) ;
#169 = CC_DESIGN_PERSON_AND_ORGANIZATION_ASSIGNMENT ( #190, #173, ( #82 ) ) ;
#170 = DIRECTION ( 'NONE',  ( 0.0000000000000000000, 0.0000000000000000000, 1.000000000000000000 ) ) ;
#171 = DIRECTION ( 'NONE',  ( 3.491481338843133355E-15, -1.224646799147353207E-16, 1.000000000000000000 ) ) ;
#172 = APPROVAL ( #146, 'UNSPECIFIED' ) ;
#173 = PERSON_AND_ORGANIZATION_ROLE ( 'design_supplier' ) ;
#174 = ORIENTED_EDGE ( 'NONE', *, *, #85, .F. ) ;
#175 = DIRECTION ( 'NONE',  ( 0.0000000000000000000, 1.000000000000000000, 0.0000000000000000000 ) ) ;
#176 = CONICAL_SURFACE ( 'NONE', #145, 4.800000000000001599, 0.7853981633974453924 ) ;
#177 = EDGE_CURVE ( 'NONE', #46, #46, #122, .T. ) ;
#178 = COORDINATED_UNIVERSAL_TIME_OFFSET ( 1, 0, .AHEAD. ) ;
#179 = CARTESIAN_POINT ( 'NONE',  ( 0.0000000000000000000, 0.0000000000000000000, 0.0000000000000000000 ) ) ;
#180 = CC_DESIGN_APPROVAL ( #200, ( #128 ) ) ;
#181 = DIRECTION ( 'NONE',  ( -3.491481338843133355E-15, 1.224646799147353207E-16, -1.000000000000000000 ) ) ;
#182 = CLOSED_SHELL ( 'NONE', ( #15, #105, #80, #40 ) ) ;
#183 = VERTEX_POINT ( 'NONE', #49 ) ;
#184 = AXIS2_PLACEMENT_3D ( 'NONE', #153, #154, #65 ) ;
#185 = CC_DESIGN_PERSON_AND_ORGANIZATION_ASSIGNMENT ( #7, #107, ( #134 ) ) ;
#186 = PRODUCT_DEFINITION_SHAPE ( 'NONE', 'NONE',  #128 ) ;
#187 =( NAMED_UNIT ( * ) PLANE_ANGLE_UNIT ( ) SI_UNIT ( $, .RADIAN. ) );
#188 = CARTESIAN_POINT ( 'NONE',  ( 2.793185071074506684E-13, -9.797174393178826052E-15, 80.00000000000000000 ) ) ;
#189 = LOCAL_TIME ( 10, 33, 41.00000000000000000, #54 ) ;
#190 = PERSON_AND_ORGANIZATION ( #120, #196 ) ;
#191 = FACE_OUTER_BOUND ( 'NONE', #143, .T. ) ;
#192 = DATE_AND_TIME ( #163, #102 ) ;
#193 = ORIENTED_EDGE ( 'NONE', *, *, #155, .T. ) ;
#194 = EDGE_CURVE ( 'NONE', #76, #76, #20, .T. ) ;
#195 = APPLICATION_PROTOCOL_DEFINITION ( 'international standard', 'config_control_design', 1994, #115 ) ;
#196 = ORGANIZATION ( 'UNSPECIFIED', 'UNSPECIFIED', '' ) ;
#197 = DATE_AND_TIME ( #166, #138 ) ;
#198 = DIRECTION ( 'NONE',  ( 4.275831445896958607E-31, 1.000000000000000000, 1.224646799147353207E-16 ) ) ;
#199 = LOCAL_TIME ( 10, 33, 41.00000000000000000, #72 ) ;
#200 = APPROVAL ( #42, 'UNSPECIFIED' ) ;
#201 = AXIS2_PLACEMENT_3D ( 'NONE', #13, #61, #108 ) ;
#202 = PERSON_AND_ORGANIZATION_ROLE ( 'creator' ) ;
#203 = FACE_OUTER_BOUND ( 'NONE', #157, .T. ) ;
ENDSEC;
END-ISO-10303-21;
