ISO-10303-21;
HEADER;
FILE_DESCRIPTION (( 'STEP AP203' ),
    '1' );
FILE_NAME ('372679.step',
    '2021-12-08T09:33:40',
    ( '' ),
    ( '' ),
    'SwSTEP 2.0',
    'SolidWorks 2019',
    '' );
FILE_SCHEMA (( 'CONFIG_CONTROL_DESIGN' ));
ENDSEC;

DATA;
#1 = EDGE_CURVE ( 'NONE', #110, #110, #158, .T. ) ;
#2 = PLANE ( 'NONE',  #18 ) ;
#3 = APPLICATION_CONTEXT ( 'configuration controlled 3d designs of mechanical parts and assemblies' ) ;
#4 = FACE_OUTER_BOUND ( 'NONE', #53, .T. ) ;
#5 = CARTESIAN_POINT ( 'NONE',  ( 2.618611004132350143E-13, -9.184850993605148733E-15, 75.00000000000000000 ) ) ;
#6 = CLOSED_SHELL ( 'NONE', ( #29, #153, #172 ) ) ;
#7 = PERSON_AND_ORGANIZATION ( #140, #36 ) ;
#8 = CARTESIAN_POINT ( 'NONE',  ( 1.047444401652940007E-13, 4.999999999999990230, 30.00000000000000000 ) ) ;
#9 = COORDINATED_UNIVERSAL_TIME_OFFSET ( 1, 0, .AHEAD. ) ;
#10 = CALENDAR_DATE ( 2021, 8, 12 ) ;
#11 = CARTESIAN_POINT ( 'NONE',  ( 2.583696190743918430E-13, -9.062386313690413585E-15, 74.00000000000000000 ) ) ;
#12 = CARTESIAN_POINT ( 'NONE',  ( 2.618611004132350143E-13, 2.999519565323700984E-32, 75.00000000000000000 ) ) ;
#13 = APPROVAL_ROLE ( '' ) ;
#14 = ORIENTED_EDGE ( 'NONE', *, *, #67, .F. ) ;
#15 = AXIS2_PLACEMENT_3D ( 'NONE', #108, #95, #77 ) ;
#16 = CC_DESIGN_APPROVAL ( #125, ( #83 ) ) ;
#17 = DATE_AND_TIME ( #150, #183 ) ;
#18 = AXIS2_PLACEMENT_3D ( 'NONE', #91, #22, #63 ) ;
#19 = PRODUCT ( '372679', '372679', '', ( #159 ) ) ;
#20 = FACE_OUTER_BOUND ( 'NONE', #200, .T. ) ;
#21 = PERSON_AND_ORGANIZATION_ROLE ( 'design_owner' ) ;
#22 = DIRECTION ( 'NONE',  ( 3.491481338843133355E-15, -1.224646799147353207E-16, 1.000000000000000000 ) ) ;
#23 = CALENDAR_DATE ( 2021, 8, 12 ) ;
#24 = PERSON_AND_ORGANIZATION ( #140, #36 ) ;
#25 = PERSON_AND_ORGANIZATION ( #140, #36 ) ;
#26 = ADVANCED_BREP_SHAPE_REPRESENTATION ( '372679', ( #145, #143, #45 ), #60 ) ;
#27 = CALENDAR_DATE ( 2021, 8, 12 ) ;
#28 = EDGE_LOOP ( 'NONE', ( #64 ) ) ;
#29 = ADVANCED_FACE ( 'NONE', ( #51 ), #68, .F. ) ;
#30 = LOCAL_TIME ( 10, 33, 40.00000000000000000, #104 ) ;
#31 = DIRECTION ( 'NONE',  ( 0.0000000000000000000, 1.000000000000000000, 0.0000000000000000000 ) ) ;
#32 = CARTESIAN_POINT ( 'NONE',  ( -1.710340415294095486E-30, 5.999066618916201289E-32, -4.898609642464248037E-16 ) ) ;
#33 = CYLINDRICAL_SURFACE ( 'NONE', #15, 4.999999999999996447 ) ;
#34 = CC_DESIGN_PERSON_AND_ORGANIZATION_ASSIGNMENT ( #102, #89, ( #173 ) ) ;
#35 = VERTEX_POINT ( 'NONE', #96 ) ;
#36 = ORGANIZATION ( 'UNSPECIFIED', 'UNSPECIFIED', '' ) ;
#37 = DIRECTION ( 'NONE',  ( 1.000000000000000000, 0.0000000000000000000, 0.0000000000000000000 ) ) ;
#38 = APPROVAL_ROLE ( '' ) ;
#39 = AXIS2_PLACEMENT_3D ( 'NONE', #32, #127, #142 ) ;
#40 = DATE_AND_TIME ( #27, #99 ) ;
#41 = EDGE_LOOP ( 'NONE', ( #166 ) ) ;
#42 = APPLICATION_PROTOCOL_DEFINITION ( 'international standard', 'config_control_design', 1994, #86 ) ;
#43 = DIRECTION ( 'NONE',  ( -3.491481338843133355E-15, 1.224646799147353207E-16, -1.000000000000000000 ) ) ;
#44 = CC_DESIGN_DATE_AND_TIME_ASSIGNMENT ( #40, #165, ( #83 ) ) ;
#45 = AXIS2_PLACEMENT_3D ( 'NONE', #50, #52, #37 ) ;
#46 = FACE_OUTER_BOUND ( 'NONE', #41, .T. ) ;
#47 = EDGE_CURVE ( 'NONE', #129, #129, #92, .T. ) ;
#48 = DIRECTION ( 'NONE',  ( -3.491481338843133355E-15, 1.224646799147353207E-16, -1.000000000000000000 ) ) ;
#49 = CARTESIAN_POINT ( 'NONE',  ( 2.583696190743918430E-13, 4.999999999999990230, 74.00000000000000000 ) ) ;
#50 = CARTESIAN_POINT ( 'NONE',  ( 0.0000000000000000000, 0.0000000000000000000, 0.0000000000000000000 ) ) ;
#51 = FACE_OUTER_BOUND ( 'NONE', #123, .T. ) ;
#52 = DIRECTION ( 'NONE',  ( 0.0000000000000000000, 0.0000000000000000000, 1.000000000000000000 ) ) ;
#53 = EDGE_LOOP ( 'NONE', ( #122 ) ) ;
#54 = SECURITY_CLASSIFICATION_LEVEL ( 'unclassified' ) ;
#55 = LOCAL_TIME ( 10, 33, 40.00000000000000000, #164 ) ;
#56 = ORIENTED_EDGE ( 'NONE', *, *, #195, .F. ) ;
#57 = CC_DESIGN_APPROVAL ( #189, ( #94 ) ) ;
#58 = DIRECTION ( 'NONE',  ( -3.491481338843133355E-15, 1.224646799147353207E-16, -1.000000000000000000 ) ) ;
#59 = AXIS2_PLACEMENT_3D ( 'NONE', #134, #115, #148 ) ;
#60 =( GEOMETRIC_REPRESENTATION_CONTEXT ( 3 ) GLOBAL_UNCERTAINTY_ASSIGNED_CONTEXT ( ( #139 ) ) GLOBAL_UNIT_ASSIGNED_CONTEXT ( ( #178, #131, #185 ) ) REPRESENTATION_CONTEXT ( 'NONE', 'WORKASPACE' ) );
#61 = FACE_OUTER_BOUND ( 'NONE', #151, .T. ) ;
#62 = CYLINDRICAL_SURFACE ( 'NONE', #128, 4.999999999999992006 ) ;
#63 = DIRECTION ( 'NONE',  ( -4.275831445896958607E-31, -1.000000000000000000, -1.224646799147353207E-16 ) ) ;
#64 = ORIENTED_EDGE ( 'NONE', *, *, #84, .F. ) ;
#65 = AXIS2_PLACEMENT_3D ( 'NONE', #155, #154, #31 ) ;
#66 = CALENDAR_DATE ( 2021, 8, 12 ) ;
#67 = EDGE_CURVE ( 'NONE', #192, #192, #75, .T. ) ;
#68 = PLANE ( 'NONE',  #59 ) ;
#69 = PERSON_AND_ORGANIZATION_ROLE ( 'classification_officer' ) ;
#70 = COORDINATED_UNIVERSAL_TIME_OFFSET ( 1, 0, .AHEAD. ) ;
#71 = EDGE_LOOP ( 'NONE', ( #133 ) ) ;
#72 = AXIS2_PLACEMENT_3D ( 'NONE', #11, #43, #174 ) ;
#73 = APPROVAL_PERSON_ORGANIZATION ( #114, #189, #121 ) ;
#74 = SHAPE_DEFINITION_REPRESENTATION ( #78, #26 ) ;
#75 = CIRCLE ( 'NONE', #65, 4.000000000000000000 ) ;
#76 = DIRECTION ( 'NONE',  ( 0.0000000000000000000, 1.000000000000000000, 0.0000000000000000000 ) ) ;
#77 = DIRECTION ( 'NONE',  ( 4.275831445896959482E-31, 1.000000000000000000, 1.224646799147353454E-16 ) ) ;
#78 = PRODUCT_DEFINITION_SHAPE ( 'NONE', 'NONE',  #94 ) ;
#79 = CLOSED_SHELL ( 'NONE', ( #136, #97, #120, #130 ) ) ;
#80 = FACE_BOUND ( 'NONE', #186, .T. ) ;
#81 = DIRECTION ( 'NONE',  ( -4.275831445896958607E-31, -1.000000000000000000, -1.224646799147353207E-16 ) ) ;
#82 = PLANE ( 'NONE',  #156 ) ;
#83 = SECURITY_CLASSIFICATION ( '', '', #54 ) ;
#84 = EDGE_CURVE ( 'NONE', #35, #35, #194, .T. ) ;
#85 = DIRECTION ( 'NONE',  ( 0.0000000000000000000, 1.000000000000000000, 0.0000000000000000000 ) ) ;
#86 = APPLICATION_CONTEXT ( 'configuration controlled 3d designs of mechanical parts and assemblies' ) ;
#87 = APPROVAL_DATE_TIME ( #149, #189 ) ;
#88 = DATE_TIME_ROLE ( 'creation_date' ) ;
#89 = PERSON_AND_ORGANIZATION_ROLE ( 'design_supplier' ) ;
#90 = APPROVAL_STATUS ( 'not_yet_approved' ) ;
#91 = CARTESIAN_POINT ( 'NONE',  ( 1.047444401652940007E-13, 3.749399456654634714E-32, 30.00000000000000000 ) ) ;
#92 = CIRCLE ( 'NONE', #72, 4.999999999999999112 ) ;
#93 = FACE_OUTER_BOUND ( 'NONE', #28, .T. ) ;
#94 = PRODUCT_DEFINITION ( 'UNKNOWN', '', #173, #157 ) ;
#95 = DIRECTION ( 'NONE',  ( -3.491481338843133355E-15, 1.224646799147353207E-16, -1.000000000000000000 ) ) ;
#96 = CARTESIAN_POINT ( 'NONE',  ( 1.047444401652940007E-13, 4.999999999999990230, 30.00000000000000000 ) ) ;
#97 = ADVANCED_FACE ( 'NONE', ( #93, #46 ), #33, .T. ) ;
#98 = CARTESIAN_POINT ( 'NONE',  ( 1.047444401652940007E-13, 3.749399456654634714E-32, 30.00000000000000000 ) ) ;
#99 = LOCAL_TIME ( 10, 33, 40.00000000000000000, #118 ) ;
#100 = FACE_OUTER_BOUND ( 'NONE', #107, .T. ) ;
#101 = FACE_OUTER_BOUND ( 'NONE', #71, .T. ) ;
#102 = PERSON_AND_ORGANIZATION ( #140, #36 ) ;
#103 = AXIS2_PLACEMENT_3D ( 'NONE', #98, #193, #81 ) ;
#104 = COORDINATED_UNIVERSAL_TIME_OFFSET ( 1, 0, .AHEAD. ) ;
#105 = EDGE_LOOP ( 'NONE', ( #168 ) ) ;
#106 = DATE_AND_TIME ( #23, #30 ) ;
#107 = EDGE_LOOP ( 'NONE', ( #56 ) ) ;
#108 = CARTESIAN_POINT ( 'NONE',  ( 0.0000000000000000000, 0.0000000000000000000, 0.0000000000000000000 ) ) ;
#109 = AXIS2_PLACEMENT_3D ( 'NONE', #175, #126, #76 ) ;
#110 = VERTEX_POINT ( 'NONE', #8 ) ;
#111 = CARTESIAN_POINT ( 'NONE',  ( 4.275753076543797008E-31, 4.999999999999990230, 1.224624353272506412E-16 ) ) ;
#112 = VERTEX_POINT ( 'NONE', #111 ) ;
#113 = CC_DESIGN_PERSON_AND_ORGANIZATION_ASSIGNMENT ( #167, #182, ( #173 ) ) ;
#114 = PERSON_AND_ORGANIZATION ( #140, #36 ) ;
#115 = DIRECTION ( 'NONE',  ( 3.491481338843133355E-15, -1.224646799147353207E-16, 1.000000000000000000 ) ) ;
#116 = APPROVAL_DATE_TIME ( #199, #147 ) ;
#117 = DIRECTION ( 'NONE',  ( 0.0000000000000000000, 1.000000000000000000, 0.0000000000000000000 ) ) ;
#118 = COORDINATED_UNIVERSAL_TIME_OFFSET ( 1, 0, .AHEAD. ) ;
#119 = LOCAL_TIME ( 10, 33, 40.00000000000000000, #9 ) ;
#120 = ADVANCED_FACE ( 'NONE', ( #4, #80 ), #179, .T. ) ;
#121 = APPROVAL_ROLE ( '' ) ;
#122 = ORIENTED_EDGE ( 'NONE', *, *, #47, .F. ) ;
#123 = EDGE_LOOP ( 'NONE', ( #170 ) ) ;
#124 = CC_DESIGN_SECURITY_CLASSIFICATION ( #83, ( #173 ) ) ;
#125 = APPROVAL ( #90, 'UNSPECIFIED' ) ;
#126 = DIRECTION ( 'NONE',  ( -3.491481338843133355E-15, 1.224646799147353207E-16, -1.000000000000000000 ) ) ;
#127 = DIRECTION ( 'NONE',  ( -3.491481338843133355E-15, 1.224646799147353207E-16, -1.000000000000000000 ) ) ;
#128 = AXIS2_PLACEMENT_3D ( 'NONE', #196, #58, #138 ) ;
#129 = VERTEX_POINT ( 'NONE', #49 ) ;
#130 = ADVANCED_FACE ( 'NONE', ( #20 ), #82, .F. ) ;
#131 =( NAMED_UNIT ( * ) PLANE_ANGLE_UNIT ( ) SI_UNIT ( $, .RADIAN. ) );
#132 = APPLICATION_PROTOCOL_DEFINITION ( 'international standard', 'config_control_design', 1994, #3 ) ;
#133 = ORIENTED_EDGE ( 'NONE', *, *, #1, .T. ) ;
#134 = CARTESIAN_POINT ( 'NONE',  ( -8.551702076470477431E-31, 2.999533309458100644E-32, -2.449304821232124019E-16 ) ) ;
#135 = APPROVAL_DATE_TIME ( #17, #125 ) ;
#136 = ADVANCED_FACE ( 'NONE', ( #171 ), #2, .F. ) ;
#137 = CC_DESIGN_DATE_AND_TIME_ASSIGNMENT ( #106, #88, ( #94 ) ) ;
#138 = DIRECTION ( 'NONE',  ( 4.275831445896958607E-31, 1.000000000000000000, 1.224646799147353207E-16 ) ) ;
#139 = UNCERTAINTY_MEASURE_WITH_UNIT (LENGTH_MEASURE( 1.000000000000000082E-05 ), #178, 'distance_accuracy_value', 'NONE');
#140 = PERSON ( 'UNSPECIFIED', 'UNSPECIFIED', 'UNSPECIFIED', ('UNSPECIFIED'), ('UNSPECIFIED'), ('UNSPECIFIED') ) ;
#141 = APPROVAL_STATUS ( 'not_yet_approved' ) ;
#142 = DIRECTION ( 'NONE',  ( 4.275831445896958607E-31, 1.000000000000000000, 1.224646799147353207E-16 ) ) ;
#143 = MANIFOLD_SOLID_BREP ( 'Corps-Déplacer/Copier1[2]', #6 ) ;
#144 = PERSON_AND_ORGANIZATION ( #140, #36 ) ;
#145 = MANIFOLD_SOLID_BREP ( 'Corps-Déplacer/Copier1[1]', #79 ) ;
#146 = PERSON_AND_ORGANIZATION ( #140, #36 ) ;
#147 = APPROVAL ( #201, 'UNSPECIFIED' ) ;
#148 = DIRECTION ( 'NONE',  ( -4.275831445896958607E-31, -1.000000000000000000, -1.224646799147353207E-16 ) ) ;
#149 = DATE_AND_TIME ( #10, #55 ) ;
#150 = CALENDAR_DATE ( 2021, 8, 12 ) ;
#151 = EDGE_LOOP ( 'NONE', ( #184 ) ) ;
#152 = APPROVAL_PERSON_ORGANIZATION ( #25, #125, #13 ) ;
#153 = ADVANCED_FACE ( 'NONE', ( #100, #101 ), #62, .T. ) ;
#154 = DIRECTION ( 'NONE',  ( -3.491481338843133355E-15, 1.224646799147353207E-16, -1.000000000000000000 ) ) ;
#155 = CARTESIAN_POINT ( 'NONE',  ( 2.618611004132350143E-13, -9.184850993605148733E-15, 75.00000000000000000 ) ) ;
#156 = AXIS2_PLACEMENT_3D ( 'NONE', #12, #188, #202 ) ;
#157 = DESIGN_CONTEXT ( 'detailed design', #86, 'design' ) ;
#158 = CIRCLE ( 'NONE', #163, 4.999999999999993783 ) ;
#159 = MECHANICAL_CONTEXT ( 'NONE', #3, 'mechanical' ) ;
#160 = PLANE ( 'NONE',  #103 ) ;
#161 = CARTESIAN_POINT ( 'NONE',  ( 1.047444401652940007E-13, -3.673940397442059178E-15, 30.00000000000000000 ) ) ;
#162 = CC_DESIGN_PERSON_AND_ORGANIZATION_ASSIGNMENT ( #24, #69, ( #83 ) ) ;
#163 = AXIS2_PLACEMENT_3D ( 'NONE', #161, #198, #117 ) ;
#164 = COORDINATED_UNIVERSAL_TIME_OFFSET ( 1, 0, .AHEAD. ) ;
#165 = DATE_TIME_ROLE ( 'classification_date' ) ;
#166 = ORIENTED_EDGE ( 'NONE', *, *, #47, .T. ) ;
#167 = PERSON_AND_ORGANIZATION ( #140, #36 ) ;
#168 = ORIENTED_EDGE ( 'NONE', *, *, #84, .T. ) ;
#169 = CC_DESIGN_PERSON_AND_ORGANIZATION_ASSIGNMENT ( #7, #180, ( #94 ) ) ;
#170 = ORIENTED_EDGE ( 'NONE', *, *, #195, .T. ) ;
#171 = FACE_OUTER_BOUND ( 'NONE', #105, .T. ) ;
#172 = ADVANCED_FACE ( 'NONE', ( #61 ), #160, .T. ) ;
#173 = PRODUCT_DEFINITION_FORMATION_WITH_SPECIFIED_SOURCE ( 'ANY', '', #19, .NOT_KNOWN. ) ;
#174 = DIRECTION ( 'NONE',  ( 0.0000000000000000000, 1.000000000000000000, 0.0000000000000000000 ) ) ;
#175 = CARTESIAN_POINT ( 'NONE',  ( 1.047444401652940007E-13, -3.673940397442059178E-15, 30.00000000000000000 ) ) ;
#176 = CARTESIAN_POINT ( 'NONE',  ( 2.618611004132350143E-13, 3.999999999999990674, 75.00000000000000000 ) ) ;
#177 = PRODUCT_RELATED_PRODUCT_CATEGORY ( 'detail', '', ( #19 ) ) ;
#178 =( LENGTH_UNIT ( ) NAMED_UNIT ( * ) SI_UNIT ( .MILLI., .METRE. ) );
#179 = CONICAL_SURFACE ( 'NONE', #197, 4.000000000000000000, 0.7853981633974473908 ) ;
#180 = PERSON_AND_ORGANIZATION_ROLE ( 'creator' ) ;
#181 = CC_DESIGN_PERSON_AND_ORGANIZATION_ASSIGNMENT ( #146, #21, ( #19 ) ) ;
#182 = PERSON_AND_ORGANIZATION_ROLE ( 'creator' ) ;
#183 = LOCAL_TIME ( 10, 33, 40.00000000000000000, #70 ) ;
#184 = ORIENTED_EDGE ( 'NONE', *, *, #1, .F. ) ;
#185 =( NAMED_UNIT ( * ) SI_UNIT ( $, .STERADIAN. ) SOLID_ANGLE_UNIT ( ) );
#186 = EDGE_LOOP ( 'NONE', ( #187 ) ) ;
#187 = ORIENTED_EDGE ( 'NONE', *, *, #67, .T. ) ;
#188 = DIRECTION ( 'NONE',  ( -3.491481338843133355E-15, 1.224646799147353207E-16, -1.000000000000000000 ) ) ;
#189 = APPROVAL ( #141, 'UNSPECIFIED' ) ;
#190 = CIRCLE ( 'NONE', #39, 4.999999999999990230 ) ;
#191 = APPROVAL_PERSON_ORGANIZATION ( #144, #147, #38 ) ;
#192 = VERTEX_POINT ( 'NONE', #176 ) ;
#193 = DIRECTION ( 'NONE',  ( 3.491481338843133355E-15, -1.224646799147353207E-16, 1.000000000000000000 ) ) ;
#194 = CIRCLE ( 'NONE', #109, 4.999999999999993783 ) ;
#195 = EDGE_CURVE ( 'NONE', #112, #112, #190, .T. ) ;
#196 = CARTESIAN_POINT ( 'NONE',  ( 0.0000000000000000000, 0.0000000000000000000, 0.0000000000000000000 ) ) ;
#197 = AXIS2_PLACEMENT_3D ( 'NONE', #5, #48, #85 ) ;
#198 = DIRECTION ( 'NONE',  ( -3.491481338843133355E-15, 1.224646799147353207E-16, -1.000000000000000000 ) ) ;
#199 = DATE_AND_TIME ( #66, #119 ) ;
#200 = EDGE_LOOP ( 'NONE', ( #14 ) ) ;
#201 = APPROVAL_STATUS ( 'not_yet_approved' ) ;
#202 = DIRECTION ( 'NONE',  ( 4.275831445896958607E-31, 1.000000000000000000, 1.224646799147353207E-16 ) ) ;
#203 = CC_DESIGN_APPROVAL ( #147, ( #173 ) ) ;
ENDSEC;
END-ISO-10303-21;
