ISO-10303-21;
HEADER;
FILE_DESCRIPTION (( 'STEP AP203' ),
    '1' );
FILE_NAME ('372678.step',
    '2021-12-08T09:33:40',
    ( '' ),
    ( '' ),
    'SwSTEP 2.0',
    'SolidWorks 2019',
    '' );
FILE_SCHEMA (( 'CONFIG_CONTROL_DESIGN' ));
ENDSEC;

DATA;
#1 = DIRECTION ( 'NONE',  ( -3.491481338843133355E-15, 1.224646799147353207E-16, -1.000000000000000000 ) ) ;
#2 = PLANE ( 'NONE',  #113 ) ;
#3 = DIRECTION ( 'NONE',  ( -3.491481338843133355E-15, 1.224646799147353207E-16, -1.000000000000000000 ) ) ;
#4 = AXIS2_PLACEMENT_3D ( 'NONE', #115, #146, #145 ) ;
#5 = LOCAL_TIME ( 10, 33, 40.00000000000000000, #26 ) ;
#6 = DIRECTION ( 'NONE',  ( 0.0000000000000000000, 1.000000000000000000, 0.0000000000000000000 ) ) ;
#7 = EDGE_CURVE ( 'NONE', #66, #66, #103, .T. ) ;
#8 = VERTEX_POINT ( 'NONE', #23 ) ;
#9 =( NAMED_UNIT ( * ) SI_UNIT ( $, .STERADIAN. ) SOLID_ANGLE_UNIT ( ) );
#10 = AXIS2_PLACEMENT_3D ( 'NONE', #118, #164, #149 ) ;
#11 = APPLICATION_PROTOCOL_DEFINITION ( 'international standard', 'config_control_design', 1994, #52 ) ;
#12 = PERSON_AND_ORGANIZATION_ROLE ( 'classification_officer' ) ;
#13 = DESIGN_CONTEXT ( 'detailed design', #52, 'design' ) ;
#14 = CIRCLE ( 'NONE', #183, 4.999999999999990230 ) ;
#15 = CC_DESIGN_APPROVAL ( #86, ( #76 ) ) ;
#16 = CARTESIAN_POINT ( 'NONE',  ( 8.379555213223520053E-14, 3.749399456654635261E-32, 24.00000000000000000 ) ) ;
#17 = CARTESIAN_POINT ( 'NONE',  ( -1.710340415294095486E-30, 5.999066618916201289E-32, -4.898609642464248037E-16 ) ) ;
#18 = FACE_OUTER_BOUND ( 'NONE', #157, .T. ) ;
#19 = CC_DESIGN_PERSON_AND_ORGANIZATION_ASSIGNMENT ( #68, #12, ( #160 ) ) ;
#20 = FACE_OUTER_BOUND ( 'NONE', #158, .T. ) ;
#21 = DIRECTION ( 'NONE',  ( -4.275831445896958607E-31, -1.000000000000000000, -1.224646799147353207E-16 ) ) ;
#22 = ADVANCED_BREP_SHAPE_REPRESENTATION ( '372678', ( #162, #165, #79 ), #128 ) ;
#23 = CARTESIAN_POINT ( 'NONE',  ( 8.379555213223520053E-14, 4.999999999999990230, 24.00000000000000000 ) ) ;
#24 = PERSON_AND_ORGANIZATION_ROLE ( 'creator' ) ;
#25 = DATE_TIME_ROLE ( 'creation_date' ) ;
#26 = COORDINATED_UNIVERSAL_TIME_OFFSET ( 1, 0, .AHEAD. ) ;
#27 = DIRECTION ( 'NONE',  ( 0.0000000000000000000, 0.0000000000000000000, 1.000000000000000000 ) ) ;
#28 = FACE_OUTER_BOUND ( 'NONE', #134, .T. ) ;
#29 = ORIENTED_EDGE ( 'NONE', *, *, #106, .T. ) ;
#30 = DIRECTION ( 'NONE',  ( -3.491481338843133355E-15, 1.224646799147353207E-16, -1.000000000000000000 ) ) ;
#31 = FACE_OUTER_BOUND ( 'NONE', #169, .T. ) ;
#32 = CYLINDRICAL_SURFACE ( 'NONE', #93, 4.999999999999995559 ) ;
#33 = VERTEX_POINT ( 'NONE', #65 ) ;
#34 = CARTESIAN_POINT ( 'NONE',  ( 2.618611004132350143E-13, 3.999999999999990674, 75.00000000000000000 ) ) ;
#35 = PERSON ( 'UNSPECIFIED', 'UNSPECIFIED', 'UNSPECIFIED', ('UNSPECIFIED'), ('UNSPECIFIED'), ('UNSPECIFIED') ) ;
#36 = SHAPE_DEFINITION_REPRESENTATION ( #71, #22 ) ;
#37 = ORGANIZATION ( 'UNSPECIFIED', 'UNSPECIFIED', '' ) ;
#38 = MECHANICAL_CONTEXT ( 'NONE', #150, 'mechanical' ) ;
#39 = APPROVAL ( #110, 'UNSPECIFIED' ) ;
#40 = DATE_AND_TIME ( #127, #181 ) ;
#41 = PERSON_AND_ORGANIZATION ( #35, #37 ) ;
#42 = CONICAL_SURFACE ( 'NONE', #10, 4.000000000000000000, 0.7853981633974473908 ) ;
#43 = ORIENTED_EDGE ( 'NONE', *, *, #129, .T. ) ;
#44 = FACE_OUTER_BOUND ( 'NONE', #190, .T. ) ;
#45 = EDGE_LOOP ( 'NONE', ( #43 ) ) ;
#46 = PRODUCT_RELATED_PRODUCT_CATEGORY ( 'detail', '', ( #107 ) ) ;
#47 = DIRECTION ( 'NONE',  ( -3.491481338843133355E-15, 1.224646799147353207E-16, -1.000000000000000000 ) ) ;
#48 = ORIENTED_EDGE ( 'NONE', *, *, #106, .F. ) ;
#49 = CC_DESIGN_PERSON_AND_ORGANIZATION_ASSIGNMENT ( #187, #24, ( #76 ) ) ;
#50 = AXIS2_PLACEMENT_3D ( 'NONE', #95, #156, #75 ) ;
#51 = CALENDAR_DATE ( 2021, 8, 12 ) ;
#52 = APPLICATION_CONTEXT ( 'configuration controlled 3d designs of mechanical parts and assemblies' ) ;
#53 = CIRCLE ( 'NONE', #84, 4.000000000000000000 ) ;
#54 = LOCAL_TIME ( 10, 33, 40.00000000000000000, #139 ) ;
#55 = DATE_AND_TIME ( #171, #85 ) ;
#56 = PERSON_AND_ORGANIZATION ( #35, #37 ) ;
#57 = CC_DESIGN_APPROVAL ( #60, ( #160 ) ) ;
#58 = DIRECTION ( 'NONE',  ( -3.491481338843133355E-15, 1.224646799147353207E-16, -1.000000000000000000 ) ) ;
#59 = DIRECTION ( 'NONE',  ( -4.275831445896958607E-31, -1.000000000000000000, -1.224646799147353207E-16 ) ) ;
#60 = APPROVAL ( #69, 'UNSPECIFIED' ) ;
#61 = CARTESIAN_POINT ( 'NONE',  ( 0.0000000000000000000, 0.0000000000000000000, 0.0000000000000000000 ) ) ;
#62 = CIRCLE ( 'NONE', #96, 4.999999999999999112 ) ;
#63 = CARTESIAN_POINT ( 'NONE',  ( 2.618611004132350143E-13, -9.184850993605148733E-15, 75.00000000000000000 ) ) ;
#64 = DIRECTION ( 'NONE',  ( 0.0000000000000000000, 1.000000000000000000, 0.0000000000000000000 ) ) ;
#65 = CARTESIAN_POINT ( 'NONE',  ( 4.275753076543797008E-31, 4.999999999999990230, 1.224624353272506412E-16 ) ) ;
#66 = VERTEX_POINT ( 'NONE', #120 ) ;
#67 = PERSON_AND_ORGANIZATION_ROLE ( 'creator' ) ;
#68 = PERSON_AND_ORGANIZATION ( #35, #37 ) ;
#69 = APPROVAL_STATUS ( 'not_yet_approved' ) ;
#70 = COORDINATED_UNIVERSAL_TIME_OFFSET ( 1, 0, .AHEAD. ) ;
#71 = PRODUCT_DEFINITION_SHAPE ( 'NONE', 'NONE',  #76 ) ;
#72 = APPROVAL_STATUS ( 'not_yet_approved' ) ;
#73 = ORIENTED_EDGE ( 'NONE', *, *, #119, .T. ) ;
#74 = CLOSED_SHELL ( 'NONE', ( #88, #155, #195, #180 ) ) ;
#75 = DIRECTION ( 'NONE',  ( 4.275831445896958607E-31, 1.000000000000000000, 1.224646799147353207E-16 ) ) ;
#76 = PRODUCT_DEFINITION ( 'UNKNOWN', '', #199, #13 ) ;
#77 = CARTESIAN_POINT ( 'NONE',  ( -8.551702076470477431E-31, 2.999533309458100644E-32, -2.449304821232124019E-16 ) ) ;
#78 = CARTESIAN_POINT ( 'NONE',  ( 8.379555213223520053E-14, -2.939152317953647894E-15, 24.00000000000000000 ) ) ;
#79 = AXIS2_PLACEMENT_3D ( 'NONE', #166, #27, #104 ) ;
#80 = PLANE ( 'NONE',  #4 ) ;
#81 = CARTESIAN_POINT ( 'NONE',  ( 0.0000000000000000000, 0.0000000000000000000, 0.0000000000000000000 ) ) ;
#82 = CC_DESIGN_DATE_AND_TIME_ASSIGNMENT ( #55, #25, ( #76 ) ) ;
#83 =( LENGTH_UNIT ( ) NAMED_UNIT ( * ) SI_UNIT ( .MILLI., .METRE. ) );
#84 = AXIS2_PLACEMENT_3D ( 'NONE', #63, #192, #132 ) ;
#85 = LOCAL_TIME ( 10, 33, 40.00000000000000000, #105 ) ;
#86 = APPROVAL ( #72, 'UNSPECIFIED' ) ;
#87 = DATE_AND_TIME ( #185, #5 ) ;
#88 = ADVANCED_FACE ( 'NONE', ( #18 ), #80, .F. ) ;
#89 = CC_DESIGN_SECURITY_CLASSIFICATION ( #160, ( #199 ) ) ;
#90 = PERSON_AND_ORGANIZATION ( #35, #37 ) ;
#91 = PERSON_AND_ORGANIZATION ( #35, #37 ) ;
#92 = CIRCLE ( 'NONE', #176, 4.999999999999992895 ) ;
#93 = AXIS2_PLACEMENT_3D ( 'NONE', #81, #100, #172 ) ;
#94 = APPLICATION_PROTOCOL_DEFINITION ( 'international standard', 'config_control_design', 1994, #150 ) ;
#95 = CARTESIAN_POINT ( 'NONE',  ( 2.618611004132350143E-13, 2.999519565323700984E-32, 75.00000000000000000 ) ) ;
#96 = AXIS2_PLACEMENT_3D ( 'NONE', #203, #30, #6 ) ;
#97 = CYLINDRICAL_SURFACE ( 'NONE', #175, 4.999999999999992006 ) ;
#98 = ORIENTED_EDGE ( 'NONE', *, *, #7, .T. ) ;
#99 = PLANE ( 'NONE',  #188 ) ;
#100 = DIRECTION ( 'NONE',  ( -3.491481338843133355E-15, 1.224646799147353207E-16, -1.000000000000000000 ) ) ;
#101 = CC_DESIGN_DATE_AND_TIME_ASSIGNMENT ( #137, #197, ( #160 ) ) ;
#102 = CALENDAR_DATE ( 2021, 8, 12 ) ;
#103 = CIRCLE ( 'NONE', #148, 4.999999999999992895 ) ;
#104 = DIRECTION ( 'NONE',  ( 1.000000000000000000, 0.0000000000000000000, 0.0000000000000000000 ) ) ;
#105 = COORDINATED_UNIVERSAL_TIME_OFFSET ( 1, 0, .AHEAD. ) ;
#106 = EDGE_CURVE ( 'NONE', #33, #33, #14, .T. ) ;
#107 = PRODUCT ( '372678', '372678', '', ( #38 ) ) ;
#108 = DATE_AND_TIME ( #51, #54 ) ;
#109 = ORIENTED_EDGE ( 'NONE', *, *, #119, .F. ) ;
#110 = APPROVAL_STATUS ( 'not_yet_approved' ) ;
#111 = FACE_OUTER_BOUND ( 'NONE', #142, .T. ) ;
#112 = FACE_BOUND ( 'NONE', #45, .T. ) ;
#113 = AXIS2_PLACEMENT_3D ( 'NONE', #16, #159, #21 ) ;
#114 = EDGE_LOOP ( 'NONE', ( #201 ) ) ;
#115 = CARTESIAN_POINT ( 'NONE',  ( 8.379555213223520053E-14, 3.749399456654635261E-32, 24.00000000000000000 ) ) ;
#116 = EDGE_LOOP ( 'NONE', ( #173 ) ) ;
#117 = APPROVAL_PERSON_ORGANIZATION ( #90, #39, #141 ) ;
#118 = CARTESIAN_POINT ( 'NONE',  ( 2.618611004132350143E-13, -9.184850993605148733E-15, 75.00000000000000000 ) ) ;
#119 = EDGE_CURVE ( 'NONE', #163, #163, #62, .T. ) ;
#120 = CARTESIAN_POINT ( 'NONE',  ( 8.379555213223520053E-14, 4.999999999999990230, 24.00000000000000000 ) ) ;
#121 = APPROVAL_DATE_TIME ( #108, #60 ) ;
#122 = APPROVAL_PERSON_ORGANIZATION ( #153, #60, #140 ) ;
#123 = PERSON_AND_ORGANIZATION ( #35, #37 ) ;
#124 = ADVANCED_FACE ( 'NONE', ( #111, #135 ), #97, .T. ) ;
#125 = UNCERTAINTY_MEASURE_WITH_UNIT (LENGTH_MEASURE( 1.000000000000000082E-05 ), #83, 'distance_accuracy_value', 'NONE');
#126 = COORDINATED_UNIVERSAL_TIME_OFFSET ( 1, 0, .AHEAD. ) ;
#127 = CALENDAR_DATE ( 2021, 8, 12 ) ;
#128 =( GEOMETRIC_REPRESENTATION_CONTEXT ( 3 ) GLOBAL_UNCERTAINTY_ASSIGNED_CONTEXT ( ( #125 ) ) GLOBAL_UNIT_ASSIGNED_CONTEXT ( ( #83, #136, #9 ) ) REPRESENTATION_CONTEXT ( 'NONE', 'WORKASPACE' ) );
#129 = EDGE_CURVE ( 'NONE', #182, #182, #53, .T. ) ;
#130 = EDGE_LOOP ( 'NONE', ( #191 ) ) ;
#131 = FACE_OUTER_BOUND ( 'NONE', #116, .T. ) ;
#132 = DIRECTION ( 'NONE',  ( 0.0000000000000000000, 1.000000000000000000, 0.0000000000000000000 ) ) ;
#133 = CC_DESIGN_APPROVAL ( #39, ( #199 ) ) ;
#134 = EDGE_LOOP ( 'NONE', ( #186 ) ) ;
#135 = FACE_OUTER_BOUND ( 'NONE', #130, .T. ) ;
#136 =( NAMED_UNIT ( * ) PLANE_ANGLE_UNIT ( ) SI_UNIT ( $, .RADIAN. ) );
#137 = DATE_AND_TIME ( #102, #202 ) ;
#138 = EDGE_CURVE ( 'NONE', #8, #8, #92, .T. ) ;
#139 = COORDINATED_UNIVERSAL_TIME_OFFSET ( 1, 0, .AHEAD. ) ;
#140 = APPROVAL_ROLE ( '' ) ;
#141 = APPROVAL_ROLE ( '' ) ;
#142 = EDGE_LOOP ( 'NONE', ( #48 ) ) ;
#143 = ADVANCED_FACE ( 'NONE', ( #31 ), #99, .F. ) ;
#144 = DIRECTION ( 'NONE',  ( 3.491481338843133355E-15, -1.224646799147353207E-16, 1.000000000000000000 ) ) ;
#145 = DIRECTION ( 'NONE',  ( -4.275831445896958607E-31, -1.000000000000000000, -1.224646799147353207E-16 ) ) ;
#146 = DIRECTION ( 'NONE',  ( 3.491481338843133355E-15, -1.224646799147353207E-16, 1.000000000000000000 ) ) ;
#147 = CC_DESIGN_PERSON_AND_ORGANIZATION_ASSIGNMENT ( #123, #184, ( #107 ) ) ;
#148 = AXIS2_PLACEMENT_3D ( 'NONE', #78, #1, #64 ) ;
#149 = DIRECTION ( 'NONE',  ( 0.0000000000000000000, 1.000000000000000000, 0.0000000000000000000 ) ) ;
#150 = APPLICATION_CONTEXT ( 'configuration controlled 3d designs of mechanical parts and assemblies' ) ;
#151 = APPROVAL_DATE_TIME ( #87, #39 ) ;
#152 = ADVANCED_FACE ( 'NONE', ( #189 ), #2, .T. ) ;
#153 = PERSON_AND_ORGANIZATION ( #35, #37 ) ;
#154 = PERSON_AND_ORGANIZATION_ROLE ( 'design_supplier' ) ;
#155 = ADVANCED_FACE ( 'NONE', ( #131, #20 ), #32, .T. ) ;
#156 = DIRECTION ( 'NONE',  ( -3.491481338843133355E-15, 1.224646799147353207E-16, -1.000000000000000000 ) ) ;
#157 = EDGE_LOOP ( 'NONE', ( #98 ) ) ;
#158 = EDGE_LOOP ( 'NONE', ( #73 ) ) ;
#159 = DIRECTION ( 'NONE',  ( 3.491481338843133355E-15, -1.224646799147353207E-16, 1.000000000000000000 ) ) ;
#160 = SECURITY_CLASSIFICATION ( '', '', #198 ) ;
#161 = PLANE ( 'NONE',  #50 ) ;
#162 = MANIFOLD_SOLID_BREP ( 'Corps-Déplacer/Copier1[1]', #74 ) ;
#163 = VERTEX_POINT ( 'NONE', #196 ) ;
#164 = DIRECTION ( 'NONE',  ( -3.491481338843133355E-15, 1.224646799147353207E-16, -1.000000000000000000 ) ) ;
#165 = MANIFOLD_SOLID_BREP ( 'Corps-Déplacer/Copier1[2]', #194 ) ;
#166 = CARTESIAN_POINT ( 'NONE',  ( 0.0000000000000000000, 0.0000000000000000000, 0.0000000000000000000 ) ) ;
#167 = APPROVAL_PERSON_ORGANIZATION ( #56, #86, #168 ) ;
#168 = APPROVAL_ROLE ( '' ) ;
#169 = EDGE_LOOP ( 'NONE', ( #29 ) ) ;
#170 = CC_DESIGN_PERSON_AND_ORGANIZATION_ASSIGNMENT ( #41, #154, ( #199 ) ) ;
#171 = CALENDAR_DATE ( 2021, 8, 12 ) ;
#172 = DIRECTION ( 'NONE',  ( 4.275831445896959482E-31, 1.000000000000000000, 1.224646799147353454E-16 ) ) ;
#173 = ORIENTED_EDGE ( 'NONE', *, *, #7, .F. ) ;
#174 = CC_DESIGN_PERSON_AND_ORGANIZATION_ASSIGNMENT ( #91, #67, ( #199 ) ) ;
#175 = AXIS2_PLACEMENT_3D ( 'NONE', #61, #47, #193 ) ;
#176 = AXIS2_PLACEMENT_3D ( 'NONE', #178, #58, #179 ) ;
#177 = DIRECTION ( 'NONE',  ( 4.275831445896958607E-31, 1.000000000000000000, 1.224646799147353207E-16 ) ) ;
#178 = CARTESIAN_POINT ( 'NONE',  ( 8.379555213223520053E-14, -2.939152317953647894E-15, 24.00000000000000000 ) ) ;
#179 = DIRECTION ( 'NONE',  ( 0.0000000000000000000, 1.000000000000000000, 0.0000000000000000000 ) ) ;
#180 = ADVANCED_FACE ( 'NONE', ( #28 ), #161, .F. ) ;
#181 = LOCAL_TIME ( 10, 33, 40.00000000000000000, #126 ) ;
#182 = VERTEX_POINT ( 'NONE', #34 ) ;
#183 = AXIS2_PLACEMENT_3D ( 'NONE', #17, #3, #177 ) ;
#184 = PERSON_AND_ORGANIZATION_ROLE ( 'design_owner' ) ;
#185 = CALENDAR_DATE ( 2021, 8, 12 ) ;
#186 = ORIENTED_EDGE ( 'NONE', *, *, #129, .F. ) ;
#187 = PERSON_AND_ORGANIZATION ( #35, #37 ) ;
#188 = AXIS2_PLACEMENT_3D ( 'NONE', #77, #144, #59 ) ;
#189 = FACE_OUTER_BOUND ( 'NONE', #114, .T. ) ;
#190 = EDGE_LOOP ( 'NONE', ( #109 ) ) ;
#191 = ORIENTED_EDGE ( 'NONE', *, *, #138, .T. ) ;
#192 = DIRECTION ( 'NONE',  ( -3.491481338843133355E-15, 1.224646799147353207E-16, -1.000000000000000000 ) ) ;
#193 = DIRECTION ( 'NONE',  ( 4.275831445896958607E-31, 1.000000000000000000, 1.224646799147353207E-16 ) ) ;
#194 = CLOSED_SHELL ( 'NONE', ( #143, #124, #152 ) ) ;
#195 = ADVANCED_FACE ( 'NONE', ( #44, #112 ), #42, .T. ) ;
#196 = CARTESIAN_POINT ( 'NONE',  ( 2.583696190743918430E-13, 4.999999999999990230, 74.00000000000000000 ) ) ;
#197 = DATE_TIME_ROLE ( 'classification_date' ) ;
#198 = SECURITY_CLASSIFICATION_LEVEL ( 'unclassified' ) ;
#199 = PRODUCT_DEFINITION_FORMATION_WITH_SPECIFIED_SOURCE ( 'ANY', '', #107, .NOT_KNOWN. ) ;
#200 = APPROVAL_DATE_TIME ( #40, #86 ) ;
#201 = ORIENTED_EDGE ( 'NONE', *, *, #138, .F. ) ;
#202 = LOCAL_TIME ( 10, 33, 40.00000000000000000, #70 ) ;
#203 = CARTESIAN_POINT ( 'NONE',  ( 2.583696190743918430E-13, -9.062386313690413585E-15, 74.00000000000000000 ) ) ;
ENDSEC;
END-ISO-10303-21;
